  0
SECTION
  2
HEADER
  9
$ACADVER
  1
AC1006
  9
$EXTMIN
 10
-657.457712
 20
-942.523378
  9
$EXTMAX
 10
589.688829
 20
-79.598751
  9
$ANGDIR
 70
   0
  9
$LUNITS
 70
   2
  0
ENDSEC
  0
SECTION
  2
TABLES
  0
TABLE
  2
LTYPE
 70
   3
  0
LTYPE
  2
CONTINUOUS
 70
64
  3
SOLID LINE
 72
65
 73
0
 40
0.
  0
LTYPE
  2
DASHED
 70
64
  3
DASHED LINE
 72
65
 73
2
 40
8.
 49
5.
 49
-3.
  0
LTYPE
  2
DOTTED
 70
64
  3
DOTTED LINE
 72
65
 73
2
 40
4.
 49
2.
 49
-2.
  0
ENDTAB
  0
TABLE
  2
LAYER
 70
   15
  0
LAYER
  2
A-WALL-0
 70
64
 62
   7
  6
CONTINUOUS
  0
LAYER
  2
A-CASE-0
 70
64
 62
   7
  6
CONTINUOUS
  0
LAYER
  2
A-DIMS-0
 70
64
 62
   7
  6
CONTINUOUS
  0
LAYER
  2
A-POWR-0
 70
64
 62
   7
  6
CONTINUOUS
  0
LAYER
  2
A-NOTE-0
 70
64
 62
   7
  6
CONTINUOUS
  0
LAYER
  2
A-TEXT-0
 70
64
 62
   7
  6
CONTINUOUS
  0
LAYER
  2
A-FURN-0
 70
64
 62
   7
  6
CONTINUOUS
  0
LAYER
  2
A-GLAZ-0
 70
64
 62
   7
  6
CONTINUOUS
  0
LAYER
  2
A-STAR-0
 70
64
 62
   7
  6
CONTINUOUS
  0
LAYER
  2
A-ROOF-0
 70
64
 62
   7
  6
CONTINUOUS
  0
LAYER
  2
A-C000-0
 70
64
 62
   7
  6
CONTINUOUS
  0
LAYER
  2
A-WALL-1
 70
64
 62
   7
  6
CONTINUOUS
  0
LAYER
  2
A-CASE-1
 70
64
 62
   7
  6
CONTINUOUS
  0
LAYER
  2
A-DIMS-1
 70
64
 62
   7
  6
CONTINUOUS
  0
LAYER
  2
A-POWR-1
 70
64
 62
   7
  6
CONTINUOUS
  0
LAYER
  2
A-NOTE-1
 70
64
 62
   7
  6
CONTINUOUS
  0
LAYER
  2
A-TEXT-1
 70
64
 62
   7
  6
CONTINUOUS
  0
LAYER
  2
A-FURN-1
 70
64
 62
   7
  6
CONTINUOUS
  0
LAYER
  2
A-GLAZ-1
 70
64
 62
   7
  6
CONTINUOUS
  0
LAYER
  2
A-STAR-1
 70
64
 62
   7
  6
CONTINUOUS
  0
LAYER
  2
A-ROOF-1
 70
64
 62
   7
  6
CONTINUOUS
  0
LAYER
  2
A-C000-1
 70
64
 62
   7
  6
CONTINUOUS
  0
LAYER
  2
A-WALL-2
 70
64
 62
   7
  6
CONTINUOUS
  0
LAYER
  2
A-CASE-2
 70
64
 62
   7
  6
CONTINUOUS
  0
LAYER
  2
A-DIMS-2
 70
64
 62
   7
  6
CONTINUOUS
  0
LAYER
  2
A-POWR-2
 70
64
 62
   7
  6
CONTINUOUS
  0
LAYER
  2
A-NOTE-2
 70
64
 62
   7
  6
CONTINUOUS
  0
LAYER
  2
A-TEXT-2
 70
64
 62
   7
  6
CONTINUOUS
  0
LAYER
  2
A-FURN-2
 70
64
 62
   7
  6
CONTINUOUS
  0
LAYER
  2
A-GLAZ-2
 70
64
 62
   7
  6
CONTINUOUS
  0
LAYER
  2
A-STAR-2
 70
64
 62
   7
  6
CONTINUOUS
  0
LAYER
  2
A-ROOF-2
 70
64
 62
   7
  6
CONTINUOUS
  0
LAYER
  2
A-C000-2
 70
64
 62
   7
  6
CONTINUOUS
  0
LAYER
  2
A-WALL-3
 70
64
 62
   7
  6
CONTINUOUS
  0
LAYER
  2
A-CASE-3
 70
64
 62
   7
  6
CONTINUOUS
  0
LAYER
  2
A-DIMS-3
 70
64
 62
   7
  6
CONTINUOUS
  0
LAYER
  2
A-POWR-3
 70
64
 62
   7
  6
CONTINUOUS
  0
LAYER
  2
A-NOTE-3
 70
64
 62
   7
  6
CONTINUOUS
  0
LAYER
  2
A-TEXT-3
 70
64
 62
   7
  6
CONTINUOUS
  0
LAYER
  2
A-FURN-3
 70
64
 62
   7
  6
CONTINUOUS
  0
LAYER
  2
A-GLAZ-3
 70
64
 62
   7
  6
CONTINUOUS
  0
LAYER
  2
A-STAR-3
 70
64
 62
   7
  6
CONTINUOUS
  0
LAYER
  2
A-ROOF-3
 70
64
 62
   7
  6
CONTINUOUS
  0
LAYER
  2
A-C000-3
 70
64
 62
   7
  6
CONTINUOUS
  0
ENDTAB
  0
ENDSEC
  0
SECTION
  2
BLOCKS
  0
BLOCK
  8
A-CASE-0
  2
FIXT-Toilet
 70
64
 10
0.0
 20
0.0
  0
ARC
  8
A-CASE-0
 10
9.046126
 20
27.780609
 40
1.431891
 50
0.000000
 51
90.000000
  0
LINE
  8
A-CASE-0
 10
9.046126
 20
29.212500
 11
-9.046126
 21
29.212500
  0
ARC
  8
A-CASE-0
 10
-9.046126
 20
27.780609
 40
1.431891
 50
90.000000
 51
180.000000
  0
LINE
  8
A-CASE-0
 10
-10.478017
 20
27.780609
 11
-10.478017
 21
21.731952
  0
ARC
  8
A-CASE-0
 10
-9.046126
 20
21.731952
 40
1.431891
 50
180.000000
 51
270.000000
  0
LINE
  8
A-CASE-0
 10
-9.046126
 20
20.300061
 11
9.046126
 21
20.300061
  0
ARC
  8
A-CASE-0
 10
9.046126
 20
21.731952
 40
1.431891
 50
270.000000
 51
0.000000
  0
LINE
  8
A-CASE-0
 10
10.478017
 20
21.731952
 11
10.478017
 21
27.780609
  0
ARC
  8
A-CASE-0
 10
0.029649
 20
13.174761
 40
6.001594
 50
38.796550
 51
141.203450
  0
ARC
  8
A-CASE-0
 10
0.029649
 20
7.965448
 40
6.001594
 50
218.796550
 51
321.203450
  0
ARC
  8
A-CASE-0
 10
3.269587
 20
10.570105
 40
10.158689
 50
141.203449
 51
218.796551
  0
ARC
  8
A-CASE-0
 10
-3.210289
 20
10.570105
 40
10.158689
 50
321.203449
 51
38.796551
  0
ENDBLK
  0
BLOCK
  8
A-CASE-0
  2
FIXT-WaterHG
 70
64
 10
0.0
 20
0.0
  0
CIRCLE
  8
A-CASE-0
 10
-0.000000
 20
12.479368
 40
12.520632
  0
LINE
  8
A-CASE-0
 10
-6.458884
 20
15.850779
 11
-4.568376
 21
8.795307
  0
LINE
  8
A-CASE-0
 10
-4.568376
 20
8.795307
 11
-3.313710
 21
13.477785
  0
LINE
  8
A-CASE-0
 10
-3.313710
 20
13.477785
 11
-2.055941
 21
8.783728
  0
LINE
  8
A-CASE-0
 10
-2.055941
 20
8.783728
 11
-0.165146
 21
15.840274
  0
LINE
  8
A-CASE-0
 10
1.074278
 20
8.789207
 11
1.074278
 21
15.858361
  0
LINE
  8
A-CASE-0
 10
1.074278
 20
12.090279
 11
5.207015
 21
12.090279
  0
LINE
  8
A-CASE-0
 10
5.246801
 20
8.845993
 11
5.246801
 21
15.896207
  0
ENDBLK
  0
BLOCK
  8
A-CASE-0
  2
FIXT-FrnG2920
 70
64
 10
0.0
 20
0.0
  0
LINE
  8
A-CASE-0
 10
9.947191
 20
39.000000
 11
-9.947191
 21
39.000000
  0
LINE
  8
A-CASE-0
 10
-9.947191
 20
39.000000
 11
-9.947191
 21
11.079557
  0
LINE
  8
A-CASE-0
 10
-9.947191
 20
11.079557
 11
9.947191
 21
11.079557
  0
LINE
  8
A-CASE-0
 10
9.947191
 20
11.079557
 11
9.947191
 21
39.000000
  0
LINE
  8
A-CASE-0
 10
-7.001456
 20
11.079557
 11
-7.001456
 21
10.054955
  0
LINE
  8
A-CASE-0
 10
-7.001456
 20
10.054955
 11
-0.512302
 21
10.054955
  0
LINE
  8
A-CASE-0
 10
-0.512302
 20
10.054955
 11
-0.512302
 21
11.079557
  0
ENDBLK
  0
BLOCK
  8
A-CASE-0
  2
FIXT-OvalBath
 70
64
 10
0.0
 20
0.0
  0
ARC
  8
A-CASE-0
 10
-3.083726
 20
15.991947
 40
6.926340
 50
128.659806
 51
231.340191
  0
ARC
  8
A-CASE-0
 10
3.083726
 20
15.991947
 40
6.926340
 50
308.659809
 51
51.340194
  0
ARC
  8
A-CASE-0
 10
-0.000000
 20
19.846604
 40
11.862710
 50
231.340192
 51
308.659808
  0
ARC
  8
A-CASE-0
 10
-0.000000
 20
12.137290
 40
11.862710
 50
51.340193
 51
128.659807
  0
ARC
  8
A-CASE-0
 10
-3.083726
 20
15.991947
 40
5.029696
 50
128.659805
 51
231.340188
  0
ARC
  8
A-CASE-0
 10
3.083726
 20
15.991947
 40
5.029696
 50
308.659812
 51
51.340195
  0
ARC
  8
A-CASE-0
 10
0.000000
 20
19.846604
 40
9.966065
 50
231.340190
 51
308.659810
  0
ARC
  8
A-CASE-0
 10
0.000000
 20
12.137290
 40
9.966065
 50
51.340193
 51
128.659807
  0
CIRCLE
  8
A-CASE-0
 10
-0.052685
 20
16.966612
 40
0.605872
  0
CIRCLE
  8
A-CASE-0
 10
-0.052685
 20
16.966612
 40
1.027349
  0
ENDBLK
  0
BLOCK
  8
A-CASE-0
  2
FIXT-tubshr02
 70
64
 10
0.0
 20
0.0
  0
ARC
  8
A-CASE-0
 10
21.128384
 20
24.794895
 40
4.812746
 50
0.000000
 51
90.000000
  0
LINE
  8
A-CASE-0
 10
21.128384
 20
29.607641
 11
-22.458626
 21
29.607641
  0
ARC
  8
A-CASE-0
 10
-22.458626
 20
24.794895
 40
4.812746
 50
90.000000
 51
180.000000
  0
LINE
  8
A-CASE-0
 10
-27.271372
 20
24.794895
 11
-27.271372
 21
8.432888
  0
ARC
  8
A-CASE-0
 10
-22.458626
 20
8.432888
 40
4.812746
 50
180.000000
 51
270.000000
  0
LINE
  8
A-CASE-0
 10
-22.458626
 20
3.620142
 11
21.128384
 21
3.620142
  0
ARC
  8
A-CASE-0
 10
21.128384
 20
8.432888
 40
4.812746
 50
270.000000
 51
0.000000
  0
LINE
  8
A-CASE-0
 10
25.941130
 20
8.432888
 11
25.941130
 21
24.794895
  0
CIRCLE
  8
A-CASE-0
 10
-23.952621
 20
16.670141
 40
1.012500
  0
LINE
  8
A-CASE-0
 10
-30.005365
 20
32.000000
 11
-30.005365
 21
-0.013599
  0
LINE
  8
A-CASE-0
 10
-30.005365
 20
-0.013599
 11
30.005365
 21
-0.013599
  0
LINE
  8
A-CASE-0
 10
30.005365
 20
-0.013599
 11
30.005365
 21
32.000000
  0
LINE
  8
A-CASE-0
 10
30.005365
 20
32.000000
 11
-30.005365
 21
32.000000
  0
LINE
  8
A-CASE-0
 10
-30.005365
 20
1.994635
 11
30.005365
 21
1.994635
  0
LINE
  8
A-CASE-0
 10
0.000000
 20
1.994635
 11
0.000000
 21
-0.013599
  0
ENDBLK
  0
BLOCK
  8
A-CASE-1
  2
FIXT-OvalFree
 70
64
 10
0.0
 20
0.0
  0
ARC
  8
A-CASE-1
 10
11.460326
 20
3.470522
 40
3.539272
 50
270.000000
 51
14.999997
  0
ARC
  8
A-CASE-1
 10
-11.460326
 20
3.470522
 40
3.539272
 50
165.000003
 51
270.000000
  0
LINE
  8
A-CASE-1
 10
11.460326
 20
-0.068750
 11
-11.460326
 21
-0.068750
  0
ARC
  8
A-CASE-1
 10
-8.247561
 20
15.460728
 40
3.539272
 50
90.000000
 51
165.000003
  0
LINE
  8
A-CASE-1
 10
-14.879001
 20
4.386553
 11
-11.666235
 21
16.376759
  0
ARC
  8
A-CASE-1
 10
8.247561
 20
15.460728
 40
3.539272
 50
14.999997
 51
90.000000
  0
LINE
  8
A-CASE-1
 10
-8.247561
 20
19.000000
 11
8.247561
 21
19.000000
  0
LINE
  8
A-CASE-1
 10
11.666235
 20
16.376759
 11
14.879001
 21
4.386553
  0
ARC
  8
A-CASE-1
 10
-3.168259
 20
9.212500
 40
5.846813
 50
127.551279
 51
232.448716
  0
ARC
  8
A-CASE-1
 10
3.138114
 20
9.212500
 40
5.846813
 50
307.551284
 51
52.448721
  0
ARC
  8
A-CASE-1
 10
-0.015072
 20
13.314206
 40
11.020456
 50
232.448718
 51
307.551282
  0
ARC
  8
A-CASE-1
 10
-0.015072
 20
5.110794
 40
11.020456
 50
52.448718
 51
127.551282
  0
CIRCLE
  8
A-CASE-1
 10
-0.015072
 20
11.659375
 40
0.646875
  0
CIRCLE
  8
A-CASE-1
 10
-0.015072
 20
11.659375
 40
1.040625
  0
ARC
  8
A-CASE-1
 10
2.271533
 20
17.545980
 40
0.835270
 50
0.000000
 51
90.000000
  0
LINE
  8
A-CASE-1
 10
2.271533
 20
18.381250
 11
-2.414177
 21
18.381250
  0
ARC
  8
A-CASE-1
 10
-2.414177
 20
17.545980
 40
0.835270
 50
90.000000
 51
180.000000
  0
LINE
  8
A-CASE-1
 10
-3.249447
 20
17.545980
 11
-3.249447
 21
17.585270
  0
ARC
  8
A-CASE-1
 10
-2.414177
 20
17.585270
 40
0.835270
 50
180.000000
 51
270.000000
  0
LINE
  8
A-CASE-1
 10
-2.414177
 20
16.750000
 11
2.271533
 21
16.750000
  0
ARC
  8
A-CASE-1
 10
2.271533
 20
17.585270
 40
0.835270
 50
270.000000
 51
0.000000
  0
LINE
  8
A-CASE-1
 10
3.106803
 20
17.585270
 11
3.106803
 21
17.545980
  0
ENDBLK
  0
BLOCK
  8
A-CASE-1
  2
FIXT-fire3618
 70
64
 10
0.0
 20
0.0
  0
LINE
  8
A-CASE-1
 10
29.948162
 20
-6.079029
 11
29.948162
 21
-24.979031
  0
LINE
  8
A-CASE-1
 10
29.948162
 20
-24.979031
 11
-29.948162
 21
-24.979031
  0
LINE
  8
A-CASE-1
 10
-29.948162
 20
-24.979031
 11
-29.948162
 21
-6.079029
  0
LINE
  8
A-CASE-1
 10
6.591125
 20
11.525184
 11
-6.587155
 21
11.525184
  0
LINE
  8
A-CASE-1
 10
-6.587155
 20
11.525184
 11
-6.587155
 21
-1.653096
  0
LINE
  8
A-CASE-1
 10
-6.587155
 20
-1.653096
 11
6.591125
 21
-1.653096
  0
LINE
  8
A-CASE-1
 10
6.591125
 20
-1.653096
 11
6.591125
 21
11.525184
  0
LINE
  8
A-CASE-1
 10
-17.736944
 20
-5.384176
 11
17.843761
 21
-5.384176
  0
CIRCLE
  8
A-CASE-1
 10
0.001985
 20
5.075015
 40
5.945351
  0
LINE
  8
A-CASE-1
 10
18.029947
 20
-6.079029
 11
13.185582
 21
12.000382
  0
LINE
  8
A-CASE-1
 10
13.185582
 20
12.000382
 11
-13.078766
 21
12.000382
  0
LINE
  8
A-CASE-1
 10
-13.078766
 20
12.000382
 11
-17.923130
 21
-6.079029
  0
LINE
  8
A-CASE-1
 10
-17.923130
 20
-6.079029
 11
18.029947
 21
-6.079029
  0
ENDBLK
  0
BLOCK
  8
A-CASE-2
  2
FIXT-Bidet
 70
64
 10
0.0
 20
0.0
  0
ARC
  8
A-CASE-2
 10
-0.029538
 20
8.781067
 40
8.663759
 50
180.000000
 51
270.195342
  0
ARC
  8
A-CASE-2
 10
-0.029740
 20
8.840345
 40
8.723038
 50
270.195342
 51
0.000000
  0
ARC
  8
A-CASE-2
 10
-6.918017
 20
16.812960
 40
1.775280
 50
164.999991
 51
180.000000
  0
LINE
  8
A-CASE-2
 10
-8.693297
 20
8.781067
 11
-8.693297
 21
16.812960
  0
ARC
  8
A-CASE-2
 10
-5.184232
 20
23.283535
 40
1.775280
 50
90.000000
 51
164.999995
  0
LINE
  8
A-CASE-2
 10
-8.632806
 20
17.272436
 11
-6.899021
 21
23.743012
  0
ARC
  8
A-CASE-2
 10
5.210175
 20
23.283535
 40
1.775280
 50
15.000005
 51
90.000000
  0
LINE
  8
A-CASE-2
 10
-5.184232
 20
25.058816
 11
5.210175
 21
25.058816
  0
ARC
  8
A-CASE-2
 10
6.918017
 20
16.909781
 40
1.775280
 50
0.000000
 51
15.000009
  0
LINE
  8
A-CASE-2
 10
6.924964
 20
23.743012
 11
8.632806
 21
17.369258
  0
LINE
  8
A-CASE-2
 10
8.693297
 20
16.909781
 11
8.693297
 21
8.840345
  0
ARC
  8
A-CASE-2
 10
4.642736
 20
16.610235
 40
1.697231
 50
0.000000
 51
14.999999
  0
LINE
  8
A-CASE-2
 10
6.339967
 20
16.610235
 11
6.339967
 21
8.840345
  0
ARC
  8
A-CASE-2
 10
-0.029538
 20
8.781067
 40
6.310430
 50
180.000000
 51
270.195342
  0
ARC
  8
A-CASE-2
 10
-0.029740
 20
8.840345
 40
6.369707
 50
270.195342
 51
0.000000
  0
ARC
  8
A-CASE-2
 10
-4.642736
 20
16.513412
 40
1.697231
 50
165.000001
 51
180.000000
  0
LINE
  8
A-CASE-2
 10
-6.339967
 20
8.781067
 11
-6.339967
 21
16.513412
  0
ARC
  8
A-CASE-2
 10
-3.858729
 20
19.439368
 40
1.697231
 50
90.000000
 51
165.000001
  0
LINE
  8
A-CASE-2
 10
-6.282135
 20
16.952688
 11
-5.498128
 21
19.878644
  0
ARC
  8
A-CASE-2
 10
3.884672
 20
19.439368
 40
1.697231
 50
15.000001
 51
90.000000
  0
LINE
  8
A-CASE-2
 10
-3.858729
 20
21.136599
 11
3.884672
 21
21.136599
  0
LINE
  8
A-CASE-2
 10
5.524072
 20
19.878644
 11
6.282135
 21
17.049511
  0
ENDBLK
  0
BLOCK
  8
A-CASE-2
  2
FIXT-OSpa7242
 70
64
 10
0.0
 20
0.0
  0
ARC
  8
A-CASE-2
 10
-18.841764
 20
23.088358
 40
13.047711
 50
119.446774
 51
240.553224
  0
ARC
  8
A-CASE-2
 10
18.814346
 20
23.088358
 40
13.047711
 50
299.446783
 51
60.553219
  0
ARC
  8
A-CASE-2
 10
-0.013709
 20
56.439077
 40
51.346092
 50
240.553221
 51
299.446780
  0
ARC
  8
A-CASE-2
 10
-0.013709
 20
-10.262360
 40
51.346092
 50
60.553220
 51
119.446779
  0
CIRCLE
  8
A-CASE-2
 10
0.040618
 20
36.571796
 40
1.012500
  0
ENDBLK
  0
BLOCK
  8
A-CASE-2
  2
FIXT-Washer26
 70
64
 10
0.0
 20
0.0
  0
LINE
  8
A-CASE-2
 10
13.014303
 20
27.890013
 11
-13.014303
 21
27.890013
  0
LINE
  8
A-CASE-2
 10
-13.014303
 20
27.890013
 11
-13.014303
 21
0.850586
  0
LINE
  8
A-CASE-2
 10
-13.014303
 20
0.850586
 11
13.014303
 21
0.850586
  0
LINE
  8
A-CASE-2
 10
13.014303
 20
0.850586
 11
13.014303
 21
27.890013
  0
LINE
  8
A-CASE-2
 10
12.424659
 20
27.131898
 11
-12.424659
 21
27.131898
  0
LINE
  8
A-CASE-2
 10
-12.424659
 20
27.131898
 11
-12.424659
 21
24.520614
  0
LINE
  8
A-CASE-2
 10
-12.424659
 20
24.520614
 11
12.424659
 21
24.520614
  0
LINE
  8
A-CASE-2
 10
12.424659
 20
24.520614
 11
12.424659
 21
27.131898
  0
ARC
  8
A-CASE-2
 10
5.528337
 20
19.056286
 40
2.263399
 50
0.000000
 51
90.000000
  0
LINE
  8
A-CASE-2
 10
5.528337
 20
21.319685
 11
-5.528337
 21
21.319685
  0
ARC
  8
A-CASE-2
 10
-5.528337
 20
19.056286
 40
2.263399
 50
90.000000
 51
180.000000
  0
LINE
  8
A-CASE-2
 10
-7.791735
 20
19.056286
 11
-7.791735
 21
7.999614
  0
ARC
  8
A-CASE-2
 10
-5.528337
 20
7.999614
 40
2.263399
 50
180.000000
 51
270.000000
  0
LINE
  8
A-CASE-2
 10
-5.528337
 20
5.736216
 11
5.528337
 21
5.736216
  0
ARC
  8
A-CASE-2
 10
5.528337
 20
7.999614
 40
2.263399
 50
270.000000
 51
0.000000
  0
LINE
  8
A-CASE-2
 10
7.791735
 20
7.999614
 11
7.791735
 21
19.056286
  0
ENDBLK
  0
BLOCK
  8
A-CASE-2
  2
FIXT-DryerG28
 70
64
 10
0.0
 20
0.0
  0
LINE
  8
A-CASE-2
 10
14.038907
 20
27.890013
 11
-14.038907
 21
27.890013
  0
LINE
  8
A-CASE-2
 10
-14.038907
 20
27.890013
 11
-14.038907
 21
0.850586
  0
LINE
  8
A-CASE-2
 10
-14.038907
 20
0.850586
 11
14.038907
 21
0.850586
  0
LINE
  8
A-CASE-2
 10
14.038907
 20
0.850586
 11
14.038907
 21
27.890013
  0
LINE
  8
A-CASE-2
 10
13.620029
 20
27.131898
 11
-13.620029
 21
27.131898
  0
LINE
  8
A-CASE-2
 10
-13.620029
 20
27.131898
 11
-13.620029
 21
24.520614
  0
LINE
  8
A-CASE-2
 10
-13.620029
 20
24.520614
 11
13.620029
 21
24.520614
  0
LINE
  8
A-CASE-2
 10
13.620029
 20
24.520614
 11
13.620029
 21
27.131898
  0
ENDBLK
  0
BLOCK
  8
A-FURN-2
  2
FIXT-Bedwat01
 70
64
 10
0.0
 20
0.0
  0
LINE
  8
A-FURN-2
 10
-33.005383
 20
89.000000
 11
-33.005383
 21
-9.078674
  0
LINE
  8
A-FURN-2
 10
-33.005383
 20
89.000000
 11
33.005383
 21
89.000000
  0
LINE
  8
A-FURN-2
 10
33.005383
 20
89.000000
 11
33.005383
 21
-9.078674
  0
LINE
  8
A-FURN-2
 10
33.005383
 20
-9.078674
 11
-32.888485
 21
-9.078674
  0
LINE
  8
A-FURN-2
 10
-32.888485
 20
-9.078674
 11
-29.872314
 21
-6.062508
  0
LINE
  8
A-FURN-2
 10
-32.930199
 20
76.882545
 11
33.005383
 21
76.882545
  0
LINE
  8
A-FURN-2
 10
-29.872314
 20
76.882545
 11
-29.872314
 21
-6.062508
  0
LINE
  8
A-FURN-2
 10
-29.872314
 20
-6.062508
 11
29.947502
 21
-6.062508
  0
LINE
  8
A-FURN-2
 10
29.947502
 20
-6.062508
 11
29.947502
 21
76.882545
  0
LINE
  8
A-FURN-2
 10
29.947502
 20
-6.062508
 11
33.005383
 21
-9.120384
  0
LINE
  8
A-FURN-2
 10
-28.877428
 20
72.922468
 11
-0.867468
 21
72.922468
  0
LINE
  8
A-FURN-2
 10
-0.867468
 20
72.922468
 11
-0.867468
 21
51.937515
  0
LINE
  8
A-FURN-2
 10
-0.867468
 20
51.937515
 11
-28.877428
 21
51.937515
  0
LINE
  8
A-FURN-2
 10
-28.877428
 20
51.937515
 11
-28.877428
 21
72.922468
  0
LINE
  8
A-FURN-2
 10
1.113944
 20
51.937515
 11
1.113944
 21
72.922468
  0
LINE
  8
A-FURN-2
 10
1.113944
 20
72.922468
 11
29.123905
 21
72.922468
  0
LINE
  8
A-FURN-2
 10
29.123905
 20
72.922468
 11
29.123905
 21
51.937515
  0
LINE
  8
A-FURN-2
 10
29.123905
 20
51.937515
 11
1.113944
 21
51.937515
  0
ARC
  8
A-FURN-2
 10
-39.369907
 20
62.429993
 40
14.838604
 50
315.000005
 51
0.000000
  0
ARC
  8
A-FURN-2
 10
-39.369907
 20
62.429993
 40
14.838604
 50
0.000000
 51
44.999990
  0
ARC
  8
A-FURN-2
 10
9.625010
 20
62.429993
 40
14.838604
 50
135.000005
 51
180.000000
  0
ARC
  8
A-FURN-2
 10
9.625010
 20
62.429993
 40
14.838604
 50
180.000000
 51
225.000000
  0
ARC
  8
A-FURN-2
 10
-9.378533
 20
62.429993
 40
14.838604
 50
315.000001
 51
0.000000
  0
ARC
  8
A-FURN-2
 10
-9.378533
 20
62.429993
 40
14.838604
 50
0.000000
 51
44.999994
  0
ARC
  8
A-FURN-2
 10
39.616383
 20
62.429993
 40
14.838604
 50
135.000005
 51
180.000000
  0
ARC
  8
A-FURN-2
 10
39.616383
 20
62.429993
 40
14.838604
 50
180.000000
 51
225.000000
  0
ENDBLK
  0
BLOCK
  8
A-FURN-2
  2
FIXT-nitstn04
 70
64
 10
0.0
 20
0.0
  0
LINE
  8
A-FURN-2
 10
9.965295
 20
17.973040
 11
9.965295
 21
1.050323
  0
LINE
  8
A-FURN-2
 10
9.965295
 20
1.050323
 11
-9.965295
 21
1.050323
  0
LINE
  8
A-FURN-2
 10
-9.965295
 20
1.050323
 11
-9.965295
 21
17.973040
  0
LINE
  8
A-FURN-2
 10
-9.965295
 20
17.973040
 11
9.965295
 21
17.973040
  0
LINE
  8
A-FURN-2
 10
-8.972636
 20
2.042982
 11
8.972636
 21
2.042982
  0
LINE
  8
A-FURN-2
 10
8.972636
 20
2.042982
 11
8.972636
 21
16.980382
  0
LINE
  8
A-FURN-2
 10
8.972636
 20
16.980382
 11
-8.972636
 21
16.980382
  0
LINE
  8
A-FURN-2
 10
-8.972636
 20
16.980382
 11
-8.972636
 21
2.042982
  0
LINE
  8
A-FURN-2
 10
-8.972636
 20
16.980382
 11
-9.992254
 21
18.000000
  0
LINE
  8
A-FURN-2
 10
8.972636
 20
16.980382
 11
9.992254
 21
18.000000
  0
LINE
  8
A-FURN-2
 10
8.972636
 20
2.042982
 11
9.992254
 21
1.023365
  0
LINE
  8
A-FURN-2
 10
-8.972636
 20
2.042982
 11
-9.992254
 21
1.023365
  0
LINE
  8
A-FURN-2
 10
2.024029
 20
1.063622
 11
2.024029
 21
0.057665
  0
LINE
  8
A-FURN-2
 10
2.024029
 20
0.057665
 11
-1.955570
 21
0.057665
  0
LINE
  8
A-FURN-2
 10
-1.955570
 20
0.057665
 11
-1.955570
 21
1.063622
  0
LINE
  8
A-FURN-2
 10
-1.955570
 20
1.063622
 11
2.024029
 21
1.063622
  0
ENDBLK
  0
BLOCK
  8
A-FURN-2
  2
FIXT-Dresng48
 70
64
 10
0.0
 20
0.0
  0
ARC
  8
A-FURN-2
 10
11.600245
 20
2.169289
 40
1.605391
 50
180.000000
 51
270.000000
  0
ARC
  8
A-FURN-2
 10
20.535124
 20
4.006065
 40
3.442167
 50
270.000000
 51
0.000000
  0
LINE
  8
A-FURN-2
 10
11.600245
 20
0.563898
 11
20.535124
 21
0.563898
  0
ARC
  8
A-FURN-2
 10
20.535124
 20
15.143538
 40
3.442167
 50
0.000000
 51
90.000000
  0
LINE
  8
A-FURN-2
 10
23.977291
 20
4.006065
 11
23.977291
 21
15.143538
  0
ARC
  8
A-FURN-2
 10
-20.535124
 20
15.143538
 40
3.442167
 50
90.000000
 51
180.000000
  0
LINE
  8
A-FURN-2
 10
20.535124
 20
18.585706
 11
-20.535124
 21
18.585706
  0
ARC
  8
A-FURN-2
 10
-20.535124
 20
4.006065
 40
3.442167
 50
180.000000
 51
270.000000
  0
LINE
  8
A-FURN-2
 10
-23.977291
 20
15.143538
 11
-23.977291
 21
4.006065
  0
ARC
  8
A-FURN-2
 10
-11.600245
 20
2.169289
 40
1.605391
 50
270.000000
 51
0.000000
  0
LINE
  8
A-FURN-2
 10
-20.535124
 20
0.563898
 11
-11.600245
 21
0.563898
  0
ARC
  8
A-FURN-2
 10
-8.389462
 20
2.169289
 40
1.605391
 50
90.000000
 51
180.000000
  0
LINE
  8
A-FURN-2
 10
-9.994853
 20
2.169289
 11
-9.994853
 21
2.169289
  0
ARC
  8
A-FURN-2
 10
8.389462
 20
2.169289
 40
1.605391
 50
0.000000
 51
90.000000
  0
LINE
  8
A-FURN-2
 10
-8.389462
 20
3.774679
 11
8.389462
 21
3.774679
  0
LINE
  8
A-FURN-2
 10
9.994853
 20
2.169289
 11
9.994853
 21
2.169289
  0
ENDBLK
  0
BLOCK
  8
A-FURN-2
  2
FIXT-cdraw001
 70
64
 10
0.0
 20
0.0
  0
LINE
  8
A-FURN-2
 10
17.996254
 20
20.000000
 11
17.996254
 21
0.984129
  0
LINE
  8
A-FURN-2
 10
17.996254
 20
0.984129
 11
-17.996254
 21
0.984129
  0
LINE
  8
A-FURN-2
 10
-17.996254
 20
0.984129
 11
-17.996254
 21
20.000000
  0
LINE
  8
A-FURN-2
 10
-17.996254
 20
20.000000
 11
17.996254
 21
20.000000
  0
LINE
  8
A-FURN-2
 10
-1.988255
 20
0.984129
 11
-1.988255
 21
-0.035490
  0
LINE
  8
A-FURN-2
 10
-1.988255
 20
-0.035490
 11
1.937274
 21
-0.035490
  0
LINE
  8
A-FURN-2
 10
1.937274
 20
-0.035490
 11
1.937274
 21
0.984129
  0
ENDBLK
  0
BLOCK
  8
A-FURN-2
  2
FIXT-sidechr2
 70
64
 10
0.0
 20
0.0
  0
ARC
  8
A-FURN-2
 10
6.682232
 20
15.682577
 40
2.317423
 50
0.000000
 51
90.000000
  0
LINE
  8
A-FURN-2
 10
6.682232
 20
18.000000
 11
-6.682232
 21
18.000000
  0
ARC
  8
A-FURN-2
 10
-6.682232
 20
15.682577
 40
2.317423
 50
90.000000
 51
180.000000
  0
LINE
  8
A-FURN-2
 10
-8.999656
 20
15.682577
 11
-8.999656
 21
2.318112
  0
ARC
  8
A-FURN-2
 10
-6.682232
 20
2.318112
 40
2.317423
 50
180.000000
 51
270.000000
  0
LINE
  8
A-FURN-2
 10
-6.682232
 20
0.000689
 11
6.682232
 21
0.000689
  0
ARC
  8
A-FURN-2
 10
6.682232
 20
2.318112
 40
2.317423
 50
270.000000
 51
0.000000
  0
LINE
  8
A-FURN-2
 10
8.999656
 20
2.318112
 11
8.999656
 21
15.682577
  0
ARC
  8
A-FURN-2
 10
-7.803170
 20
4.162378
 40
1.144465
 50
270.000000
 51
0.000000
  0
LINE
  8
A-FURN-2
 10
-8.947635
 20
3.017914
 11
-7.803170
 21
3.017914
  0
ARC
  8
A-FURN-2
 10
-5.040187
 20
14.092552
 40
1.618518
 50
90.000000
 51
180.000000
  0
LINE
  8
A-FURN-2
 10
-6.658705
 20
4.162378
 11
-6.658705
 21
14.092552
  0
ARC
  8
A-FURN-2
 10
5.040187
 20
14.092552
 40
1.618518
 50
0.000000
 51
90.000000
  0
LINE
  8
A-FURN-2
 10
-5.040187
 20
15.711070
 11
5.040187
 21
15.711070
  0
ARC
  8
A-FURN-2
 10
7.829181
 20
4.188389
 40
1.170475
 50
180.000000
 51
270.000000
  0
LINE
  8
A-FURN-2
 10
6.658705
 20
14.092552
 11
6.658705
 21
4.188389
  0
LINE
  8
A-FURN-2
 10
7.829181
 20
3.017914
 11
8.999656
 21
3.017914
  0
ENDBLK
  0
BLOCK
  8
A-FURN-2
  2
FIXT-tvcrt02
 70
64
 10
0.0
 20
0.0
  0
LINE
  8
A-FURN-2
 10
13.895146
 20
9.044383
 11
13.895146
 21
1.076044
  0
LINE
  8
A-FURN-2
 10
13.895146
 20
1.076044
 11
-13.965787
 21
1.076044
  0
LINE
  8
A-FURN-2
 10
-13.965787
 20
1.076044
 11
-13.965787
 21
9.044383
  0
LINE
  8
A-FURN-2
 10
-13.965787
 20
9.044383
 11
13.895146
 21
9.044383
  0
LINE
  8
A-FURN-2
 10
-12.948552
 20
9.100897
 11
-6.520871
 21
20.233967
  0
LINE
  8
A-FURN-2
 10
-6.520871
 20
20.233967
 11
6.435423
 21
20.233967
  0
LINE
  8
A-FURN-2
 10
6.435423
 20
20.233967
 11
12.863105
 21
9.100897
  0
LINE
  8
A-FURN-2
 10
17.999407
 20
22.000000
 11
17.999407
 21
0.044680
  0
LINE
  8
A-FURN-2
 10
17.999407
 20
0.044680
 11
-17.999407
 21
0.044680
  0
LINE
  8
A-FURN-2
 10
-17.999407
 20
0.044680
 11
-17.999407
 21
22.000000
  0
LINE
  8
A-FURN-2
 10
-17.999407
 20
22.000000
 11
17.999407
 21
22.000000
  0
ENDBLK
  0
BLOCK
  8
A-FURN-2
  2
FIXT-bedt3976
 70
64
 10
0.0
 20
0.0
  0
LINE
  8
A-FURN-2
 10
-20.958750
 20
78.020000
 11
20.981251
 21
78.020000
  0
LINE
  8
A-FURN-2
 10
20.981251
 20
78.020000
 11
20.981251
 21
80.000000
  0
LINE
  8
A-FURN-2
 10
20.981251
 20
80.000000
 11
-20.958750
 21
80.000000
  0
LINE
  8
A-FURN-2
 10
-20.958750
 20
80.000000
 11
-20.958750
 21
78.020000
  0
LINE
  8
A-FURN-2
 10
19.987762
 20
2.183807
 11
19.987762
 21
77.958905
  0
LINE
  8
A-FURN-2
 10
19.987762
 20
77.958905
 11
-20.010262
 21
77.958905
  0
LINE
  8
A-FURN-2
 10
-20.010262
 20
77.958905
 11
-20.010262
 21
2.183807
  0
LINE
  8
A-FURN-2
 10
-20.010262
 20
2.183807
 11
19.987762
 21
2.183807
  0
LINE
  8
A-FURN-2
 10
20.958750
 20
2.059998
 11
-20.981251
 21
2.059998
  0
LINE
  8
A-FURN-2
 10
-20.981251
 20
2.059998
 11
-20.981251
 21
0.080002
  0
LINE
  8
A-FURN-2
 10
-20.981251
 20
0.080002
 11
20.958750
 21
0.080002
  0
LINE
  8
A-FURN-2
 10
20.958750
 20
0.080002
 11
20.958750
 21
2.059998
  0
LINE
  8
A-FURN-2
 10
-15.960605
 20
53.059330
 11
-15.960605
 21
74.063914
  0
LINE
  8
A-FURN-2
 10
-15.960605
 20
74.063914
 11
16.046867
 21
74.063914
  0
LINE
  8
A-FURN-2
 10
16.046867
 20
74.063914
 11
16.046867
 21
53.059330
  0
LINE
  8
A-FURN-2
 10
16.046867
 20
53.059330
 11
-15.960605
 21
53.059330
  0
ARC
  8
A-FURN-2
 10
-26.462896
 20
63.561623
 40
14.852484
 50
314.999997
 51
0.000000
  0
ARC
  8
A-FURN-2
 10
-26.462896
 20
63.561623
 40
14.852484
 50
0.000000
 51
44.999999
  0
ARC
  8
A-FURN-2
 10
26.549160
 20
63.561623
 40
14.852484
 50
135.000004
 51
180.000000
  0
ARC
  8
A-FURN-2
 10
26.549160
 20
63.561623
 40
14.852484
 50
180.000000
 51
225.000000
  0
ENDBLK
  0
BLOCK
  8
A-FURN-2
  2
FIXT-Beddub01
 70
64
 10
0.0
 20
0.0
  0
LINE
  8
A-FURN-2
 10
-26.974157
 20
78.014788
 11
-26.974157
 21
1.839394
  0
LINE
  8
A-FURN-2
 10
-26.974157
 20
1.839394
 11
26.986168
 21
1.839394
  0
LINE
  8
A-FURN-2
 10
26.986168
 20
1.839394
 11
26.986168
 21
78.014788
  0
LINE
  8
A-FURN-2
 10
26.986168
 20
78.014788
 11
-29.036011
 21
78.014788
  0
LINE
  8
A-FURN-2
 10
-29.036011
 20
78.014788
 11
-29.036011
 21
80.000000
  0
LINE
  8
A-FURN-2
 10
-29.036011
 20
80.000000
 11
29.036011
 21
80.000000
  0
LINE
  8
A-FURN-2
 10
29.036011
 20
80.000000
 11
29.036011
 21
77.977994
  0
LINE
  8
A-FURN-2
 10
29.036011
 20
77.977994
 11
26.986168
 21
77.977994
  0
ARC
  8
A-FURN-2
 10
-26.436769
 20
63.514618
 40
14.811591
 50
315.000000
 51
0.000000
  0
ARC
  8
A-FURN-2
 10
-26.436769
 20
63.514618
 40
14.811591
 50
0.000000
 51
44.999999
  0
ARC
  8
A-FURN-2
 10
26.537395
 20
63.514618
 40
14.811591
 50
135.000001
 51
180.000000
  0
ARC
  8
A-FURN-2
 10
26.537395
 20
63.514618
 40
14.811591
 50
180.000000
 51
225.000000
  0
LINE
  8
A-FURN-2
 10
28.954601
 20
1.839394
 11
-28.987591
 21
1.839394
  0
LINE
  8
A-FURN-2
 10
-28.987591
 20
1.839394
 11
-28.987591
 21
0.082695
  0
LINE
  8
A-FURN-2
 10
-28.987591
 20
0.082695
 11
28.954601
 21
0.082695
  0
LINE
  8
A-FURN-2
 10
28.954601
 20
0.082695
 11
28.954601
 21
1.839394
  0
LINE
  8
A-FURN-2
 10
16.064018
 20
53.041241
 11
16.064018
 21
73.987995
  0
LINE
  8
A-FURN-2
 10
16.064018
 20
73.987995
 11
-15.963392
 21
73.987995
  0
LINE
  8
A-FURN-2
 10
-15.963392
 20
73.987995
 11
-15.963392
 21
53.041241
  0
LINE
  8
A-FURN-2
 10
-15.963392
 20
53.041241
 11
16.064018
 21
53.041241
  0
ENDBLK
  0
BLOCK
  8
A-POWR-3
  2
FIXT-GFI_Out
 70
64
 10
0.0
 20
0.0
  0
CIRCLE
  8
A-POWR-3
 10
-0.006993
 20
-5.734540
 40
3.254864
  0
LINE
  8
A-POWR-3
 10
-1.973961
 20
-8.380580
 11
-1.973961
 21
-0.000000
  0
LINE
  8
A-POWR-3
 10
2.006808
 20
-8.286915
 11
2.006808
 21
-0.000000
  0
TEXT
  8
A-POWR-3
 10
-2.220030
 20
-15.419935
 40
2.125818
  1
GFI
  7
STANDARD
  0
ENDBLK
  0
BLOCK
  8
A-POWR-3
  2
FIXT-WP_Out
 70
64
 10
0.0
 20
0.0
  0
CIRCLE
  8
A-POWR-3
 10
-0.006993
 20
-5.734540
 40
3.254864
  0
LINE
  8
A-POWR-3
 10
-1.973961
 20
-8.380580
 11
-1.973961
 21
-0.000000
  0
LINE
  8
A-POWR-3
 10
2.006808
 20
-8.286915
 11
2.006808
 21
-0.000000
  0
TEXT
  8
A-POWR-3
 10
-2.260667
 20
-15.419935
 40
2.125818
  1
WP
  7
STANDARD
  0
ENDBLK
  0
BLOCK
  8
A-POWR-3
  2
FIXT-3_Way
 70
64
 10
0.0
 20
0.0
  0
LINE
  8
A-POWR-3
 10
1.506088
 20
-2.396511
 11
-2.053707
 21
-2.396511
  0
ARC
  8
A-POWR-3
 10
-2.053707
 20
-4.016987
 40
1.620476
 50
90.000000
 51
181.041633
  0
ARC
  8
A-POWR-3
 10
-1.993710
 20
-4.015897
 40
1.680484
 50
181.041622
 51
270.000000
  0
LINE
  8
A-POWR-3
 10
-1.993710
 20
-5.696380
 11
-0.263288
 21
-5.696380
  0
ARC
  8
A-POWR-3
 10
-0.173292
 20
-7.420123
 40
1.636124
 50
270.000000
 51
1.534338
  0
ARC
  8
A-POWR-3
 10
-0.263288
 20
-7.422534
 40
1.726153
 50
1.534347
 51
90.000000
  0
LINE
  8
A-POWR-3
 10
-0.173292
 20
-9.056247
 11
-3.662938
 21
-9.056247
  0
LINE
  8
A-POWR-3
 10
-1.156680
 20
-0.026605
 11
-1.156680
 21
-11.036168
  0
TEXT
  8
A-POWR-3
 10
0.455396
 20
-14.297986
 40
2.550982
  1
3
  7
STANDARD
  0
ENDBLK
  0
BLOCK
  8
A-POWR-3
  2
FIXT-4_Way
 70
64
 10
0.0
 20
0.0
  0
LINE
  8
A-POWR-3
 10
1.506088
 20
-2.396511
 11
-2.053707
 21
-2.396511
  0
ARC
  8
A-POWR-3
 10
-2.053707
 20
-4.016987
 40
1.620476
 50
90.000000
 51
181.041633
  0
ARC
  8
A-POWR-3
 10
-1.993710
 20
-4.015897
 40
1.680484
 50
181.041622
 51
270.000000
  0
LINE
  8
A-POWR-3
 10
-1.993710
 20
-5.696380
 11
-0.263288
 21
-5.696380
  0
ARC
  8
A-POWR-3
 10
-0.173292
 20
-7.420123
 40
1.636124
 50
270.000000
 51
1.534338
  0
ARC
  8
A-POWR-3
 10
-0.263288
 20
-7.422534
 40
1.726153
 50
1.534347
 51
90.000000
  0
LINE
  8
A-POWR-3
 10
-0.173292
 20
-9.056247
 11
-3.662938
 21
-9.056247
  0
LINE
  8
A-POWR-3
 10
-1.156680
 20
-0.026605
 11
-1.156680
 21
-11.036168
  0
TEXT
  8
A-POWR-3
 10
0.455396
 20
-14.297986
 40
2.550982
  1
4
  7
STANDARD
  0
ENDBLK
  0
BLOCK
  8
A-POWR-3
  2
FIXT-5_Way
 70
64
 10
0.0
 20
0.0
  0
LINE
  8
A-POWR-3
 10
1.506088
 20
-2.396511
 11
-2.053707
 21
-2.396511
  0
ARC
  8
A-POWR-3
 10
-2.053707
 20
-4.016987
 40
1.620476
 50
90.000000
 51
181.041633
  0
ARC
  8
A-POWR-3
 10
-1.993710
 20
-4.015897
 40
1.680484
 50
181.041622
 51
270.000000
  0
LINE
  8
A-POWR-3
 10
-1.993710
 20
-5.696380
 11
-0.263288
 21
-5.696380
  0
ARC
  8
A-POWR-3
 10
-0.173292
 20
-7.420123
 40
1.636124
 50
270.000000
 51
1.534338
  0
ARC
  8
A-POWR-3
 10
-0.263288
 20
-7.422534
 40
1.726153
 50
1.534347
 51
90.000000
  0
LINE
  8
A-POWR-3
 10
-0.173292
 20
-9.056247
 11
-3.662938
 21
-9.056247
  0
LINE
  8
A-POWR-3
 10
-1.156680
 20
-0.026605
 11
-1.156680
 21
-11.036168
  0
TEXT
  8
A-POWR-3
 10
0.455396
 20
-14.297986
 40
2.550982
  1
5
  7
STANDARD
  0
ENDBLK
  0
ENDSEC
  0
SECTION
  2
ENTITIES
  0
LINE
  8
A-WALL-0
 10
-270.000000
 20
-278.000000
 11
-270.000000
 21
-259.000000
  0
LINE
  8
A-WALL-0
 10
-274.000000
 20
-255.000000
 11
-274.000000
 21
-278.000000
  0
LINE
  8
A-WALL-0
 10
-270.000000
 20
-414.000000
 11
-270.000000
 21
-314.000000
  0
LINE
  8
A-WALL-0
 10
-274.000000
 20
-314.000000
 11
-274.000000
 21
-414.000000
  0
LINE
  8
A-WALL-0
 10
-270.000000
 20
-468.000000
 11
-270.000000
 21
-450.000000
  0
LINE
  8
A-WALL-0
 10
-270.000000
 20
-602.000000
 11
-270.000000
 21
-472.000000
  0
LINE
  8
A-WALL-0
 10
-274.000000
 20
-450.000000
 11
-274.000000
 21
-602.000000
  0
LINE
  8
A-GLAZ-0
 10
-274.000000
 20
-278.000000
 11
-270.000000
 21
-278.000000
  0
LINE
  8
A-GLAZ-0
 10
-270.000000
 20
-314.000000
 11
-274.000000
 21
-314.000000
  0
LINE
  8
A-GLAZ-0
 10
-270.000000
 20
-314.000000
 11
-270.000000
 21
-278.000000
  0
LINE
  8
A-GLAZ-0
 10
-274.000000
 20
-278.000000
 11
-274.000000
 21
-314.000000
  0
LINE
  8
A-GLAZ-0
 10
-272.000000
 20
-278.000000
 11
-272.000000
 21
-314.000000
  0
TEXT
  8
A-DIMS-0
 10
-278.476311
 20
-305.509035
 40
5.527127
  1
3020
 50
90.000000
  7
STANDARD
  0
LINE
  8
A-GLAZ-0
 10
-274.000000
 20
-414.000000
 11
-270.000000
 21
-414.000000
  0
LINE
  8
A-GLAZ-0
 10
-270.000000
 20
-450.000000
 11
-274.000000
 21
-450.000000
  0
LINE
  8
A-GLAZ-0
 10
-270.000000
 20
-450.000000
 11
-270.000000
 21
-414.000000
  0
LINE
  8
A-GLAZ-0
 10
-274.000000
 20
-414.000000
 11
-274.000000
 21
-450.000000
  0
LINE
  8
A-GLAZ-0
 10
-272.000000
 20
-414.000000
 11
-272.000000
 21
-450.000000
  0
TEXT
  8
A-DIMS-0
 10
-278.476311
 20
-441.509035
 40
5.527127
  1
3020
 50
90.000000
  7
STANDARD
  0
LINE
  8
A-WALL-0
 10
-274.000000
 20
-602.000000
 11
-286.630371
 21
-602.000000
  0
LINE
  8
A-WALL-0
 10
-286.973511
 20
-608.000000
 11
-252.000000
 21
-608.000000
  0
LINE
  8
A-WALL-0
 10
-174.000000
 20
-602.000000
 11
-270.000000
 21
-602.000000
  0
LINE
  8
A-WALL-0
 10
-248.000000
 20
-608.000000
 11
-178.000000
 21
-608.000000
  0
LINE
  8
A-WALL-0
 10
-252.000000
 20
-666.000000
 11
-176.000000
 21
-666.000000
  0
LINE
  8
A-WALL-0
 10
-178.000000
 20
-662.000000
 11
-248.000000
 21
-662.000000
  0
LINE
  8
A-WALL-0
 10
-42.000000
 20
-839.000000
 11
102.000000
 21
-839.000000
  0
LINE
  8
A-WALL-0
 10
98.000000
 20
-835.000000
 11
-38.000000
 21
-835.000000
  0
LINE
  8
A-WALL-0
 10
98.000000
 20
-805.000000
 11
98.000000
 21
-835.000000
  0
LINE
  8
A-WALL-0
 10
102.000000
 20
-839.000000
 11
102.000000
 21
-809.000000
  0
LINE
  8
A-WALL-0
 10
102.000000
 20
-809.000000
 11
230.000000
 21
-809.000000
  0
LINE
  8
A-WALL-0
 10
226.000000
 20
-805.000000
 11
98.000000
 21
-805.000000
  0
LINE
  8
A-WALL-0
 10
230.000000
 20
-268.000000
 11
230.000000
 21
-255.000000
  0
LINE
  8
A-WALL-0
 10
226.000000
 20
-259.000000
 11
226.000000
 21
-268.000000
  0
LINE
  8
A-WALL-0
 10
226.000000
 20
-304.000000
 11
226.000000
 21
-415.000000
  0
LINE
  8
A-WALL-0
 10
226.000000
 20
-419.000000
 11
226.000000
 21
-515.000000
  0
LINE
  8
A-WALL-0
 10
226.000000
 20
-519.000000
 11
226.000000
 21
-563.000000
  0
LINE
  8
A-WALL-0
 10
230.000000
 20
-809.000000
 11
230.000000
 21
-304.000000
  0
LINE
  8
A-WALL-0
 10
226.000000
 20
-567.000000
 11
226.000000
 21
-805.000000
  0
LINE
  8
A-GLAZ-0
 10
230.000000
 20
-304.000000
 11
226.000000
 21
-304.000000
  0
LINE
  8
A-GLAZ-0
 10
226.000000
 20
-268.000000
 11
230.000000
 21
-268.000000
  0
LINE
  8
A-GLAZ-0
 10
226.000000
 20
-268.000000
 11
226.000000
 21
-304.000000
  0
LINE
  8
A-GLAZ-0
 10
230.000000
 20
-304.000000
 11
230.000000
 21
-268.000000
  0
LINE
  8
A-GLAZ-0
 10
228.000000
 20
-304.000000
 11
228.000000
 21
-268.000000
  0
TEXT
  8
A-DIMS-0
 10
239.759109
 20
-295.509035
 40
5.527127
  1
3020
 50
90.000000
  7
STANDARD
  0
LINE
  8
A-WALL-0
 10
-223.000000
 20
-255.000000
 11
-274.000000
 21
-255.000000
  0
LINE
  8
A-WALL-0
 10
-270.000000
 20
-259.000000
 11
-223.000000
 21
-259.000000
  0
LINE
  8
A-WALL-0
 10
-114.000000
 20
-255.000000
 11
-161.000000
 21
-255.000000
  0
LINE
  8
A-WALL-0
 10
-161.000000
 20
-259.000000
 11
-114.000000
 21
-259.000000
  0
LINE
  8
A-GLAZ-0
 10
-223.000000
 20
-255.000000
 11
-223.000000
 21
-259.000000
  0
LINE
  8
A-GLAZ-0
 10
-161.000000
 20
-255.000000
 11
-161.000000
 21
-259.000000
  0
LINE
  8
A-GLAZ-0
 10
-223.000000
 20
-259.000000
 11
-223.000000
 21
-290.000000
  0
LINE
  8
A-GLAZ-0
 10
-221.250000
 20
-290.000000
 11
-221.250000
 21
-259.000000
  0
LINE
  8
A-GLAZ-0
 10
-221.250000
 20
-259.000000
 11
-223.000000
 21
-259.000000
  0
ARC
  8
A-GLAZ-0
 10
-223.000000
 20
-259.000000
 40
31.000000
 50
270.000000
 51
0.000000
  0
LINE
  8
A-GLAZ-0
 10
-161.000000
 20
-259.000000
 11
-161.000000
 21
-290.000000
  0
LINE
  8
A-GLAZ-0
 10
-162.750000
 20
-290.000000
 11
-162.750000
 21
-259.000000
  0
LINE
  8
A-GLAZ-0
 10
-162.750000
 20
-259.000000
 11
-161.000000
 21
-259.000000
  0
ARC
  8
A-GLAZ-0
 10
-161.000000
 20
-259.000000
 40
31.000000
 50
180.000000
 51
270.000000
  0
LINE
  8
A-GLAZ-0
 10
-223.000000
 20
-255.000000
 11
-161.000000
 21
-255.000000
  0
TEXT
  8
A-DIMS-0
 10
-201.509035
 20
-250.523689
 40
5.527127
  1
5268
  7
STANDARD
  0
LINE
  8
A-WALL-0
 10
-110.000000
 20
-211.000000
 11
-110.000000
 21
-99.000000
  0
LINE
  8
A-WALL-0
 10
-114.000000
 20
-95.000000
 11
-114.000000
 21
-211.000000
  0
LINE
  8
A-WALL-0
 10
-110.000000
 20
-255.000000
 11
-110.000000
 21
-249.000000
  0
LINE
  8
A-WALL-0
 10
-114.000000
 20
-249.000000
 11
-114.000000
 21
-255.000000
  0
LINE
  8
A-WALL-0
 10
-110.000000
 20
-263.000000
 11
-110.000000
 21
-259.000000
  0
LINE
  8
A-WALL-0
 10
-114.000000
 20
-259.000000
 11
-114.000000
 21
-263.000000
  0
LINE
  8
A-WALL-0
 10
-110.000000
 20
-329.000000
 11
-110.000000
 21
-325.000000
  0
LINE
  8
A-WALL-0
 10
-114.000000
 20
-325.000000
 11
-114.000000
 21
-333.000000
  0
LINE
  8
A-GLAZ-0
 10
-110.000000
 20
-211.000000
 11
-114.000000
 21
-211.000000
  0
LINE
  8
A-GLAZ-0
 10
-110.000000
 20
-249.000000
 11
-114.000000
 21
-249.000000
  0
LINE
  8
A-GLAZ-0
 10
-110.000000
 20
-249.000000
 11
-72.000000
 21
-249.000000
  0
LINE
  8
A-GLAZ-0
 10
-72.000000
 20
-247.250000
 11
-110.000000
 21
-247.250000
  0
LINE
  8
A-GLAZ-0
 10
-110.000000
 20
-247.250000
 11
-110.000000
 21
-249.000000
  0
ARC
  8
A-GLAZ-0
 10
-110.000000
 20
-249.000000
 40
38.000000
 50
0.000000
 51
90.000000
  0
LINE
  8
A-GLAZ-0
 10
-114.000000
 20
-211.000000
 11
-114.000000
 21
-249.000000
  0
TEXT
  8
A-DIMS-0
 10
-118.476311
 20
-239.509035
 40
5.527127
  1
3268
 50
90.000000
  7
STANDARD
  0
LINE
  8
A-GLAZ-0
 10
-110.000000
 20
-263.000000
 11
-114.000000
 21
-263.000000
  0
LINE
  8
A-GLAZ-0
 10
-110.000000
 20
-325.000000
 11
-114.000000
 21
-325.000000
  0
LINE
  8
A-GLAZ-0
 10
-114.000000
 20
-325.000000
 11
-145.000000
 21
-325.000000
  0
LINE
  8
A-GLAZ-0
 10
-145.000000
 20
-323.625000
 11
-114.000000
 21
-323.625000
  0
LINE
  8
A-GLAZ-0
 10
-114.000000
 20
-323.625000
 11
-114.000000
 21
-325.000000
  0
ARC
  8
A-GLAZ-0
 10
-114.000000
 20
-325.000000
 40
31.000000
 50
90.000000
 51
180.000000
  0
LINE
  8
A-GLAZ-0
 10
-114.000000
 20
-263.000000
 11
-145.000000
 21
-263.000000
  0
LINE
  8
A-GLAZ-0
 10
-145.000000
 20
-264.375000
 11
-114.000000
 21
-264.375000
  0
LINE
  8
A-GLAZ-0
 10
-114.000000
 20
-264.375000
 11
-114.000000
 21
-263.000000
  0
ARC
  8
A-GLAZ-0
 10
-114.000000
 20
-263.000000
 40
31.000000
 50
180.000000
 51
270.000000
  0
TEXT
  8
A-DIMS-0
 10
-109.358601
 20
-303.509035
 40
5.527127
  1
5268
 50
90.000000
  7
STANDARD
  0
LINE
  8
A-WALL-0
 10
202.000000
 20
-255.000000
 11
74.000000
 21
-255.000000
  0
LINE
  8
A-WALL-0
 10
65.000000
 20
-259.000000
 11
204.000000
 21
-259.000000
  0
LINE
  8
A-WALL-0
 10
-80.000000
 20
-259.000000
 11
61.000000
 21
-259.000000
  0
LINE
  8
A-WALL-0
 10
-110.000000
 20
-259.000000
 11
-84.000000
 21
-259.000000
  0
LINE
  8
A-WALL-0
 10
70.000000
 20
-255.000000
 11
-110.000000
 21
-255.000000
  0
LINE
  8
A-WALL-0
 10
202.000000
 20
-175.000000
 11
202.000000
 21
-255.000000
  0
LINE
  8
A-WALL-0
 10
206.000000
 20
-255.000000
 11
206.000000
 21
-171.000000
  0
LINE
  8
A-WALL-0
 10
74.000000
 20
-175.000000
 11
202.000000
 21
-175.000000
  0
LINE
  8
A-WALL-0
 10
206.000000
 20
-171.000000
 11
74.000000
 21
-171.000000
  0
LINE
  8
A-WALL-0
 10
-84.000000
 20
-329.000000
 11
-110.000000
 21
-329.000000
  0
LINE
  8
A-WALL-0
 10
-42.000000
 20
-329.000000
 11
-80.000000
 21
-329.000000
  0
LINE
  8
A-WALL-0
 10
-114.000000
 20
-333.000000
 11
-42.000000
 21
-333.000000
  0
LINE
  8
A-WALL-0
 10
61.000000
 20
-329.000000
 11
-4.000000
 21
-329.000000
  0
LINE
  8
A-WALL-0
 10
-4.000000
 20
-333.000000
 11
61.000000
 21
-333.000000
  0
LINE
  8
A-GLAZ-0
 10
-42.000000
 20
-329.000000
 11
-42.000000
 21
-333.000000
  0
LINE
  8
A-GLAZ-0
 10
-4.000000
 20
-329.000000
 11
-4.000000
 21
-333.000000
  0
LINE
  8
A-GLAZ-0
 10
-4.000000
 20
-329.000000
 11
-4.000000
 21
-291.000000
  0
LINE
  8
A-GLAZ-0
 10
-5.375000
 20
-291.000000
 11
-5.375000
 21
-329.000000
  0
LINE
  8
A-GLAZ-0
 10
-5.375000
 20
-329.000000
 11
-4.000000
 21
-329.000000
  0
ARC
  8
A-GLAZ-0
 10
-4.000000
 20
-329.000000
 40
38.000000
 50
90.000000
 51
180.000000
  0
TEXT
  8
A-DIMS-0
 10
-32.509035
 20
-333.641399
 40
5.527127
  1
3268
  7
STANDARD
  0
LINE
  8
A-WALL-0
 10
-110.000000
 20
-99.000000
 11
70.000000
 21
-99.000000
  0
LINE
  8
A-WALL-0
 10
74.000000
 20
-95.000000
 11
-114.000000
 21
-95.000000
  0
LINE
  8
A-WALL-0
 10
-270.000000
 20
-472.000000
 11
-173.600937
 21
-472.000000
  0
LINE
  8
A-WALL-0
 10
-139.000000
 20
-468.000000
 11
-270.000000
 21
-468.000000
  0
LINE
  8
A-WALL-0
 10
-169.600937
 20
-472.000000
 11
-139.000000
 21
-472.000000
  0
LINE
  8
A-WALL-0
 10
-101.000000
 20
-472.000000
 11
-42.000000
 21
-472.000000
  0
LINE
  8
A-WALL-0
 10
38.000000
 20
-468.000000
 11
-101.000000
 21
-468.000000
  0
LINE
  8
A-WALL-0
 10
-38.000000
 20
-472.000000
 11
42.000000
 21
-472.000000
  0
LINE
  8
A-GLAZ-0
 10
-139.000000
 20
-468.000000
 11
-139.000000
 21
-472.000000
  0
LINE
  8
A-GLAZ-0
 10
-101.000000
 20
-468.000000
 11
-101.000000
 21
-472.000000
  0
LINE
  8
A-GLAZ-0
 10
-139.000000
 20
-468.000000
 11
-139.000000
 21
-430.000000
  0
LINE
  8
A-GLAZ-0
 10
-137.625000
 20
-430.000000
 11
-137.625000
 21
-468.000000
  0
LINE
  8
A-GLAZ-0
 10
-137.625000
 20
-468.000000
 11
-139.000000
 21
-468.000000
  0
ARC
  8
A-GLAZ-0
 10
-139.000000
 20
-468.000000
 40
38.000000
 50
0.000000
 51
90.000000
  0
TEXT
  8
A-DIMS-0
 10
-129.509035
 20
-472.641399
 40
5.527127
  1
3268
  7
STANDARD
  0
LINE
  8
A-WALL-0
 10
137.000000
 20
-515.000000
 11
137.000000
 21
-419.000000
  0
LINE
  8
A-WALL-0
 10
133.000000
 20
-419.000000
 11
133.000000
 21
-519.000000
  0
LINE
  8
A-WALL-0
 10
178.500000
 20
-419.000000
 11
226.000000
 21
-419.000000
  0
LINE
  8
A-WALL-0
 10
226.000000
 20
-415.000000
 11
178.500000
 21
-415.000000
  0
LINE
  8
A-WALL-0
 10
137.000000
 20
-419.000000
 11
140.500000
 21
-419.000000
  0
LINE
  8
A-WALL-0
 10
61.000000
 20
-419.000000
 11
133.000000
 21
-419.000000
  0
LINE
  8
A-WALL-0
 10
140.500000
 20
-415.000000
 11
65.000000
 21
-415.000000
  0
LINE
  8
A-GLAZ-0
 10
178.500000
 20
-419.000000
 11
178.500000
 21
-415.000000
  0
LINE
  8
A-GLAZ-0
 10
140.500000
 20
-419.000000
 11
140.500000
 21
-415.000000
  0
LINE
  8
A-GLAZ-0
 10
140.500000
 20
-419.000000
 11
140.500000
 21
-457.000000
  0
LINE
  8
A-GLAZ-0
 10
141.875000
 20
-457.000000
 11
141.875000
 21
-419.000000
  0
LINE
  8
A-GLAZ-0
 10
141.875000
 20
-419.000000
 11
140.500000
 21
-419.000000
  0
ARC
  8
A-GLAZ-0
 10
140.500000
 20
-419.000000
 40
38.000000
 50
270.000000
 51
0.000000
  0
TEXT
  8
A-DIMS-0
 10
149.990965
 20
-419.641399
 40
5.527127
  1
3268
  7
STANDARD
  0
LINE
  8
A-WALL-0
 10
42.000000
 20
-472.000000
 11
42.000000
 21
-391.000000
  0
LINE
  8
A-WALL-0
 10
38.000000
 20
-387.000000
 11
38.000000
 21
-468.000000
  0
LINE
  8
A-WALL-0
 10
226.000000
 20
-515.000000
 11
137.000000
 21
-515.000000
  0
LINE
  8
A-WALL-0
 10
133.000000
 20
-519.000000
 11
226.000000
 21
-519.000000
  0
LINE
  8
A-WALL-0
 10
61.000000
 20
-387.000000
 11
38.000000
 21
-387.000000
  0
LINE
  8
A-WALL-0
 10
42.000000
 20
-391.000000
 11
61.000000
 21
-391.000000
  0
LINE
  8
A-WALL-0
 10
65.000000
 20
-288.500000
 11
65.000000
 21
-259.000000
  0
LINE
  8
A-WALL-0
 10
61.000000
 20
-259.000000
 11
61.000000
 21
-288.500000
  0
LINE
  8
A-WALL-0
 10
61.000000
 20
-326.500000
 11
61.000000
 21
-329.000000
  0
LINE
  8
A-WALL-0
 10
65.000000
 20
-345.500000
 11
65.000000
 21
-326.500000
  0
LINE
  8
A-WALL-0
 10
61.000000
 20
-333.000000
 11
61.000000
 21
-345.500000
  0
LINE
  8
A-WALL-0
 10
61.000000
 20
-383.500000
 11
61.000000
 21
-387.000000
  0
LINE
  8
A-WALL-0
 10
65.000000
 20
-415.000000
 11
65.000000
 21
-383.500000
  0
LINE
  8
A-WALL-0
 10
61.000000
 20
-391.000000
 11
61.000000
 21
-419.000000
  0
LINE
  8
A-GLAZ-0
 10
65.000000
 20
-288.500000
 11
61.000000
 21
-288.500000
  0
LINE
  8
A-GLAZ-0
 10
65.000000
 20
-326.500000
 11
61.000000
 21
-326.500000
  0
LINE
  8
A-GLAZ-0
 10
61.000000
 20
-326.500000
 11
23.000000
 21
-326.500000
  0
LINE
  8
A-GLAZ-0
 10
23.000000
 20
-325.125000
 11
61.000000
 21
-325.125000
  0
LINE
  8
A-GLAZ-0
 10
61.000000
 20
-325.125000
 11
61.000000
 21
-326.500000
  0
ARC
  8
A-GLAZ-0
 10
61.000000
 20
-326.500000
 40
38.000000
 50
90.000000
 51
180.000000
  0
TEXT
  8
A-DIMS-0
 10
65.641399
 20
-317.009035
 40
5.527127
  1
3268
 50
90.000000
  7
STANDARD
  0
LINE
  8
A-GLAZ-0
 10
65.000000
 20
-345.500000
 11
61.000000
 21
-345.500000
  0
LINE
  8
A-GLAZ-0
 10
65.000000
 20
-383.500000
 11
61.000000
 21
-383.500000
  0
LINE
  8
A-GLAZ-0
 10
65.000000
 20
-383.500000
 11
103.000000
 21
-383.500000
  0
LINE
  8
A-GLAZ-0
 10
103.000000
 20
-382.125000
 11
65.000000
 21
-382.125000
  0
LINE
  8
A-GLAZ-0
 10
65.000000
 20
-382.125000
 11
65.000000
 21
-383.500000
  0
ARC
  8
A-GLAZ-0
 10
65.000000
 20
-383.500000
 40
38.000000
 50
0.000000
 51
90.000000
  0
TEXT
  8
A-DIMS-0
 10
65.641399
 20
-374.009035
 40
5.527127
  1
3268
 50
90.000000
  7
STANDARD
  0
LINE
  8
A-WALL-0
 10
-80.000000
 20
-329.000000
 11
-80.000000
 21
-259.000000
  0
LINE
  8
A-WALL-0
 10
-84.000000
 20
-259.000000
 11
-84.000000
 21
-329.000000
  0
LINE
  8
A-WALL-0
 10
-170.500000
 20
-662.000000
 11
-174.000000
 21
-662.000000
  0
LINE
  8
A-WALL-0
 10
-176.000000
 20
-666.000000
 11
-170.500000
 21
-666.000000
  0
LINE
  8
A-WALL-0
 10
-42.000000
 20
-662.000000
 11
-132.500000
 21
-662.000000
  0
LINE
  8
A-WALL-0
 10
-132.500000
 20
-666.000000
 11
-42.000000
 21
-666.000000
  0
LINE
  8
A-GLAZ-0
 10
-170.500000
 20
-662.000000
 11
-170.500000
 21
-666.000000
  0
LINE
  8
A-GLAZ-0
 10
-132.500000
 20
-662.000000
 11
-132.500000
 21
-666.000000
  0
LINE
  8
A-GLAZ-0
 10
-170.500000
 20
-666.000000
 11
-170.500000
 21
-704.000000
  0
LINE
  8
A-GLAZ-0
 10
-169.125000
 20
-704.000000
 11
-169.125000
 21
-666.000000
  0
LINE
  8
A-GLAZ-0
 10
-169.125000
 20
-666.000000
 11
-170.500000
 21
-666.000000
  0
ARC
  8
A-GLAZ-0
 10
-170.500000
 20
-666.000000
 40
38.000000
 50
270.000000
 51
0.000000
  0
TEXT
  8
A-DIMS-0
 10
-161.009035
 20
-666.641399
 40
5.527127
  1
3268
  7
STANDARD
  0
LINE
  8
A-WALL-0
 10
-175.000000
 20
-797.000000
 11
-175.000000
 21
-773.000000
  0
LINE
  8
A-WALL-0
 10
-179.000000
 20
-717.000000
 11
-179.000000
 21
-793.000000
  0
LINE
  8
A-WALL-0
 10
-175.000000
 20
-769.000000
 11
-175.000000
 21
-721.000000
  0
LINE
  8
A-WALL-0
  6
DOTTED
 10
-228.000000
 20
-514.000000
 11
-228.000000
 21
-602.000000
  0
LINE
  8
A-WALL-0
  6
DOTTED
 10
-226.000000
 20
-602.000000
 11
-226.000000
 21
-516.000000
  0
LINE
  8
A-WALL-0
 10
-38.000000
 20
-476.000000
 11
-38.000000
 21
-472.000000
  0
LINE
  8
A-WALL-0
 10
-42.000000
 20
-472.000000
 11
-42.000000
 21
-476.000000
  0
LINE
  8
A-WALL-0
 10
-38.000000
 20
-563.000000
 11
-38.000000
 21
-512.000000
  0
LINE
  8
A-WALL-0
 10
-42.000000
 20
-512.000000
 11
-42.000000
 21
-662.000000
  0
LINE
  8
A-WALL-0
 10
-42.000000
 20
-666.000000
 11
-42.000000
 21
-717.000000
  0
LINE
  8
A-WALL-0
 10
-42.000000
 20
-721.000000
 11
-42.000000
 21
-769.000000
  0
LINE
  8
A-WALL-0
 10
-38.000000
 20
-835.000000
 11
-38.000000
 21
-567.000000
  0
LINE
  8
A-WALL-0
 10
-42.000000
 20
-773.000000
 11
-42.000000
 21
-839.000000
  0
LINE
  8
A-GLAZ-0
 10
-38.000000
 20
-476.000000
 11
-42.000000
 21
-476.000000
  0
LINE
  8
A-GLAZ-0
 10
-38.000000
 20
-512.000000
 11
-42.000000
 21
-512.000000
  0
LINE
  8
A-GLAZ-0
 10
-38.000000
 20
-476.000000
 11
-2.000000
 21
-476.000000
  0
LINE
  8
A-GLAZ-0
 10
-2.000000
 20
-477.375000
 11
-38.000000
 21
-477.375000
  0
LINE
  8
A-GLAZ-0
 10
-38.000000
 20
-477.375000
 11
-38.000000
 21
-476.000000
  0
ARC
  8
A-GLAZ-0
 10
-38.000000
 20
-476.000000
 40
36.000000
 50
270.000000
 51
0.000000
  0
TEXT
  8
A-DIMS-0
 10
-37.358601
 20
-503.509035
 40
5.527127
  1
3068
 50
90.000000
  7
STANDARD
  0
LINE
  8
A-WALL-0
  6
DOTTED
 10
-173.600937
 20
-514.000000
 11
-228.000000
 21
-514.000000
  0
LINE
  8
A-WALL-0
  6
DOTTED
 10
-226.000000
 20
-516.000000
 11
-169.600937
 21
-516.000000
  0
LINE
  8
A-WALL-0
 10
-175.000000
 20
-721.000000
 11
-42.000000
 21
-721.000000
  0
LINE
  8
A-WALL-0
 10
-42.000000
 20
-717.000000
 11
-179.000000
 21
-717.000000
  0
LINE
  8
A-WALL-0
 10
-175.000000
 20
-773.000000
 11
-42.000000
 21
-773.000000
  0
LINE
  8
A-WALL-0
 10
-42.000000
 20
-769.000000
 11
-175.000000
 21
-769.000000
  0
LINE
  8
A-WALL-0
 10
-178.000000
 20
-655.000000
 11
-178.000000
 21
-662.000000
  0
LINE
  8
A-WALL-0
 10
-174.000000
 20
-662.000000
 11
-174.000000
 21
-655.000000
  0
LINE
  8
A-WALL-0
 10
-178.000000
 20
-608.000000
 11
-178.000000
 21
-617.000000
  0
LINE
  8
A-WALL-0
 10
-174.000000
 20
-617.000000
 11
-174.000000
 21
-602.000000
  0
LINE
  8
A-GLAZ-0
 10
-178.000000
 20
-655.000000
 11
-174.000000
 21
-655.000000
  0
LINE
  8
A-GLAZ-0
 10
-178.000000
 20
-617.000000
 11
-174.000000
 21
-617.000000
  0
LINE
  8
A-GLAZ-0
 10
-174.000000
 20
-655.000000
 11
-136.000000
 21
-655.000000
  0
LINE
  8
A-GLAZ-0
 10
-136.000000
 20
-653.625000
 11
-174.000000
 21
-653.625000
  0
LINE
  8
A-GLAZ-0
 10
-174.000000
 20
-653.625000
 11
-174.000000
 21
-655.000000
  0
ARC
  8
A-GLAZ-0
 10
-174.000000
 20
-655.000000
 40
38.000000
 50
0.000000
 51
90.000000
  0
TEXT
  8
A-DIMS-0
 10
-173.358601
 20
-645.509035
 40
5.527127
  1
3268
 50
90.000000
  7
STANDARD
  0
LINE
  8
A-WALL-0
 10
-322.000000
 20
-797.000000
 11
-175.000000
 21
-797.000000
  0
LINE
  8
A-WALL-0
 10
-179.000000
 20
-793.000000
 11
-318.000000
 21
-793.000000
  0
LINE
  8
A-WALL-0
 10
-322.000000
 20
-637.369629
 11
-322.000000
 21
-797.000000
  0
LINE
  8
A-WALL-0
 10
-318.000000
 20
-793.000000
 11
-318.000000
 21
-639.026489
  0
LINE
  8
A-WALL-0
 10
-286.630371
 20
-602.000000
 11
-322.000000
 21
-637.369629
  0
LINE
  8
A-WALL-0
 10
-318.000000
 20
-639.026489
 11
-286.973511
 21
-608.000000
  0
LINE
  8
A-WALL-0
 10
230.000000
 20
-255.000000
 11
206.000000
 21
-255.000000
  0
LINE
  8
A-WALL-0
 10
204.000000
 20
-259.000000
 11
226.000000
 21
-259.000000
  0
LINE
  8
A-WALL-0
 10
74.000000
 20
-171.000000
 11
74.000000
 21
-95.000000
  0
LINE
  8
A-WALL-0
 10
74.000000
 20
-255.000000
 11
74.000000
 21
-175.000000
  0
LINE
  8
A-WALL-0
 10
70.000000
 20
-99.000000
 11
70.000000
 21
-255.000000
  0
LINE
  8
A-WALL-0
 10
-173.600937
 20
-515.000000
 11
-169.600937
 21
-515.000000
  0
LINE
  8
A-WALL-0
 10
-169.600937
 20
-477.000000
 11
-169.600937
 21
-472.000000
  0
LINE
  8
A-WALL-0
 10
-173.600937
 20
-472.000000
 11
-173.600937
 21
-477.000000
  0
LINE
  8
A-WALL-0
 10
-169.600937
 20
-515.000000
 11
-169.600937
 21
-507.000000
  0
LINE
  8
A-WALL-0
 10
-173.600937
 20
-507.000000
 11
-173.600937
 21
-515.000000
  0
LINE
  8
A-GLAZ-0
 10
-169.600938
 20
-477.000000
 11
-173.600938
 21
-477.000000
  0
LINE
  8
A-GLAZ-0
 10
-169.600938
 20
-507.000000
 11
-173.600938
 21
-507.000000
  0
LINE
  8
A-GLAZ-0
 10
-169.600938
 20
-477.000000
 11
-139.600938
 21
-477.000000
  0
LINE
  8
A-GLAZ-0
 10
-139.600938
 20
-478.375000
 11
-169.600938
 21
-478.375000
  0
LINE
  8
A-GLAZ-0
 10
-169.600938
 20
-478.375000
 11
-169.600938
 21
-477.000000
  0
ARC
  8
A-GLAZ-0
 10
-169.600938
 20
-477.000000
 40
30.000000
 50
270.000000
 51
0.000000
  0
TEXT
  8
A-DIMS-0
 10
-168.959539
 20
-501.509035
 40
5.527127
  1
2668
 50
90.000000
  7
STANDARD
  0
LINE
  8
A-WALL-0
 10
226.000000
 20
-563.000000
 11
-38.000000
 21
-563.000000
  0
LINE
  8
A-WALL-0
 10
-38.000000
 20
-567.000000
 11
226.000000
 21
-567.000000
  0
LINE
  8
A-WALL-0
 10
-248.000000
 20
-662.000000
 11
-248.000000
 21
-608.000000
  0
LINE
  8
A-WALL-0
 10
-252.000000
 20
-608.000000
 11
-252.000000
 21
-666.000000
  0
LINE
  8
A-STAR-0
 10
-219.000000
 20
-601.500000
 11
-210.000000
 21
-601.500000
  0
LINE
  8
A-STAR-0
 10
-210.000000
 20
-601.500000
 11
-210.000000
 21
-559.500000
  0
LINE
  8
A-STAR-0
 10
-210.000000
 20
-559.500000
 11
-219.000000
 21
-559.500000
  0
LINE
  8
A-STAR-0
 10
-228.000000
 20
-601.500000
 11
-219.000000
 21
-601.500000
  0
LINE
  8
A-STAR-0
 10
-219.000000
 20
-601.500000
 11
-219.000000
 21
-559.500000
  0
LINE
  8
A-STAR-0
 10
-219.000000
 20
-559.500000
 11
-228.000000
 21
-559.500000
  0
LINE
  8
A-STAR-0
 10
-228.000000
 20
-601.500000
 11
-228.000000
 21
-559.500000
  0
TEXT
  8
A-POWR-0
 10
-223.738595
 20
-579.452525
 40
4.251636
  1
UP
  7
STANDARD
  0
LINE
  8
A-STAR-0
 10
-229.000000
 20
-582.500000
 11
-218.000000
 21
-582.500000
  0
LINE
  8
A-STAR-0
 10
-228.000000
 20
-559.000000
 11
-228.000000
 21
-602.000000
  0
LINE
  8
A-STAR-0
 10
-228.000000
 20
-602.000000
 11
-270.000000
 21
-602.000000
  0
LINE
  8
A-STAR-0
 10
-270.000000
 20
-602.000000
 11
-270.000000
 21
-559.000000
  0
LINE
  8
A-STAR-0
 10
-270.000000
 20
-559.000000
 11
-228.000000
 21
-559.000000
  0
LINE
  8
A-STAR-0
 10
-270.000000
 20
-550.000000
 11
-270.000000
 21
-559.000000
  0
LINE
  8
A-STAR-0
 10
-270.000000
 20
-559.000000
 11
-228.000000
 21
-559.000000
  0
LINE
  8
A-STAR-0
 10
-228.000000
 20
-559.000000
 11
-228.000000
 21
-550.000000
  0
LINE
  8
A-STAR-0
 10
-270.000000
 20
-541.000000
 11
-270.000000
 21
-550.000000
  0
LINE
  8
A-STAR-0
 10
-270.000000
 20
-550.000000
 11
-228.000000
 21
-550.000000
  0
LINE
  8
A-STAR-0
 10
-228.000000
 20
-550.000000
 11
-228.000000
 21
-541.000000
  0
LINE
  8
A-STAR-0
 10
-270.000000
 20
-532.000000
 11
-270.000000
 21
-541.000000
  0
LINE
  8
A-STAR-0
 10
-270.000000
 20
-541.000000
 11
-228.000000
 21
-541.000000
  0
LINE
  8
A-STAR-0
 10
-228.000000
 20
-541.000000
 11
-228.000000
 21
-532.000000
  0
LINE
  8
A-STAR-0
 10
-270.000000
 20
-523.000000
 11
-270.000000
 21
-532.000000
  0
LINE
  8
A-STAR-0
 10
-270.000000
 20
-532.000000
 11
-228.000000
 21
-532.000000
  0
LINE
  8
A-STAR-0
 10
-228.000000
 20
-532.000000
 11
-228.000000
 21
-523.000000
  0
LINE
  8
A-STAR-0
 10
-270.000000
 20
-514.000000
 11
-270.000000
 21
-523.000000
  0
LINE
  8
A-STAR-0
 10
-270.000000
 20
-523.000000
 11
-228.000000
 21
-523.000000
  0
LINE
  8
A-STAR-0
 10
-228.000000
 20
-523.000000
 11
-228.000000
 21
-514.000000
  0
LINE
  8
A-STAR-0
 10
-270.000000
 20
-514.000000
 11
-228.000000
 21
-514.000000
  0
LINE
  8
A-STAR-0
 10
-227.500000
 20
-514.000000
 11
-270.000000
 21
-514.000000
  0
LINE
  8
A-STAR-0
 10
-270.000000
 20
-514.000000
 11
-270.000000
 21
-472.000000
  0
LINE
  8
A-STAR-0
 10
-270.000000
 20
-472.000000
 11
-227.500000
 21
-472.000000
  0
LINE
  8
A-STAR-0
 10
-227.500000
 20
-472.000000
 11
-227.500000
 21
-514.000000
  0
LINE
  8
A-STAR-0
 10
-218.500000
 20
-472.000000
 11
-227.500000
 21
-472.000000
  0
LINE
  8
A-STAR-0
 10
-227.500000
 20
-472.000000
 11
-227.500000
 21
-514.000000
  0
LINE
  8
A-STAR-0
 10
-227.500000
 20
-514.000000
 11
-218.500000
 21
-514.000000
  0
LINE
  8
A-STAR-0
 10
-209.500000
 20
-472.000000
 11
-218.500000
 21
-472.000000
  0
LINE
  8
A-STAR-0
 10
-218.500000
 20
-472.000000
 11
-218.500000
 21
-514.000000
  0
LINE
  8
A-STAR-0
 10
-218.500000
 20
-514.000000
 11
-209.500000
 21
-514.000000
  0
LINE
  8
A-STAR-0
 10
-200.500000
 20
-472.000000
 11
-209.500000
 21
-472.000000
  0
LINE
  8
A-STAR-0
 10
-209.500000
 20
-472.000000
 11
-209.500000
 21
-514.000000
  0
LINE
  8
A-STAR-0
 10
-209.500000
 20
-514.000000
 11
-200.500000
 21
-514.000000
  0
LINE
  8
A-STAR-0
 10
-191.500000
 20
-472.000000
 11
-200.500000
 21
-472.000000
  0
LINE
  8
A-STAR-0
 10
-200.500000
 20
-472.000000
 11
-200.500000
 21
-514.000000
  0
LINE
  8
A-STAR-0
 10
-200.500000
 20
-514.000000
 11
-191.500000
 21
-514.000000
  0
LINE
  8
A-STAR-0
 10
-182.500000
 20
-472.000000
 11
-191.500000
 21
-472.000000
  0
LINE
  8
A-STAR-0
 10
-191.500000
 20
-472.000000
 11
-191.500000
 21
-514.000000
  0
LINE
  8
A-STAR-0
 10
-191.500000
 20
-514.000000
 11
-182.500000
 21
-514.000000
  0
LINE
  8
A-STAR-0
 10
-173.500000
 20
-472.000000
 11
-182.500000
 21
-472.000000
  0
LINE
  8
A-STAR-0
 10
-182.500000
 20
-472.000000
 11
-182.500000
 21
-514.000000
  0
LINE
  8
A-STAR-0
 10
-182.500000
 20
-514.000000
 11
-173.500000
 21
-514.000000
  0
LINE
  8
A-STAR-0
 10
-173.500000
 20
-472.000000
 11
-173.500000
 21
-514.000000
  0
INSERT
  8
A-CASE-0
  2
FIXT-Toilet
 10
43.764539
 20
-288.980636
 41
1.000000
 42
1.071429
 43
 1.0
 50
0.000000
  0
INSERT
  8
A-CASE-0
  2
FIXT-WaterHG
 10
111.362316
 20
-455.218057
 41
1.000000
 42
1.000000
 43
 1.0
 50
0.000000
  0
INSERT
  8
A-CASE-0
  2
FIXT-FrnG2920
 10
72.392508
 20
-468.337387
 41
1.318182
 42
1.344828
 43
 1.0
 50
0.000000
  0
LINE
  8
A-CASE-0
 10
1.059827
 20
-259.000000
 11
1.059827
 21
-283.000000
  0
LINE
  8
A-CASE-0
 10
-40.940173
 20
-283.000000
 11
-40.940173
 21
-259.000000
  0
LINE
  8
A-CASE-0
 10
1.059827
 20
-283.000000
 11
-40.940173
 21
-283.000000
  0
INSERT
  8
A-CASE-0
  2
FIXT-OvalBath
 10
-19.940173
 20
-287.983894
 41
1.000000
 42
1.000000
 43
 1.0
 50
0.000000
  0
INSERT
  8
A-CASE-0
  2
FIXT-tubshr02
 10
-48.006800
 20
-294.000000
 41
1.166667
 42
1.000000
 43
 1.0
 50
-270.000000
  0
TEXT
  8
A-NOTE-0
 10
39.811299
 20
-708.171158
 40
9.448080
  1
UNEXCAVATED
  7
STANDARD
  0
TEXT
  8
A-NOTE-0
 10
70.468171
 20
-721.307378
 40
7.152095
  1
22' x 22'4
  7
STANDARD
  0
TEXT
  8
A-NOTE-0
 10
-145.091656
 20
-578.131849
 40
9.448080
  1
LOBBY
  7
STANDARD
  0
TEXT
  8
A-NOTE-0
 10
-149.768398
 20
-591.268069
 40
7.152095
  1
15'4 x 15'10
  7
STANDARD
  0
TEXT
  8
A-NOTE-0
 10
-198.276912
 20
-389.195299
 40
9.448080
  1
RECREATION ROOM
  7
STANDARD
  0
TEXT
  8
A-NOTE-0
 10
-153.153701
 20
-402.331518
 40
7.152095
  1
27'7 x 17'5
  7
STANDARD
  0
TEXT
  8
A-NOTE-0
 10
106.045664
 20
-328.636941
 40
9.448080
  1
BEDROOM
  7
STANDARD
  0
TEXT
  8
A-NOTE-0
 10
120.370837
 20
-341.773161
 40
7.152095
  1
13'5 x 13'
  7
STANDARD
  0
TEXT
  8
A-NOTE-0
 10
4.784720
 20
-302.149745
 40
7.086060
  1
BATH
  7
STANDARD
  0
TEXT
  8
A-NOTE-0
 10
0.514782
 20
-312.192459
 40
5.364071
  1
11'9 x 5'10
  7
STANDARD
  0
TEXT
  8
A-NOTE-0
 10
153.290701
 20
-478.810100
 40
9.448080
  1
CLOSET
  7
STANDARD
  0
TEXT
  8
A-NOTE-0
 10
165.407787
 20
-491.946319
 40
7.152095
  1
7'5 x 8'
  7
STANDARD
  0
TEXT
  8
A-NOTE-0
 10
-87.872002
 20
-171.114347
 40
9.448080
  1
OUTSIDE STORAGE
  7
STANDARD
  0
TEXT
  8
A-NOTE-0
 10
-39.018070
 20
-184.250566
 40
7.152095
  1
15' x 13'
  7
STANDARD
  0
TEXT
  8
A-NOTE-0
 10
52.018651
 20
-519.063354
 40
9.448080
  1
UTILITY
  7
STANDARD
  0
TEXT
  8
A-NOTE-0
 10
56.163024
 20
-532.199573
 40
7.152095
  1
14'3 x 12'
  7
STANDARD
  0
TEXT
  8
A-NOTE-0
 10
-283.617980
 20
-717.177634
 40
9.448080
  1
STORAGE
  7
STANDARD
  0
TEXT
  8
A-NOTE-0
 10
-270.989608
 20
-730.313853
 40
7.152095
  1
23' x 10'7
  7
STANDARD
  0
TEXT
  8
A-NOTE-0
 10
-163.932120
 20
-742.653497
 40
9.448080
  1
UNEXCAVATED
  7
STANDARD
  0
TEXT
  8
A-NOTE-0
 10
-130.349391
 20
-755.789717
 40
7.152095
  1
11'1 x 4'
  7
STANDARD
  0
TEXT
  8
A-NOTE-0
 10
-241.957116
 20
-633.801868
 40
7.086060
  1
ELEVATOR
  7
STANDARD
  0
TEXT
  8
A-NOTE-0
 10
-229.811861
 20
-643.844582
 40
5.364071
  1
5'10 x 4'6
  7
STANDARD
  0
TEXT
  8
A-NOTE-0
 10
-112.202575
 20
-312.555487
 40
4.251636
  1
CLOSET
  7
STANDARD
  0
TEXT
  8
A-NOTE-0
 10
-108.370044
 20
-318.774244
 40
3.129042
  1
2'2 x 5'10
  7
STANDARD
  0
TEXT
  8
A-NOTE-0
 10
86.814861
 20
-216.192648
 40
9.448080
  1
UNEXCAVATED
  7
STANDARD
  0
TEXT
  8
A-NOTE-0
 10
117.471733
 20
-229.328867
 40
7.152095
  1
10'8 x 6'8
  7
STANDARD
  0
TEXT
  8
A-NOTE-0
 10
-89.904701
 20
-888.810100
 40
9.448080
  1
LIVING AREA
  7
STANDARD
  0
TEXT
  8
A-NOTE-0
 10
-69.406856
 20
-901.946319
 40
7.152095
  1
1785 sq ft
  7
STANDARD
  0
LINE
  8
A-WALL-1
 10
-270.000000
 20
-280.000000
 11
-270.000000
 21
-259.000000
  0
LINE
  8
A-WALL-1
 10
-274.000000
 20
-255.000000
 11
-274.000000
 21
-280.000000
  0
LINE
  8
A-WALL-1
 10
-270.000000
 20
-416.000000
 11
-270.000000
 21
-312.000000
  0
LINE
  8
A-WALL-1
 10
-274.000000
 20
-312.000000
 11
-274.000000
 21
-416.000000
  0
LINE
  8
A-WALL-1
 10
-270.000000
 20
-468.000000
 11
-270.000000
 21
-448.000000
  0
LINE
  8
A-WALL-1
 10
-270.000000
 20
-519.000000
 11
-270.000000
 21
-472.000000
  0
LINE
  8
A-WALL-1
 10
-274.000000
 20
-448.000000
 11
-274.000000
 21
-519.000000
  0
LINE
  8
A-WALL-1
 10
-270.000000
 20
-602.000000
 11
-270.000000
 21
-555.000000
  0
LINE
  8
A-WALL-1
 10
-274.000000
 20
-555.000000
 11
-274.000000
 21
-602.000000
  0
LINE
  8
A-GLAZ-1
 10
-274.000000
 20
-280.000000
 11
-270.000000
 21
-280.000000
  0
LINE
  8
A-GLAZ-1
 10
-270.000000
 20
-312.000000
 11
-274.000000
 21
-312.000000
  0
LINE
  8
A-GLAZ-1
 10
-270.000000
 20
-312.000000
 11
-270.000000
 21
-280.000000
  0
LINE
  8
A-GLAZ-1
 10
-274.000000
 20
-280.000000
 11
-274.000000
 21
-312.000000
  0
LINE
  8
A-GLAZ-1
 10
-272.000000
 20
-280.000000
 11
-272.000000
 21
-312.000000
  0
TEXT
  8
A-DIMS-1
 10
-278.476311
 20
-305.509035
 40
5.527127
  1
2862
 50
90.000000
  7
STANDARD
  0
LINE
  8
A-GLAZ-1
 10
-274.000000
 20
-416.000000
 11
-270.000000
 21
-416.000000
  0
LINE
  8
A-GLAZ-1
 10
-270.000000
 20
-448.000000
 11
-274.000000
 21
-448.000000
  0
LINE
  8
A-GLAZ-1
 10
-270.000000
 20
-448.000000
 11
-270.000000
 21
-416.000000
  0
LINE
  8
A-GLAZ-1
 10
-274.000000
 20
-416.000000
 11
-274.000000
 21
-448.000000
  0
LINE
  8
A-GLAZ-1
 10
-272.000000
 20
-416.000000
 11
-272.000000
 21
-448.000000
  0
TEXT
  8
A-DIMS-1
 10
-278.476311
 20
-441.509035
 40
5.527127
  1
2862
 50
90.000000
  7
STANDARD
  0
LINE
  8
A-GLAZ-1
 10
-274.000000
 20
-519.000000
 11
-270.000000
 21
-519.000000
  0
LINE
  8
A-GLAZ-1
 10
-270.000000
 20
-555.000000
 11
-274.000000
 21
-555.000000
  0
LINE
  8
A-GLAZ-1
 10
-270.000000
 20
-555.000000
 11
-270.000000
 21
-519.000000
  0
LINE
  8
A-GLAZ-1
 10
-274.000000
 20
-519.000000
 11
-274.000000
 21
-555.000000
  0
LINE
  8
A-GLAZ-1
 10
-272.000000
 20
-519.000000
 11
-272.000000
 21
-555.000000
  0
TEXT
  8
A-DIMS-1
 10
-278.476311
 20
-546.509035
 40
5.527127
  1
3074
 50
90.000000
  7
STANDARD
  0
LINE
  8
A-WALL-1
 10
-171.600937
 20
-608.000000
 11
-171.600937
 21
-602.000000
  0
LINE
  8
A-WALL-1
 10
-274.000000
 20
-602.000000
 11
-286.630371
 21
-602.000000
  0
LINE
  8
A-WALL-1
 10
-286.973511
 20
-608.000000
 11
-252.000000
 21
-608.000000
  0
LINE
  8
A-WALL-1
 10
-248.000000
 20
-608.000000
 11
-178.000000
 21
-608.000000
  0
LINE
  8
A-WALL-1
 10
-171.600937
 20
-602.000000
 11
-270.000000
 21
-602.000000
  0
LINE
  8
A-WALL-1
 10
-174.000000
 20
-608.000000
 11
-171.600937
 21
-608.000000
  0
LINE
  8
A-WALL-1
 10
-252.000000
 20
-666.000000
 11
-178.000000
 21
-666.000000
  0
LINE
  8
A-WALL-1
 10
-178.000000
 20
-662.000000
 11
-248.000000
 21
-662.000000
  0
LINE
  8
A-WALL-1
 10
78.000000
 20
-839.000000
 11
102.000000
 21
-839.000000
  0
LINE
  8
A-WALL-1
 10
98.000000
 20
-835.000000
 11
78.000000
 21
-835.000000
  0
LINE
  8
A-WALL-1
 10
-42.000000
 20
-839.000000
 11
-18.000000
 21
-839.000000
  0
LINE
  8
A-WALL-1
 10
-18.000000
 20
-835.000000
 11
-38.000000
 21
-835.000000
  0
LINE
  8
A-GLAZ-1
 10
78.000000
 20
-839.000000
 11
78.000000
 21
-835.000000
  0
LINE
  8
A-GLAZ-1
 10
-18.000000
 20
-839.000000
 11
-18.000000
 21
-835.000000
  0
LINE
  8
A-GLAZ-1
  6
DASHED
 10
78.000000
 20
-835.000000
 11
-18.000000
 21
-835.000000
  0
LINE
  8
A-GLAZ-1
  6
DASHED
 10
78.000000
 20
-758.920000
 11
-18.000000
 21
-758.920000
  0
LINE
  8
A-GLAZ-1
  6
DASHED
 10
78.000000
 20
-835.000000
 11
78.000000
 21
-758.920000
  0
LINE
  8
A-GLAZ-1
  6
DASHED
 10
-18.000000
 20
-835.000000
 11
-18.000000
 21
-758.920000
  0
LINE
  8
A-GLAZ-1
 10
78.000000
 20
-839.000000
 11
-18.000000
 21
-839.000000
  0
TEXT
  8
A-DIMS-1
 10
20.490965
 20
-848.759109
 40
5.527127
  1
8070
  7
STANDARD
  0
LINE
  8
A-WALL-1
 10
98.000000
 20
-805.000000
 11
98.000000
 21
-835.000000
  0
LINE
  8
A-WALL-1
 10
102.000000
 20
-839.000000
 11
102.000000
 21
-809.000000
  0
LINE
  8
A-WALL-1
 10
212.000000
 20
-809.000000
 11
230.000000
 21
-809.000000
  0
LINE
  8
A-WALL-1
 10
226.000000
 20
-805.000000
 11
212.000000
 21
-805.000000
  0
LINE
  8
A-WALL-1
 10
102.000000
 20
-809.000000
 11
116.000000
 21
-809.000000
  0
LINE
  8
A-WALL-1
 10
116.000000
 20
-805.000000
 11
98.000000
 21
-805.000000
  0
LINE
  8
A-GLAZ-1
 10
212.000000
 20
-809.000000
 11
212.000000
 21
-805.000000
  0
LINE
  8
A-GLAZ-1
 10
116.000000
 20
-809.000000
 11
116.000000
 21
-805.000000
  0
LINE
  8
A-GLAZ-1
  6
DASHED
 10
212.000000
 20
-805.000000
 11
116.000000
 21
-805.000000
  0
LINE
  8
A-GLAZ-1
  6
DASHED
 10
212.000000
 20
-728.920000
 11
116.000000
 21
-728.920000
  0
LINE
  8
A-GLAZ-1
  6
DASHED
 10
212.000000
 20
-805.000000
 11
212.000000
 21
-728.920000
  0
LINE
  8
A-GLAZ-1
  6
DASHED
 10
116.000000
 20
-805.000000
 11
116.000000
 21
-728.920000
  0
LINE
  8
A-GLAZ-1
 10
212.000000
 20
-809.000000
 11
116.000000
 21
-809.000000
  0
TEXT
  8
A-DIMS-1
 10
154.490965
 20
-818.759109
 40
5.527127
  1
8070
  7
STANDARD
  0
LINE
  8
A-WALL-1
 10
226.000000
 20
-259.000000
 11
226.000000
 21
-415.000000
  0
LINE
  8
A-WALL-1
 10
230.000000
 20
-433.000000
 11
230.000000
 21
-255.000000
  0
LINE
  8
A-WALL-1
 10
226.000000
 20
-419.000000
 11
226.000000
 21
-434.656860
  0
LINE
  8
A-WALL-1
 10
226.000000
 20
-541.343140
 11
226.000000
 21
-563.000000
  0
LINE
  8
A-WALL-1
 10
230.000000
 20
-571.000000
 11
230.000000
 21
-543.000000
  0
LINE
  8
A-WALL-1
 10
226.000000
 20
-567.000000
 11
226.000000
 21
-571.000000
  0
LINE
  8
A-WALL-1
 10
230.000000
 20
-809.000000
 11
230.000000
 21
-609.000000
  0
LINE
  8
A-WALL-1
 10
226.000000
 20
-609.000000
 11
226.000000
 21
-805.000000
  0
LINE
  8
A-WALL-1
 10
230.000000
 20
-433.000000
 11
233.459262
 21
-436.459262
  0
LINE
  8
A-WALL-1
 10
250.429825
 20
-453.429825
 11
254.000000
 21
-457.000000
  0
LINE
  8
A-WALL-1
 10
226.000000
 20
-434.656854
 11
230.630835
 21
-439.287689
  0
LINE
  8
A-WALL-1
 10
247.601398
 20
-456.258252
 11
250.000000
 21
-458.656854
  0
LINE
  8
A-GLAZ-1
 10
250.429825
 20
-453.429825
 11
247.601398
 21
-456.258252
  0
LINE
  8
A-GLAZ-1
 10
230.630835
 20
-439.287689
 11
233.459262
 21
-436.459262
  0
LINE
  8
A-GLAZ-1
 10
230.630835
 20
-439.287689
 11
247.601398
 21
-456.258252
  0
LINE
  8
A-GLAZ-1
 10
250.429825
 20
-453.429825
 11
233.459262
 21
-436.459262
  0
LINE
  8
A-GLAZ-1
 10
249.015611
 20
-454.844039
 11
232.045049
 21
-437.873476
  0
LINE
  8
A-WALL-1
 10
230.000000
 20
-543.000000
 11
232.752155
 21
-540.247845
  0
LINE
  8
A-WALL-1
 10
251.136932
 20
-521.863068
 11
254.000000
 21
-519.000000
  0
LINE
  8
A-WALL-1
 10
226.000000
 20
-541.343146
 11
229.923728
 21
-537.419417
  0
LINE
  8
A-WALL-1
 10
248.308505
 20
-519.034641
 11
250.000000
 21
-517.343146
  0
LINE
  8
A-GLAZ-1
 10
232.752155
 20
-540.247845
 11
229.923728
 21
-537.419417
  0
LINE
  8
A-GLAZ-1
 10
248.308505
 20
-519.034641
 11
251.136932
 21
-521.863068
  0
LINE
  8
A-GLAZ-1
 10
248.308505
 20
-519.034641
 11
229.923728
 21
-537.419417
  0
LINE
  8
A-GLAZ-1
 10
232.752155
 20
-540.247845
 11
251.136932
 21
-521.863068
  0
LINE
  8
A-GLAZ-1
 10
231.337942
 20
-538.833631
 11
249.722718
 21
-520.448855
  0
LINE
  8
A-WALL-1
 10
254.000000
 20
-457.000000
 11
254.000000
 21
-461.000000
  0
LINE
  8
A-WALL-1
 10
254.000000
 20
-515.000000
 11
254.000000
 21
-519.000000
  0
LINE
  8
A-WALL-1
 10
250.000000
 20
-458.656854
 11
250.000000
 21
-461.000000
  0
LINE
  8
A-WALL-1
 10
250.000000
 20
-515.000000
 11
250.000000
 21
-517.343146
  0
LINE
  8
A-GLAZ-1
 10
254.000000
 20
-515.000000
 11
250.000000
 21
-515.000000
  0
LINE
  8
A-GLAZ-1
 10
250.000000
 20
-461.000000
 11
254.000000
 21
-461.000000
  0
LINE
  8
A-GLAZ-1
 10
250.000000
 20
-461.000000
 11
250.000000
 21
-515.000000
  0
LINE
  8
A-GLAZ-1
 10
254.000000
 20
-515.000000
 11
254.000000
 21
-461.000000
  0
LINE
  8
A-GLAZ-1
 10
252.000000
 20
-515.000000
 11
252.000000
 21
-461.000000
  0
LINE
  8
A-DIMS-1
 10
238.920000
 20
-433.000000
 11
232.920000
 21
-433.000000
  0
LINE
  8
A-DIMS-1
 10
234.420000
 20
-436.000000
 11
235.920000
 21
-433.000000
  0
LINE
  8
A-DIMS-1
 10
238.920000
 20
-543.000000
 11
232.920000
 21
-543.000000
  0
LINE
  8
A-DIMS-1
 10
237.420000
 20
-540.000000
 11
235.920000
 21
-543.000000
  0
LINE
  8
A-DIMS-1
 10
235.920000
 20
-479.701056
 11
235.920000
 21
-433.000000
  0
LINE
  8
A-DIMS-1
 10
235.920000
 20
-496.298944
 11
235.920000
 21
-543.000000
  0
TEXT
  8
A-DIMS-1
 10
238.561399
 20
-493.546937
 40
5.527127
  1
9'2
 50
90.000000
  7
STANDARD
  0
LINE
  8
A-DIMS-1
 10
233.000000
 20
-416.500000
 11
230.000000
 21
-415.000000
  0
LINE
  8
A-DIMS-1
 10
254.000000
 20
-412.000000
 11
254.000000
 21
-428.000000
  0
LINE
  8
A-DIMS-1
 10
251.000000
 20
-413.500000
 11
254.000000
 21
-415.000000
  0
LINE
  8
A-DIMS-1
 10
236.078314
 20
-415.000000
 11
230.000000
 21
-415.000000
  0
LINE
  8
A-DIMS-1
 10
247.921686
 20
-415.000000
 11
254.000000
 21
-415.000000
  0
TEXT
  8
A-DIMS-1
 10
238.830322
 20
-417.641399
 40
5.527127
  1
2'
  7
STANDARD
  0
LINE
  8
A-DIMS-1
 10
247.000000
 20
-457.000000
 11
241.000000
 21
-457.000000
  0
LINE
  8
A-DIMS-1
 10
242.500000
 20
-460.000000
 11
244.000000
 21
-457.000000
  0
LINE
  8
A-DIMS-1
 10
247.000000
 20
-519.000000
 11
241.000000
 21
-519.000000
  0
LINE
  8
A-DIMS-1
 10
245.500000
 20
-516.000000
 11
244.000000
 21
-519.000000
  0
LINE
  8
A-DIMS-1
 10
244.000000
 20
-479.701056
 11
244.000000
 21
-457.000000
  0
LINE
  8
A-DIMS-1
 10
244.000000
 20
-496.298944
 11
244.000000
 21
-519.000000
  0
TEXT
  8
A-DIMS-1
 10
246.641399
 20
-493.546937
 40
5.527127
  1
5'2
 50
90.000000
  7
STANDARD
  0
TEXT
  8
A-DIMS-1
 10
238.385870
 20
-435.055410
 40
5.527127
  1
2062
 50
-44.900000
  7
STANDARD
  0
TEXT
  8
A-DIMS-1
 10
242.121373
 20
-544.680092
 40
5.527127
  1
2262
 50
44.900000
  7
STANDARD
  0
TEXT
  8
A-DIMS-1
 10
263.759109
 20
-497.509035
 40
5.527127
  1
4662
 50
90.000000
  7
STANDARD
  0
LINE
  8
A-GLAZ-1
 10
230.000000
 20
-571.000000
 11
226.000000
 21
-571.000000
  0
LINE
  8
A-GLAZ-1
 10
230.000000
 20
-609.000000
 11
226.000000
 21
-609.000000
  0
LINE
  8
A-GLAZ-1
 10
226.000000
 20
-571.000000
 11
188.000000
 21
-571.000000
  0
LINE
  8
A-GLAZ-1
 10
188.000000
 20
-572.750000
 11
226.000000
 21
-572.750000
  0
LINE
  8
A-GLAZ-1
 10
226.000000
 20
-572.750000
 11
226.000000
 21
-571.000000
  0
ARC
  8
A-GLAZ-1
 10
226.000000
 20
-571.000000
 40
38.000000
 50
180.000000
 51
270.000000
  0
LINE
  8
A-GLAZ-1
 10
230.000000
 20
-571.000000
 11
230.000000
 21
-609.000000
  0
TEXT
  8
A-DIMS-1
 10
239.759109
 20
-599.509035
 40
5.527127
  1
3268
 50
90.000000
  7
STANDARD
  0
LINE
  8
A-WALL-1
 10
-242.000000
 20
-255.000000
 11
-274.000000
 21
-255.000000
  0
LINE
  8
A-WALL-1
 10
-270.000000
 20
-259.000000
 11
-240.343140
 21
-259.000000
  0
LINE
  8
A-WALL-1
 10
-114.000000
 20
-255.000000
 11
-146.000000
 21
-255.000000
  0
LINE
  8
A-WALL-1
 10
-147.656860
 20
-259.000000
 11
-114.000000
 21
-259.000000
  0
LINE
  8
A-WALL-1
 10
-242.000000
 20
-255.000000
 11
-239.247845
 21
-252.247845
  0
LINE
  8
A-WALL-1
 10
-220.863068
 20
-233.863068
 11
-218.000000
 21
-231.000000
  0
LINE
  8
A-WALL-1
 10
-240.343146
 20
-259.000000
 11
-236.419417
 21
-255.076272
  0
LINE
  8
A-WALL-1
 10
-218.034641
 20
-236.691495
 11
-216.343146
 21
-235.000000
  0
LINE
  8
A-GLAZ-1
 10
-220.863068
 20
-233.863068
 11
-218.034641
 21
-236.691495
  0
LINE
  8
A-GLAZ-1
 10
-236.419417
 20
-255.076272
 11
-239.247845
 21
-252.247845
  0
LINE
  8
A-GLAZ-1
 10
-236.419417
 20
-255.076272
 11
-218.034641
 21
-236.691495
  0
LINE
  8
A-GLAZ-1
 10
-220.863068
 20
-233.863068
 11
-239.247845
 21
-252.247845
  0
LINE
  8
A-GLAZ-1
 10
-219.448855
 20
-235.277282
 11
-237.833631
 21
-253.662058
  0
LINE
  8
A-WALL-1
 10
-146.000000
 20
-255.000000
 11
-148.752155
 21
-252.247845
  0
LINE
  8
A-WALL-1
 10
-167.136932
 20
-233.863068
 11
-170.000000
 21
-231.000000
  0
LINE
  8
A-WALL-1
 10
-147.656854
 20
-259.000000
 11
-151.580583
 21
-255.076272
  0
LINE
  8
A-WALL-1
 10
-169.965359
 20
-236.691495
 11
-171.656854
 21
-235.000000
  0
LINE
  8
A-GLAZ-1
 10
-148.752155
 20
-252.247845
 11
-151.580583
 21
-255.076272
  0
LINE
  8
A-GLAZ-1
 10
-169.965359
 20
-236.691495
 11
-167.136932
 21
-233.863068
  0
LINE
  8
A-GLAZ-1
 10
-169.965359
 20
-236.691495
 11
-151.580583
 21
-255.076272
  0
LINE
  8
A-GLAZ-1
 10
-148.752155
 20
-252.247845
 11
-167.136932
 21
-233.863068
  0
LINE
  8
A-GLAZ-1
 10
-150.166369
 20
-253.662058
 11
-168.551145
 21
-235.277282
  0
LINE
  8
A-WALL-1
 10
-218.000000
 20
-231.000000
 11
-214.000000
 21
-231.000000
  0
LINE
  8
A-WALL-1
 10
-174.000000
 20
-231.000000
 11
-170.000000
 21
-231.000000
  0
LINE
  8
A-WALL-1
 10
-216.343146
 20
-235.000000
 11
-214.000000
 21
-235.000000
  0
LINE
  8
A-WALL-1
 10
-174.000000
 20
-235.000000
 11
-171.656854
 21
-235.000000
  0
LINE
  8
A-GLAZ-1
 10
-174.000000
 20
-231.000000
 11
-174.000000
 21
-235.000000
  0
LINE
  8
A-GLAZ-1
 10
-214.000000
 20
-235.000000
 11
-214.000000
 21
-231.000000
  0
LINE
  8
A-GLAZ-1
 10
-214.000000
 20
-235.000000
 11
-174.000000
 21
-235.000000
  0
LINE
  8
A-GLAZ-1
 10
-174.000000
 20
-231.000000
 11
-214.000000
 21
-231.000000
  0
LINE
  8
A-GLAZ-1
 10
-174.000000
 20
-233.000000
 11
-214.000000
 21
-233.000000
  0
LINE
  8
A-WALL-1
 10
-242.000000
 20
-259.000000
 11
-146.000000
 21
-259.000000
  0
LINE
  8
A-DIMS-1
 10
-242.000000
 20
-246.080000
 11
-242.000000
 21
-252.080000
  0
LINE
  8
A-DIMS-1
 10
-239.000000
 20
-250.580000
 11
-242.000000
 21
-249.080000
  0
LINE
  8
A-DIMS-1
 10
-146.000000
 20
-246.080000
 11
-146.000000
 21
-252.080000
  0
LINE
  8
A-DIMS-1
 10
-149.000000
 20
-247.580000
 11
-146.000000
 21
-249.080000
  0
LINE
  8
A-DIMS-1
 10
-199.921686
 20
-249.080000
 11
-242.000000
 21
-249.080000
  0
LINE
  8
A-DIMS-1
 10
-188.078314
 20
-249.080000
 11
-146.000000
 21
-249.080000
  0
TEXT
  8
A-DIMS-1
 10
-197.169678
 20
-251.721399
 40
5.527127
  1
8'
  7
STANDARD
  0
LINE
  8
A-DIMS-1
 10
-258.500000
 20
-252.000000
 11
-260.000000
 21
-255.000000
  0
LINE
  8
A-DIMS-1
 10
-263.000000
 20
-231.000000
 11
-247.000000
 21
-231.000000
  0
LINE
  8
A-DIMS-1
 10
-261.500000
 20
-234.000000
 11
-260.000000
 21
-231.000000
  0
LINE
  8
A-DIMS-1
 10
-260.000000
 20
-248.921686
 11
-260.000000
 21
-255.000000
  0
LINE
  8
A-DIMS-1
 10
-260.000000
 20
-237.078314
 11
-260.000000
 21
-231.000000
  0
TEXT
  8
A-DIMS-1
 10
-257.358601
 20
-246.169678
 40
5.527127
  1
2'
 50
90.000000
  7
STANDARD
  0
LINE
  8
A-DIMS-1
 10
-218.000000
 20
-238.000000
 11
-218.000000
 21
-244.000000
  0
LINE
  8
A-DIMS-1
 10
-215.000000
 20
-242.500000
 11
-218.000000
 21
-241.000000
  0
LINE
  8
A-DIMS-1
 10
-170.000000
 20
-238.000000
 11
-170.000000
 21
-244.000000
  0
LINE
  8
A-DIMS-1
 10
-173.000000
 20
-239.500000
 11
-170.000000
 21
-241.000000
  0
LINE
  8
A-DIMS-1
 10
-199.921686
 20
-241.000000
 11
-218.000000
 21
-241.000000
  0
LINE
  8
A-DIMS-1
 10
-188.078314
 20
-241.000000
 11
-170.000000
 21
-241.000000
  0
TEXT
  8
A-DIMS-1
 10
-197.169678
 20
-243.641399
 40
5.527127
  1
4'
  7
STANDARD
  0
TEXT
  8
A-DIMS-1
 10
-239.944590
 20
-246.614130
 40
5.527127
  1
2260
 50
45.000000
  7
STANDARD
  0
TEXT
  8
A-DIMS-1
 10
-161.503217
 20
-233.166323
 40
5.527127
  1
2260
 50
314.900000
  7
STANDARD
  0
TEXT
  8
A-DIMS-1
 10
-203.509035
 20
-226.523689
 40
5.527127
  1
3460
  7
STANDARD
  0
LINE
  8
A-WALL-1
 10
-110.000000
 20
-105.000000
 11
-110.000000
 21
-99.000000
  0
LINE
  8
A-WALL-1
 10
-114.000000
 20
-95.000000
 11
-114.000000
 21
-105.000000
  0
LINE
  8
A-WALL-1
 10
-114.000000
 20
-141.000000
 11
-114.000000
 21
-255.000000
  0
LINE
  8
A-WALL-1
 10
-110.000000
 20
-264.000000
 11
-110.000000
 21
-141.000000
  0
LINE
  8
A-WALL-1
 10
-114.000000
 20
-259.000000
 11
-114.000000
 21
-264.000000
  0
LINE
  8
A-WALL-1
 10
-110.000000
 20
-409.000000
 11
-110.000000
 21
-302.000000
  0
LINE
  8
A-WALL-1
 10
-114.000000
 20
-302.000000
 11
-114.000000
 21
-409.000000
  0
LINE
  8
A-GLAZ-1
 10
-114.000000
 20
-105.000000
 11
-110.000000
 21
-105.000000
  0
LINE
  8
A-GLAZ-1
 10
-110.000000
 20
-141.000000
 11
-114.000000
 21
-141.000000
  0
LINE
  8
A-GLAZ-1
 10
-110.000000
 20
-141.000000
 11
-110.000000
 21
-105.000000
  0
LINE
  8
A-GLAZ-1
 10
-114.000000
 20
-105.000000
 11
-114.000000
 21
-141.000000
  0
LINE
  8
A-GLAZ-1
 10
-112.000000
 20
-105.000000
 11
-112.000000
 21
-141.000000
  0
TEXT
  8
A-DIMS-1
 10
-118.476311
 20
-132.509035
 40
5.527127
  1
3068
 50
90.000000
  7
STANDARD
  0
LINE
  8
A-GLAZ-1
 10
-110.000000
 20
-264.000000
 11
-114.000000
 21
-264.000000
  0
LINE
  8
A-GLAZ-1
 10
-110.000000
 20
-302.000000
 11
-114.000000
 21
-302.000000
  0
TEXT
  8
A-DIMS-1
 10
-109.358601
 20
-292.509035
 40
5.527127
  1
3278
 50
90.000000
  7
STANDARD
  0
LINE
  8
A-WALL-1
  6
DOTTED
 10
70.000000
 20
-259.000000
 11
204.000000
 21
-259.000000
  0
LINE
  8
A-WALL-1
  6
DOTTED
 10
202.000000
 20
-257.000000
 11
72.000000
 21
-257.000000
  0
LINE
  8
A-WALL-1
 10
202.000000
 20
-231.000000
 11
202.000000
 21
-259.000000
  0
LINE
  8
A-WALL-1
 10
206.000000
 20
-255.000000
 11
206.000000
 21
-231.000000
  0
LINE
  8
A-WALL-1
 10
202.000000
 20
-175.000000
 11
202.000000
 21
-199.000000
  0
LINE
  8
A-WALL-1
 10
206.000000
 20
-199.000000
 11
206.000000
 21
-171.000000
  0
LINE
  8
A-GLAZ-1
 10
206.000000
 20
-231.000000
 11
202.000000
 21
-231.000000
  0
LINE
  8
A-GLAZ-1
 10
202.000000
 20
-199.000000
 11
206.000000
 21
-199.000000
  0
LINE
  8
A-GLAZ-1
 10
202.000000
 20
-199.000000
 11
202.000000
 21
-231.000000
  0
LINE
  8
A-GLAZ-1
 10
206.000000
 20
-231.000000
 11
206.000000
 21
-199.000000
  0
LINE
  8
A-GLAZ-1
 10
204.000000
 20
-231.000000
 11
204.000000
 21
-199.000000
  0
TEXT
  8
A-DIMS-1
 10
215.759109
 20
-224.509035
 40
5.527127
  1
2852
 50
90.000000
  7
STANDARD
  0
LINE
  8
A-WALL-1
 10
187.000000
 20
-175.000000
 11
202.000000
 21
-175.000000
  0
LINE
  8
A-WALL-1
 10
206.000000
 20
-171.000000
 11
187.000000
 21
-171.000000
  0
LINE
  8
A-WALL-1
 10
70.000000
 20
-175.000000
 11
93.000000
 21
-175.000000
  0
LINE
  8
A-WALL-1
 10
93.000000
 20
-171.000000
 11
74.000000
 21
-171.000000
  0
LINE
  8
A-GLAZ-1
 10
187.000000
 20
-171.000000
 11
187.000000
 21
-175.000000
  0
LINE
  8
A-GLAZ-1
 10
157.000000
 20
-175.000000
 11
157.000000
 21
-171.000000
  0
LINE
  8
A-GLAZ-1
 10
157.000000
 20
-171.000000
 11
155.000000
 21
-171.000000
  0
LINE
  8
A-GLAZ-1
 10
157.000000
 20
-175.000000
 11
155.000000
 21
-175.000000
  0
LINE
  8
A-GLAZ-1
 10
157.000000
 20
-175.000000
 11
187.000000
 21
-175.000000
  0
LINE
  8
A-GLAZ-1
 10
187.000000
 20
-171.000000
 11
157.000000
 21
-171.000000
  0
LINE
  8
A-GLAZ-1
 10
187.000000
 20
-173.000000
 11
157.000000
 21
-173.000000
  0
TEXT
  8
A-DIMS-1
 10
162.490965
 20
-166.523689
 40
5.527127
  1
2668
  7
STANDARD
  0
LINE
  8
A-GLAZ-1
 10
155.000000
 20
-171.000000
 11
155.000000
 21
-175.000000
  0
LINE
  8
A-GLAZ-1
 10
125.000000
 20
-175.000000
 11
125.000000
 21
-171.000000
  0
LINE
  8
A-GLAZ-1
 10
125.000000
 20
-171.000000
 11
123.000000
 21
-171.000000
  0
LINE
  8
A-GLAZ-1
 10
125.000000
 20
-175.000000
 11
123.000000
 21
-175.000000
  0
LINE
  8
A-GLAZ-1
 10
125.000000
 20
-175.000000
 11
155.000000
 21
-175.000000
  0
LINE
  8
A-GLAZ-1
 10
155.000000
 20
-171.000000
 11
125.000000
 21
-171.000000
  0
LINE
  8
A-GLAZ-1
 10
155.000000
 20
-173.000000
 11
125.000000
 21
-173.000000
  0
TEXT
  8
A-DIMS-1
 10
130.490965
 20
-166.523689
 40
5.527127
  1
2668
  7
STANDARD
  0
LINE
  8
A-GLAZ-1
 10
123.000000
 20
-175.000000
 11
123.000000
 21
-171.000000
  0
LINE
  8
A-GLAZ-1
 10
93.000000
 20
-175.000000
 11
93.000000
 21
-171.000000
  0
LINE
  8
A-GLAZ-1
 10
123.000000
 20
-175.000000
 11
123.000000
 21
-205.000000
  0
LINE
  8
A-GLAZ-1
 10
121.250000
 20
-205.000000
 11
121.250000
 21
-175.000000
  0
LINE
  8
A-GLAZ-1
 10
121.250000
 20
-175.000000
 11
123.000000
 21
-175.000000
  0
ARC
  8
A-GLAZ-1
 10
123.000000
 20
-175.000000
 40
30.000000
 50
180.000000
 51
270.000000
  0
LINE
  8
A-GLAZ-1
 10
123.000000
 20
-171.000000
 11
93.000000
 21
-171.000000
  0
TEXT
  8
A-DIMS-1
 10
98.490965
 20
-166.523689
 40
5.527127
  1
2668
  7
STANDARD
  0
LINE
  8
A-WALL-1
  6
DOTTED
 10
70.000000
 20
-173.000000
 11
70.000000
 21
-259.000000
  0
LINE
  8
A-WALL-1
  6
DOTTED
 10
72.000000
 20
-257.000000
 11
72.000000
 21
-175.000000
  0
LINE
  8
A-WALL-1
 10
58.000000
 20
-99.000000
 11
70.000000
 21
-99.000000
  0
LINE
  8
A-WALL-1
 10
74.000000
 20
-95.000000
 11
58.000000
 21
-95.000000
  0
LINE
  8
A-WALL-1
 10
-62.000000
 20
-99.000000
 11
22.000000
 21
-99.000000
  0
LINE
  8
A-WALL-1
 10
22.000000
 20
-95.000000
 11
-62.000000
 21
-95.000000
  0
LINE
  8
A-WALL-1
 10
-110.000000
 20
-99.000000
 11
-98.000000
 21
-99.000000
  0
LINE
  8
A-WALL-1
 10
-98.000000
 20
-95.000000
 11
-114.000000
 21
-95.000000
  0
LINE
  8
A-GLAZ-1
 10
58.000000
 20
-95.000000
 11
58.000000
 21
-99.000000
  0
LINE
  8
A-GLAZ-1
 10
22.000000
 20
-99.000000
 11
22.000000
 21
-95.000000
  0
LINE
  8
A-GLAZ-1
 10
22.000000
 20
-99.000000
 11
58.000000
 21
-99.000000
  0
LINE
  8
A-GLAZ-1
 10
58.000000
 20
-95.000000
 11
22.000000
 21
-95.000000
  0
LINE
  8
A-GLAZ-1
 10
58.000000
 20
-97.000000
 11
22.000000
 21
-97.000000
  0
TEXT
  8
A-DIMS-1
 10
30.490965
 20
-90.523689
 40
5.527127
  1
3062
  7
STANDARD
  0
LINE
  8
A-GLAZ-1
 10
-62.000000
 20
-95.000000
 11
-62.000000
 21
-99.000000
  0
LINE
  8
A-GLAZ-1
 10
-98.000000
 20
-99.000000
 11
-98.000000
 21
-95.000000
  0
LINE
  8
A-GLAZ-1
 10
-98.000000
 20
-99.000000
 11
-62.000000
 21
-99.000000
  0
LINE
  8
A-GLAZ-1
 10
-62.000000
 20
-95.000000
 11
-98.000000
 21
-95.000000
  0
LINE
  8
A-GLAZ-1
 10
-62.000000
 20
-97.000000
 11
-98.000000
 21
-97.000000
  0
TEXT
  8
A-DIMS-1
 10
-89.509035
 20
-90.523689
 40
5.527127
  1
3062
  7
STANDARD
  0
LINE
  8
A-WALL-1
 10
-172.429367
 20
-468.000000
 11
-270.000000
 21
-468.000000
  0
LINE
  8
A-WALL-1
 10
-270.000000
 20
-472.000000
 11
-173.600937
 21
-472.000000
  0
LINE
  8
A-WALL-1
 10
-163.115662
 20
-458.686279
 11
-172.429367
 21
-468.000000
  0
LINE
  8
A-WALL-1
 10
-169.600937
 20
-470.828430
 11
-160.287231
 21
-461.514709
  0
LINE
  8
A-WALL-1
 10
-113.429367
 20
-409.000000
 11
-120.689247
 21
-416.259888
  0
LINE
  8
A-WALL-1
 10
-117.860825
 20
-419.088318
 11
-111.772514
 21
-413.000000
  0
LINE
  8
A-GLAZ-1
 10
-163.115657
 20
-458.686292
 11
-160.287230
 21
-461.514719
  0
LINE
  8
A-GLAZ-1
 10
-120.689250
 20
-416.259885
 11
-117.860823
 21
-419.088312
  0
TEXT
  8
A-DIMS-1
 10
-145.344392
 20
-447.478956
 40
5.527127
  1
5078
 50
45.000000
  7
STANDARD
  0
LINE
  8
A-WALL-1
 10
106.500000
 20
-419.000000
 11
226.000000
 21
-419.000000
  0
LINE
  8
A-WALL-1
 10
226.000000
 20
-415.000000
 11
106.500000
 21
-415.000000
  0
LINE
  8
A-WALL-1
 10
68.500000
 20
-415.000000
 11
65.000000
 21
-415.000000
  0
LINE
  8
A-WALL-1
 10
42.000000
 20
-419.000000
 11
68.500000
 21
-419.000000
  0
LINE
  8
A-WALL-1
 10
61.000000
 20
-415.000000
 11
42.000000
 21
-415.000000
  0
LINE
  8
A-GLAZ-1
 10
106.500000
 20
-419.000000
 11
106.500000
 21
-418.000000
  0
LINE
  8
A-GLAZ-1
 10
106.500000
 20
-416.000000
 11
106.500000
 21
-415.000000
  0
LINE
  8
A-GLAZ-1
 10
68.500000
 20
-419.000000
 11
68.500000
 21
-415.000000
  0
LINE
  8
A-GLAZ-1
 10
125.500000
 20
-416.312500
 11
125.500000
 21
-417.687500
  0
LINE
  8
A-GLAZ-1
 10
87.500000
 20
-416.312500
 11
87.500000
 21
-417.687500
  0
LINE
  8
A-GLAZ-1
 10
125.500000
 20
-416.312500
 11
87.500000
 21
-416.312500
  0
LINE
  8
A-GLAZ-1
 10
125.500000
 20
-417.687500
 11
87.500000
 21
-417.687500
  0
TEXT
  8
A-DIMS-1
 10
77.990965
 20
-410.523689
 40
5.527127
  1
3268
  7
STANDARD
  0
LINE
  8
A-WALL-1
 10
38.000000
 20
-570.000000
 11
42.000000
 21
-570.000000
  0
LINE
  8
A-WALL-1
 10
38.000000
 20
-391.000000
 11
38.000000
 21
-399.000000
  0
LINE
  8
A-WALL-1
 10
42.000000
 20
-415.000000
 11
42.000000
 21
-391.000000
  0
LINE
  8
A-WALL-1
 10
38.000000
 20
-403.000000
 11
38.000000
 21
-468.000000
  0
LINE
  8
A-WALL-1
 10
42.000000
 20
-478.000000
 11
42.000000
 21
-419.000000
  0
LINE
  8
A-WALL-1
 10
38.000000
 20
-472.000000
 11
38.000000
 21
-478.000000
  0
LINE
  8
A-WALL-1
 10
38.000000
 20
-532.000000
 11
38.000000
 21
-539.000000
  0
LINE
  8
A-WALL-1
 10
42.000000
 20
-563.000000
 11
42.000000
 21
-532.000000
  0
LINE
  8
A-WALL-1
 10
42.000000
 20
-570.000000
 11
42.000000
 21
-567.000000
  0
LINE
  8
A-WALL-1
 10
38.000000
 20
-543.000000
 11
38.000000
 21
-570.000000
  0
LINE
  8
A-GLAZ-1
 10
42.000000
 20
-478.000000
 11
38.000000
 21
-478.000000
  0
LINE
  8
A-GLAZ-1
 10
42.000000
 20
-532.000000
 11
38.000000
 21
-532.000000
  0
TEXT
  8
A-DIMS-1
 10
42.641399
 20
-514.509035
 40
5.527127
  1
4678
 50
90.000000
  7
STANDARD
  0
LINE
  8
A-WALL-1
 10
226.000000
 20
-563.000000
 11
42.000000
 21
-563.000000
  0
LINE
  8
A-WALL-1
 10
42.000000
 20
-567.000000
 11
226.000000
 21
-567.000000
  0
LINE
  8
A-WALL-1
 10
-6.000000
 20
-387.000000
 11
-13.647619
 21
-387.000000
  0
LINE
  8
A-WALL-1
 10
-11.990766
 20
-391.000000
 11
-6.000000
 21
-391.000000
  0
LINE
  8
A-WALL-1
 10
34.000000
 20
-391.000000
 11
38.000000
 21
-391.000000
  0
LINE
  8
A-WALL-1
 10
65.000000
 20
-387.000000
 11
34.000000
 21
-387.000000
  0
LINE
  8
A-WALL-1
 10
42.000000
 20
-391.000000
 11
61.000000
 21
-391.000000
  0
LINE
  8
A-GLAZ-1
 10
-6.000000
 20
-387.000000
 11
-6.000000
 21
-391.000000
  0
LINE
  8
A-GLAZ-1
 10
34.000000
 20
-387.000000
 11
34.000000
 21
-391.000000
  0
LINE
  8
A-GLAZ-1
 10
-6.000000
 20
-389.000000
 11
1.071068
 21
-381.928932
  0
LINE
  8
A-GLAZ-1
 10
1.071068
 20
-381.928932
 11
2.043340
 21
-382.901204
  0
LINE
  8
A-GLAZ-1
 10
2.043340
 20
-382.901204
 11
-5.027728
 21
-389.972272
  0
LINE
  8
A-GLAZ-1
 10
-5.027728
 20
-389.972272
 11
-6.000000
 21
-389.000000
  0
LINE
  8
A-GLAZ-1
 10
2.043340
 20
-382.901204
 11
9.114407
 21
-389.972272
  0
LINE
  8
A-GLAZ-1
 10
9.114407
 20
-389.972272
 11
10.086679
 21
-389.000000
  0
LINE
  8
A-GLAZ-1
 10
10.086679
 20
-389.000000
 11
3.015611
 21
-381.928932
  0
LINE
  8
A-GLAZ-1
 10
3.015611
 20
-381.928932
 11
2.043340
 21
-382.901204
  0
LINE
  8
A-GLAZ-1
 10
34.000000
 20
-389.000000
 11
26.928932
 21
-381.928932
  0
LINE
  8
A-GLAZ-1
 10
26.928932
 20
-381.928932
 11
25.956660
 21
-382.901204
  0
LINE
  8
A-GLAZ-1
 10
25.956660
 20
-382.901204
 11
33.027728
 21
-389.972272
  0
LINE
  8
A-GLAZ-1
 10
33.027728
 20
-389.972272
 11
34.000000
 21
-389.000000
  0
LINE
  8
A-GLAZ-1
 10
25.956660
 20
-382.901204
 11
18.885593
 21
-389.972272
  0
LINE
  8
A-GLAZ-1
 10
18.885593
 20
-389.972272
 11
17.913321
 21
-389.000000
  0
LINE
  8
A-GLAZ-1
 10
17.913321
 20
-389.000000
 11
24.984389
 21
-381.928932
  0
LINE
  8
A-GLAZ-1
 10
24.984389
 20
-381.928932
 11
25.956660
 21
-382.901204
  0
TEXT
  8
A-DIMS-1
 10
4.490965
 20
-391.641399
 40
5.527127
  1
3468
  7
STANDARD
  0
LINE
  8
A-WALL-1
 10
65.000000
 20
-415.000000
 11
65.000000
 21
-387.000000
  0
LINE
  8
A-WALL-1
 10
61.000000
 20
-391.000000
 11
61.000000
 21
-415.000000
  0
LINE
  8
A-WALL-1
 10
34.000000
 20
-472.000000
 11
38.000000
 21
-472.000000
  0
LINE
  8
A-WALL-1
 10
38.000000
 20
-468.000000
 11
34.000000
 21
-468.000000
  0
LINE
  8
A-WALL-1
 10
-34.000000
 20
-472.000000
 11
-2.000000
 21
-472.000000
  0
LINE
  8
A-WALL-1
 10
-2.000000
 20
-468.000000
 11
-34.000000
 21
-468.000000
  0
LINE
  8
A-GLAZ-1
 10
34.000000
 20
-472.000000
 11
34.000000
 21
-468.000000
  0
LINE
  8
A-GLAZ-1
 10
-2.000000
 20
-472.000000
 11
-2.000000
 21
-468.000000
  0
LINE
  8
A-GLAZ-1
 10
34.000000
 20
-468.000000
 11
34.000000
 21
-432.000000
  0
LINE
  8
A-GLAZ-1
 10
32.625000
 20
-432.000000
 11
32.625000
 21
-468.000000
  0
LINE
  8
A-GLAZ-1
 10
32.625000
 20
-468.000000
 11
34.000000
 21
-468.000000
  0
ARC
  8
A-GLAZ-1
 10
34.000000
 20
-468.000000
 40
36.000000
 50
90.000000
 51
180.000000
  0
TEXT
  8
A-DIMS-1
 10
6.490965
 20
-472.641399
 40
5.527127
  1
3068
  7
STANDARD
  0
LINE
  8
A-WALL-1
 10
-38.000000
 20
-532.000000
 11
-38.000000
 21
-539.000000
  0
LINE
  8
A-WALL-1
 10
-34.000000
 20
-539.000000
 11
-34.000000
 21
-532.000000
  0
LINE
  8
A-WALL-1
 10
-34.000000
 20
-478.000000
 11
-34.000000
 21
-472.000000
  0
LINE
  8
A-WALL-1
 10
-38.000000
 20
-413.000000
 11
-38.000000
 21
-478.000000
  0
LINE
  8
A-WALL-1
 10
-34.000000
 20
-468.000000
 11
-34.000000
 21
-413.000000
  0
LINE
  8
A-GLAZ-1
 10
-38.000000
 20
-532.000000
 11
-34.000000
 21
-532.000000
  0
LINE
  8
A-GLAZ-1
 10
-38.000000
 20
-478.000000
 11
-34.000000
 21
-478.000000
  0
TEXT
  8
A-DIMS-1
 10
-33.358601
 20
-514.509035
 40
5.527127
  1
4678
 50
90.000000
  7
STANDARD
  0
LINE
  8
A-WALL-1
 10
-19.990765
 20
-399.000000
 11
-11.990766
 21
-391.000000
  0
LINE
  8
A-WALL-1
 10
-33.990765
 20
-413.000000
 11
-23.990765
 21
-403.000000
  0
LINE
  8
A-WALL-1
 10
-13.647619
 20
-387.000000
 11
-35.647621
 21
-409.000000
  0
LINE
  8
A-WALL-1
 10
-103.600937
 20
-409.000000
 11
-110.000000
 21
-409.000000
  0
LINE
  8
A-WALL-1
 10
-111.772514
 20
-413.000000
 11
-103.600937
 21
-413.000000
  0
LINE
  8
A-WALL-1
 10
-43.600937
 20
-413.000000
 11
-38.000000
 21
-413.000000
  0
LINE
  8
A-WALL-1
 10
-35.647621
 20
-409.000000
 11
-43.600937
 21
-409.000000
  0
LINE
  8
A-WALL-1
 10
-34.000000
 20
-413.000000
 11
-33.990765
 21
-413.000000
  0
LINE
  8
A-GLAZ-1
 10
-103.600938
 20
-409.000000
 11
-103.600938
 21
-413.000000
  0
LINE
  8
A-GLAZ-1
 10
-43.600938
 20
-409.000000
 11
-43.600938
 21
-413.000000
  0
TEXT
  8
A-DIMS-1
 10
-83.109974
 20
-413.641399
 40
5.527127
  1
5078
  7
STANDARD
  0
LINE
  8
A-WALL-1
 10
-38.000000
 20
-563.000000
 11
-38.000000
 21
-543.000000
  0
LINE
  8
A-WALL-1
 10
-42.000000
 20
-539.000000
 11
-42.000000
 21
-563.000000
  0
LINE
  8
A-WALL-1
 10
-38.000000
 20
-611.000000
 11
-38.000000
 21
-593.000000
  0
LINE
  8
A-WALL-1
 10
-42.000000
 20
-593.000000
 11
-42.000000
 21
-717.000000
  0
LINE
  8
A-WALL-1
 10
-42.000000
 20
-721.000000
 11
-42.000000
 21
-769.000000
  0
LINE
  8
A-WALL-1
 10
-38.000000
 20
-835.000000
 11
-38.000000
 21
-615.000000
  0
LINE
  8
A-WALL-1
 10
-42.000000
 20
-773.000000
 11
-42.000000
 21
-839.000000
  0
LINE
  8
A-GLAZ-1
 10
-38.000000
 20
-563.000000
 11
-42.000000
 21
-563.000000
  0
LINE
  8
A-GLAZ-1
 10
-38.000000
 20
-593.000000
 11
-42.000000
 21
-593.000000
  0
LINE
  8
A-GLAZ-1
 10
-42.000000
 20
-563.000000
 11
-72.000000
 21
-563.000000
  0
LINE
  8
A-GLAZ-1
 10
-72.000000
 20
-564.375000
 11
-42.000000
 21
-564.375000
  0
LINE
  8
A-GLAZ-1
 10
-42.000000
 20
-564.375000
 11
-42.000000
 21
-563.000000
  0
ARC
  8
A-GLAZ-1
 10
-42.000000
 20
-563.000000
 40
30.000000
 50
180.000000
 51
270.000000
  0
TEXT
  8
A-DIMS-1
 10
-37.358601
 20
-587.509035
 40
5.527127
  1
2668
 50
90.000000
  7
STANDARD
  0
LINE
  8
A-WALL-1
 10
-14.000000
 20
-611.000000
 11
-38.000000
 21
-611.000000
  0
LINE
  8
A-WALL-1
 10
-38.000000
 20
-615.000000
 11
-10.000000
 21
-615.000000
  0
LINE
  8
A-WALL-1
 10
-10.000000
 20
-615.000000
 11
-10.000000
 21
-543.000000
  0
LINE
  8
A-WALL-1
 10
-14.000000
 20
-543.000000
 11
-14.000000
 21
-611.000000
  0
LINE
  8
A-WALL-1
 10
-61.000000
 20
-721.000000
 11
-42.000000
 21
-721.000000
  0
LINE
  8
A-WALL-1
 10
-42.000000
 20
-717.000000
 11
-61.000000
 21
-717.000000
  0
LINE
  8
A-WALL-1
 10
-174.000000
 20
-721.000000
 11
-155.000000
 21
-721.000000
  0
LINE
  8
A-WALL-1
 10
-155.000000
 20
-717.000000
 11
-174.000000
 21
-717.000000
  0
LINE
  8
A-GLAZ-1
 10
-85.000000
 20
-721.000000
 11
-85.000000
 21
-717.000000
  0
LINE
  8
A-GLAZ-1
 10
-61.000000
 20
-717.000000
 11
-61.000000
 21
-721.000000
  0
LINE
  8
A-GLAZ-1
 10
-61.000000
 20
-717.000000
 11
-85.000000
 21
-717.000000
  0
LINE
  8
A-GLAZ-1
 10
-85.000000
 20
-721.000000
 11
-61.000000
 21
-721.000000
  0
LINE
  8
A-GLAZ-1
 10
-85.000000
 20
-719.000000
 11
-61.000000
 21
-719.000000
  0
TEXT
  8
A-DIMS-1
 10
-82.509035
 20
-730.759109
 40
5.527127
  1
2068
  7
STANDARD
  0
LINE
  8
A-GLAZ-1
 10
-87.000000
 20
-721.000000
 11
-87.000000
 21
-717.000000
  0
LINE
  8
A-GLAZ-1
 10
-129.000000
 20
-721.000000
 11
-129.000000
 21
-717.000000
  0
LINE
  8
A-GLAZ-1
 10
-87.000000
 20
-721.000000
 11
-85.000000
 21
-721.000000
  0
LINE
  8
A-GLAZ-1
 10
-87.000000
 20
-717.000000
 11
-85.000000
 21
-717.000000
  0
LINE
  8
A-GLAZ-1
 10
-87.000000
 20
-717.000000
 11
-87.000000
 21
-675.000000
  0
LINE
  8
A-GLAZ-1
 10
-88.750000
 20
-675.000000
 11
-88.750000
 21
-717.000000
  0
LINE
  8
A-GLAZ-1
 10
-88.750000
 20
-717.000000
 11
-87.000000
 21
-717.000000
  0
ARC
  8
A-GLAZ-1
 10
-87.000000
 20
-717.000000
 40
42.000000
 50
90.000000
 51
180.000000
  0
LINE
  8
A-GLAZ-1
 10
-87.000000
 20
-721.000000
 11
-129.000000
 21
-721.000000
  0
TEXT
  8
A-DIMS-1
 10
-117.509035
 20
-730.759109
 40
5.527127
  1
3668
  7
STANDARD
  0
LINE
  8
A-GLAZ-1
 10
-155.000000
 20
-721.000000
 11
-155.000000
 21
-717.000000
  0
LINE
  8
A-GLAZ-1
 10
-131.000000
 20
-717.000000
 11
-131.000000
 21
-721.000000
  0
LINE
  8
A-GLAZ-1
 10
-131.000000
 20
-721.000000
 11
-129.000000
 21
-721.000000
  0
LINE
  8
A-GLAZ-1
 10
-131.000000
 20
-717.000000
 11
-129.000000
 21
-717.000000
  0
LINE
  8
A-GLAZ-1
 10
-131.000000
 20
-717.000000
 11
-155.000000
 21
-717.000000
  0
LINE
  8
A-GLAZ-1
 10
-155.000000
 20
-721.000000
 11
-131.000000
 21
-721.000000
  0
LINE
  8
A-GLAZ-1
 10
-155.000000
 20
-719.000000
 11
-131.000000
 21
-719.000000
  0
TEXT
  8
A-DIMS-1
 10
-152.509035
 20
-730.759109
 40
5.527127
  1
2068
  7
STANDARD
  0
LINE
  8
A-WALL-1
 10
-57.000000
 20
-773.000000
 11
-42.000000
 21
-773.000000
  0
LINE
  8
A-WALL-1
 10
-42.000000
 20
-769.000000
 11
-57.000000
 21
-769.000000
  0
LINE
  8
A-WALL-1
 10
-174.000000
 20
-773.000000
 11
-159.000000
 21
-773.000000
  0
LINE
  8
A-WALL-1
 10
-159.000000
 20
-769.000000
 11
-174.000000
 21
-769.000000
  0
LINE
  8
A-GLAZ-1
 10
-57.000000
 20
-773.000000
 11
-57.000000
 21
-769.000000
  0
LINE
  8
A-GLAZ-1
 10
-159.000000
 20
-773.000000
 11
-159.000000
 21
-769.000000
  0
LINE
  8
A-GLAZ-1
 10
-57.000000
 20
-773.000000
 11
-159.000000
 21
-773.000000
  0
TEXT
  8
A-DIMS-1
 10
-117.509035
 20
-782.759109
 40
5.527127
  1
8678
  7
STANDARD
  0
LINE
  8
A-WALL-1
 10
-174.000000
 20
-797.000000
 11
-174.000000
 21
-773.000000
  0
LINE
  8
A-WALL-1
 10
-174.000000
 20
-769.000000
 11
-174.000000
 21
-721.000000
  0
LINE
  8
A-WALL-1
 10
-178.000000
 20
-708.000000
 11
-178.000000
 21
-793.000000
  0
LINE
  8
A-WALL-1
 10
-174.000000
 20
-717.000000
 11
-174.000000
 21
-708.000000
  0
LINE
  8
A-WALL-1
 10
-178.000000
 20
-666.000000
 11
-178.000000
 21
-670.000000
  0
LINE
  8
A-WALL-1
 10
-178.000000
 20
-655.000000
 11
-178.000000
 21
-662.000000
  0
LINE
  8
A-WALL-1
 10
-174.000000
 20
-670.000000
 11
-174.000000
 21
-655.000000
  0
LINE
  8
A-WALL-1
 10
-178.000000
 20
-608.000000
 11
-178.000000
 21
-617.000000
  0
LINE
  8
A-WALL-1
 10
-174.000000
 20
-617.000000
 11
-174.000000
 21
-608.000000
  0
LINE
  8
A-GLAZ-1
 10
-178.000000
 20
-708.000000
 11
-174.000000
 21
-708.000000
  0
LINE
  8
A-GLAZ-1
 10
-178.000000
 20
-670.000000
 11
-174.000000
 21
-670.000000
  0
LINE
  8
A-GLAZ-1
 10
-178.000000
 20
-708.000000
 11
-216.000000
 21
-708.000000
  0
LINE
  8
A-GLAZ-1
 10
-216.000000
 20
-706.625000
 11
-178.000000
 21
-706.625000
  0
LINE
  8
A-GLAZ-1
 10
-178.000000
 20
-706.625000
 11
-178.000000
 21
-708.000000
  0
ARC
  8
A-GLAZ-1
 10
-178.000000
 20
-708.000000
 40
38.000000
 50
90.000000
 51
180.000000
  0
TEXT
  8
A-DIMS-1
 10
-173.358601
 20
-698.509035
 40
5.527127
  1
3268
 50
90.000000
  7
STANDARD
  0
LINE
  8
A-GLAZ-1
 10
-178.000000
 20
-655.000000
 11
-174.000000
 21
-655.000000
  0
LINE
  8
A-GLAZ-1
 10
-178.000000
 20
-617.000000
 11
-174.000000
 21
-617.000000
  0
LINE
  8
A-GLAZ-1
 10
-174.000000
 20
-655.000000
 11
-136.000000
 21
-655.000000
  0
LINE
  8
A-GLAZ-1
 10
-136.000000
 20
-653.625000
 11
-174.000000
 21
-653.625000
  0
LINE
  8
A-GLAZ-1
 10
-174.000000
 20
-653.625000
 11
-174.000000
 21
-655.000000
  0
ARC
  8
A-GLAZ-1
 10
-174.000000
 20
-655.000000
 40
38.000000
 50
0.000000
 51
90.000000
  0
TEXT
  8
A-DIMS-1
 10
-173.358601
 20
-645.509035
 40
5.527127
  1
3268
 50
90.000000
  7
STANDARD
  0
LINE
  8
A-WALL-1
 10
-199.000000
 20
-797.000000
 11
-174.000000
 21
-797.000000
  0
LINE
  8
A-WALL-1
 10
-178.000000
 20
-793.000000
 11
-199.000000
 21
-793.000000
  0
LINE
  8
A-WALL-1
 10
-230.000000
 20
-797.000000
 11
-227.000000
 21
-797.000000
  0
LINE
  8
A-WALL-1
 10
-227.000000
 20
-793.000000
 11
-230.000000
 21
-793.000000
  0
LINE
  8
A-WALL-1
 10
-269.000000
 20
-797.000000
 11
-266.000000
 21
-797.000000
  0
LINE
  8
A-WALL-1
 10
-266.000000
 20
-793.000000
 11
-269.000000
 21
-793.000000
  0
LINE
  8
A-WALL-1
 10
-322.000000
 20
-797.000000
 11
-297.000000
 21
-797.000000
  0
LINE
  8
A-WALL-1
 10
-297.000000
 20
-793.000000
 11
-318.000000
 21
-793.000000
  0
LINE
  8
A-GLAZ-1
 10
-227.000000
 20
-797.000000
 11
-227.000000
 21
-793.000000
  0
LINE
  8
A-GLAZ-1
 10
-199.000000
 20
-793.000000
 11
-199.000000
 21
-797.000000
  0
LINE
  8
A-GLAZ-1
 10
-199.000000
 20
-793.000000
 11
-227.000000
 21
-793.000000
  0
LINE
  8
A-GLAZ-1
 10
-227.000000
 20
-797.000000
 11
-199.000000
 21
-797.000000
  0
LINE
  8
A-GLAZ-1
 10
-227.000000
 20
-795.000000
 11
-199.000000
 21
-795.000000
  0
TEXT
  8
A-DIMS-1
 10
-222.509035
 20
-806.759109
 40
5.527127
  1
2462
  7
STANDARD
  0
LINE
  8
A-GLAZ-1
 10
-266.000000
 20
-797.000000
 11
-266.000000
 21
-793.000000
  0
LINE
  8
A-GLAZ-1
 10
-230.000000
 20
-793.000000
 11
-230.000000
 21
-797.000000
  0
LINE
  8
A-GLAZ-1
 10
-230.000000
 20
-793.000000
 11
-266.000000
 21
-793.000000
  0
LINE
  8
A-GLAZ-1
 10
-266.000000
 20
-797.000000
 11
-230.000000
 21
-797.000000
  0
LINE
  8
A-GLAZ-1
 10
-266.000000
 20
-795.000000
 11
-230.000000
 21
-795.000000
  0
TEXT
  8
A-DIMS-1
 10
-257.509035
 20
-806.759109
 40
5.527127
  1
3078
  7
STANDARD
  0
LINE
  8
A-GLAZ-1
 10
-297.000000
 20
-797.000000
 11
-297.000000
 21
-793.000000
  0
LINE
  8
A-GLAZ-1
 10
-269.000000
 20
-793.000000
 11
-269.000000
 21
-797.000000
  0
LINE
  8
A-GLAZ-1
 10
-269.000000
 20
-793.000000
 11
-297.000000
 21
-793.000000
  0
LINE
  8
A-GLAZ-1
 10
-297.000000
 20
-797.000000
 11
-269.000000
 21
-797.000000
  0
LINE
  8
A-GLAZ-1
 10
-297.000000
 20
-795.000000
 11
-269.000000
 21
-795.000000
  0
TEXT
  8
A-DIMS-1
 10
-292.509035
 20
-806.759109
 40
5.527127
  1
2462
  7
STANDARD
  0
LINE
  8
A-WALL-1
 10
-322.000000
 20
-785.000000
 11
-322.000000
 21
-797.000000
  0
LINE
  8
A-WALL-1
 10
-318.000000
 20
-793.000000
 11
-318.000000
 21
-785.000000
  0
LINE
  8
A-WALL-1
 10
-322.000000
 20
-637.369629
 11
-322.000000
 21
-753.000000
  0
LINE
  8
A-WALL-1
 10
-318.000000
 20
-753.000000
 11
-318.000000
 21
-639.026489
  0
LINE
  8
A-GLAZ-1
 10
-322.000000
 20
-753.000000
 11
-318.000000
 21
-753.000000
  0
LINE
  8
A-GLAZ-1
 10
-318.000000
 20
-785.000000
 11
-322.000000
 21
-785.000000
  0
LINE
  8
A-GLAZ-1
 10
-318.000000
 20
-785.000000
 11
-318.000000
 21
-753.000000
  0
LINE
  8
A-GLAZ-1
 10
-322.000000
 20
-753.000000
 11
-322.000000
 21
-785.000000
  0
LINE
  8
A-GLAZ-1
 10
-320.000000
 20
-753.000000
 11
-320.000000
 21
-785.000000
  0
TEXT
  8
A-DIMS-1
 10
-326.476311
 20
-778.509035
 40
5.527127
  1
2862
 50
90.000000
  7
STANDARD
  0
LINE
  8
A-WALL-1
 10
-317.171570
 20
-632.541199
 11
-322.000000
 21
-637.369629
  0
LINE
  8
A-WALL-1
 10
-318.000000
 20
-639.026489
 11
-314.343140
 21
-635.369629
  0
LINE
  8
A-WALL-1
 10
-286.630371
 20
-602.000000
 11
-294.544159
 21
-609.913757
  0
LINE
  8
A-WALL-1
 10
-291.715729
 20
-612.742188
 11
-286.973511
 21
-608.000000
  0
LINE
  8
A-GLAZ-1
 10
-294.544156
 20
-609.913780
 11
-291.715729
 21
-612.742207
  0
LINE
  8
A-GLAZ-1
 10
-314.343146
 20
-635.369624
 11
-317.171573
 21
-632.541197
  0
LINE
  8
A-GLAZ-1
 10
-314.343146
 20
-635.369624
 11
-291.715729
 21
-612.742207
  0
LINE
  8
A-GLAZ-1
 10
-294.544156
 20
-609.913780
 11
-317.171573
 21
-632.541197
  0
LINE
  8
A-GLAZ-1
 10
-293.129942
 20
-611.327994
 11
-315.757359
 21
-633.955411
  0
TEXT
  8
A-DIMS-1
 10
-315.746998
 20
-624.786162
 40
5.527127
  1
2862
 50
45.000000
  7
STANDARD
  0
LINE
  8
A-WALL-1
 10
230.000000
 20
-255.000000
 11
206.000000
 21
-255.000000
  0
LINE
  8
A-WALL-1
 10
202.000000
 20
-259.000000
 11
226.000000
 21
-259.000000
  0
LINE
  8
A-WALL-1
 10
74.000000
 20
-104.000000
 11
74.000000
 21
-95.000000
  0
LINE
  8
A-WALL-1
 10
70.000000
 20
-99.000000
 11
70.000000
 21
-104.000000
  0
LINE
  8
A-WALL-1
 10
74.000000
 20
-171.000000
 11
74.000000
 21
-142.000000
  0
LINE
  8
A-WALL-1
 10
70.000000
 20
-142.000000
 11
70.000000
 21
-175.000000
  0
LINE
  8
A-GLAZ-1
 10
74.000000
 20
-104.000000
 11
70.000000
 21
-104.000000
  0
LINE
  8
A-GLAZ-1
 10
74.000000
 20
-142.000000
 11
70.000000
 21
-142.000000
  0
LINE
  8
A-GLAZ-1
 10
70.000000
 20
-104.000000
 11
32.000000
 21
-104.000000
  0
LINE
  8
A-GLAZ-1
 10
32.000000
 20
-105.750000
 11
70.000000
 21
-105.750000
  0
LINE
  8
A-GLAZ-1
 10
70.000000
 20
-105.750000
 11
70.000000
 21
-104.000000
  0
ARC
  8
A-GLAZ-1
 10
70.000000
 20
-104.000000
 40
38.000000
 50
180.000000
 51
270.000000
  0
LINE
  8
A-GLAZ-1
 10
74.000000
 20
-104.000000
 11
74.000000
 21
-142.000000
  0
TEXT
  8
A-DIMS-1
 10
83.759109
 20
-132.509035
 40
5.527127
  1
3268
 50
90.000000
  7
STANDARD
  0
LINE
  8
A-WALL-1
  6
DOTTED
 10
38.000000
 20
-569.000000
 11
-10.000000
 21
-569.000000
  0
LINE
  8
A-WALL-1
  6
DOTTED
 10
-10.000000
 20
-571.000000
 11
42.000000
 21
-571.000000
  0
LINE
  8
A-WALL-1
 10
73.414215
 20
-257.511749
 11
70.585785
 21
-254.683334
  0
LINE
  8
A-WALL-1
 10
-13.414213
 20
-338.683319
 11
-10.585787
 21
-341.511749
  0
LINE
  8
A-WALL-1
 10
-10.585787
 20
-341.511749
 11
73.414215
 21
-257.511749
  0
LINE
  8
A-WALL-1
 10
70.585785
 20
-254.683334
 11
-13.414213
 21
-338.683319
  0
LINE
  8
A-WALL-1
 10
-173.600937
 20
-514.000000
 11
-169.600937
 21
-514.000000
  0
LINE
  8
A-WALL-1
 10
-169.600937
 20
-474.000000
 11
-169.600937
 21
-470.828430
  0
LINE
  8
A-WALL-1
 10
-173.600937
 20
-472.000000
 11
-173.600937
 21
-474.000000
  0
LINE
  8
A-WALL-1
 10
-169.600937
 20
-514.000000
 11
-169.600937
 21
-510.000000
  0
LINE
  8
A-WALL-1
 10
-173.600937
 20
-510.000000
 11
-173.600937
 21
-514.000000
  0
LINE
  8
A-GLAZ-1
 10
-169.600938
 20
-474.000000
 11
-173.600938
 21
-474.000000
  0
LINE
  8
A-GLAZ-1
 10
-169.600938
 20
-510.000000
 11
-173.600938
 21
-510.000000
  0
LINE
  8
A-GLAZ-1
 10
-169.600938
 20
-474.000000
 11
-133.600938
 21
-474.000000
  0
LINE
  8
A-GLAZ-1
 10
-133.600938
 20
-475.375000
 11
-169.600938
 21
-475.375000
  0
LINE
  8
A-GLAZ-1
 10
-169.600938
 20
-475.375000
 11
-169.600938
 21
-474.000000
  0
ARC
  8
A-GLAZ-1
 10
-169.600938
 20
-474.000000
 40
36.000000
 50
270.000000
 51
0.000000
  0
TEXT
  8
A-DIMS-1
 10
-168.959539
 20
-501.509035
 40
5.527127
  1
3068
 50
90.000000
  7
STANDARD
  0
LINE
  8
A-WALL-1
 10
34.000000
 20
-543.000000
 11
38.000000
 21
-543.000000
  0
LINE
  8
A-WALL-1
 10
38.000000
 20
-539.000000
 11
34.000000
 21
-539.000000
  0
LINE
  8
A-WALL-1
 10
-10.000000
 20
-543.000000
 11
-2.000000
 21
-543.000000
  0
LINE
  8
A-WALL-1
 10
-2.000000
 20
-539.000000
 11
-34.000000
 21
-539.000000
  0
LINE
  8
A-WALL-1
 10
-38.000000
 20
-543.000000
 11
-14.000000
 21
-543.000000
  0
LINE
  8
A-WALL-1
 10
-38.000000
 20
-539.000000
 11
-42.000000
 21
-539.000000
  0
LINE
  8
A-GLAZ-1
 10
34.000000
 20
-543.000000
 11
34.000000
 21
-539.000000
  0
LINE
  8
A-GLAZ-1
 10
-2.000000
 20
-543.000000
 11
-2.000000
 21
-539.000000
  0
LINE
  8
A-GLAZ-1
 10
-2.000000
 20
-539.000000
 11
-2.000000
 21
-503.000000
  0
LINE
  8
A-GLAZ-1
 10
-0.625000
 20
-503.000000
 11
-0.625000
 21
-539.000000
  0
LINE
  8
A-GLAZ-1
 10
-0.625000
 20
-539.000000
 11
-2.000000
 21
-539.000000
  0
ARC
  8
A-GLAZ-1
 10
-2.000000
 20
-539.000000
 40
36.000000
 50
0.000000
 51
90.000000
  0
LINE
  8
A-GLAZ-1
 10
34.000000
 20
-543.000000
 11
-2.000000
 21
-543.000000
  0
TEXT
  8
A-DIMS-1
 10
6.490965
 20
-552.759109
 40
5.527127
  1
3068
  7
STANDARD
  0
LINE
  8
A-WALL-1
 10
-23.990765
 20
-403.000000
 11
38.000000
 21
-403.000000
  0
LINE
  8
A-WALL-1
 10
38.000000
 20
-399.000000
 11
-19.990765
 21
-399.000000
  0
LINE
  8
A-WALL-1
 10
-248.000000
 20
-662.000000
 11
-248.000000
 21
-608.000000
  0
LINE
  8
A-WALL-1
 10
-252.000000
 20
-608.000000
 11
-252.000000
 21
-666.000000
  0
LINE
  8
A-WALL-1
  6
DOTTED
 10
-170.600937
 20
-608.000000
 11
-170.600937
 21
-514.000000
  0
LINE
  8
A-WALL-1
  6
DOTTED
 10
-172.600937
 20
-514.000000
 11
-172.600937
 21
-602.000000
  0
LINE
  8
A-WALL-1
  6
DOTTED
 10
-12.000000
 20
-341.097534
 11
-12.000000
 21
-339.097534
  0
LINE
  8
A-WALL-1
  6
DOTTED
 10
-110.000000
 20
-341.097534
 11
-12.000000
 21
-341.097534
  0
LINE
  8
A-WALL-1
  6
DOTTED
 10
-12.000000
 20
-339.097534
 11
-110.000000
 21
-339.097534
  0
LINE
  8
A-STAR-1
 10
-10.000000
 20
-571.000000
 11
-10.000000
 21
-581.000000
  0
LINE
  8
A-STAR-1
 10
-10.000000
 20
-581.000000
 11
38.000000
 21
-581.000000
  0
LINE
  8
A-STAR-1
 10
38.000000
 20
-581.000000
 11
38.000000
 21
-571.000000
  0
LINE
  8
A-STAR-1
 10
-10.000000
 20
-571.000000
 11
38.000000
 21
-571.000000
  0
LINE
  8
A-STAR-1
 10
-219.000000
 20
-601.500000
 11
-210.000000
 21
-601.500000
  0
LINE
  8
A-STAR-1
 10
-210.000000
 20
-601.500000
 11
-210.000000
 21
-559.500000
  0
LINE
  8
A-STAR-1
 10
-210.000000
 20
-559.500000
 11
-219.000000
 21
-559.500000
  0
LINE
  8
A-STAR-1
 10
-228.000000
 20
-601.500000
 11
-219.000000
 21
-601.500000
  0
LINE
  8
A-STAR-1
 10
-219.000000
 20
-601.500000
 11
-219.000000
 21
-559.500000
  0
LINE
  8
A-STAR-1
 10
-219.000000
 20
-559.500000
 11
-228.000000
 21
-559.500000
  0
LINE
  8
A-STAR-1
 10
-228.000000
 20
-601.500000
 11
-228.000000
 21
-559.500000
  0
TEXT
  8
A-POWR-1
 10
-223.738595
 20
-579.452525
 40
4.251636
  1
UP
  7
STANDARD
  0
LINE
  8
A-STAR-1
 10
-229.000000
 20
-582.500000
 11
-218.000000
 21
-582.500000
  0
LINE
  8
A-STAR-1
 10
-228.000000
 20
-559.000000
 11
-228.000000
 21
-602.000000
  0
LINE
  8
A-STAR-1
 10
-228.000000
 20
-602.000000
 11
-270.000000
 21
-602.000000
  0
LINE
  8
A-STAR-1
 10
-270.000000
 20
-602.000000
 11
-270.000000
 21
-559.000000
  0
LINE
  8
A-STAR-1
 10
-270.000000
 20
-559.000000
 11
-228.000000
 21
-559.000000
  0
LINE
  8
A-STAR-1
 10
-270.000000
 20
-550.000000
 11
-270.000000
 21
-559.000000
  0
LINE
  8
A-STAR-1
 10
-270.000000
 20
-559.000000
 11
-228.000000
 21
-559.000000
  0
LINE
  8
A-STAR-1
 10
-228.000000
 20
-559.000000
 11
-228.000000
 21
-550.000000
  0
LINE
  8
A-STAR-1
 10
-270.000000
 20
-541.000000
 11
-270.000000
 21
-550.000000
  0
LINE
  8
A-STAR-1
 10
-270.000000
 20
-550.000000
 11
-228.000000
 21
-550.000000
  0
LINE
  8
A-STAR-1
 10
-228.000000
 20
-550.000000
 11
-228.000000
 21
-541.000000
  0
LINE
  8
A-STAR-1
 10
-270.000000
 20
-532.000000
 11
-270.000000
 21
-541.000000
  0
LINE
  8
A-STAR-1
 10
-270.000000
 20
-541.000000
 11
-228.000000
 21
-541.000000
  0
LINE
  8
A-STAR-1
 10
-228.000000
 20
-541.000000
 11
-228.000000
 21
-532.000000
  0
LINE
  8
A-STAR-1
 10
-270.000000
 20
-523.000000
 11
-270.000000
 21
-532.000000
  0
LINE
  8
A-STAR-1
 10
-270.000000
 20
-532.000000
 11
-228.000000
 21
-532.000000
  0
LINE
  8
A-STAR-1
 10
-228.000000
 20
-532.000000
 11
-228.000000
 21
-523.000000
  0
LINE
  8
A-STAR-1
 10
-270.000000
 20
-514.000000
 11
-270.000000
 21
-523.000000
  0
LINE
  8
A-STAR-1
 10
-270.000000
 20
-523.000000
 11
-228.000000
 21
-523.000000
  0
LINE
  8
A-STAR-1
 10
-228.000000
 20
-523.000000
 11
-228.000000
 21
-514.000000
  0
LINE
  8
A-STAR-1
 10
-270.000000
 20
-514.000000
 11
-228.000000
 21
-514.000000
  0
LINE
  8
A-STAR-1
 10
-227.500000
 20
-514.000000
 11
-270.000000
 21
-514.000000
  0
LINE
  8
A-STAR-1
 10
-270.000000
 20
-514.000000
 11
-270.000000
 21
-472.000000
  0
LINE
  8
A-STAR-1
 10
-270.000000
 20
-472.000000
 11
-227.500000
 21
-472.000000
  0
LINE
  8
A-STAR-1
 10
-227.500000
 20
-472.000000
 11
-227.500000
 21
-514.000000
  0
LINE
  8
A-STAR-1
 10
-218.500000
 20
-472.000000
 11
-227.500000
 21
-472.000000
  0
LINE
  8
A-STAR-1
 10
-227.500000
 20
-472.000000
 11
-227.500000
 21
-514.000000
  0
LINE
  8
A-STAR-1
 10
-227.500000
 20
-514.000000
 11
-218.500000
 21
-514.000000
  0
LINE
  8
A-STAR-1
 10
-209.500000
 20
-472.000000
 11
-218.500000
 21
-472.000000
  0
LINE
  8
A-STAR-1
 10
-218.500000
 20
-472.000000
 11
-218.500000
 21
-514.000000
  0
LINE
  8
A-STAR-1
 10
-218.500000
 20
-514.000000
 11
-209.500000
 21
-514.000000
  0
LINE
  8
A-STAR-1
 10
-200.500000
 20
-472.000000
 11
-209.500000
 21
-472.000000
  0
LINE
  8
A-STAR-1
 10
-209.500000
 20
-472.000000
 11
-209.500000
 21
-514.000000
  0
LINE
  8
A-STAR-1
 10
-209.500000
 20
-514.000000
 11
-200.500000
 21
-514.000000
  0
LINE
  8
A-STAR-1
 10
-191.500000
 20
-472.000000
 11
-200.500000
 21
-472.000000
  0
LINE
  8
A-STAR-1
 10
-200.500000
 20
-472.000000
 11
-200.500000
 21
-514.000000
  0
LINE
  8
A-STAR-1
 10
-200.500000
 20
-514.000000
 11
-191.500000
 21
-514.000000
  0
LINE
  8
A-STAR-1
 10
-182.500000
 20
-472.000000
 11
-191.500000
 21
-472.000000
  0
LINE
  8
A-STAR-1
 10
-191.500000
 20
-472.000000
 11
-191.500000
 21
-514.000000
  0
LINE
  8
A-STAR-1
 10
-191.500000
 20
-514.000000
 11
-182.500000
 21
-514.000000
  0
LINE
  8
A-STAR-1
 10
-173.500000
 20
-472.000000
 11
-182.500000
 21
-472.000000
  0
LINE
  8
A-STAR-1
 10
-182.500000
 20
-472.000000
 11
-182.500000
 21
-514.000000
  0
LINE
  8
A-STAR-1
 10
-182.500000
 20
-514.000000
 11
-173.500000
 21
-514.000000
  0
LINE
  8
A-STAR-1
 10
-173.500000
 20
-472.000000
 11
-173.500000
 21
-514.000000
  0
INSERT
  8
A-CASE-1
  2
FIXT-Toilet
 10
8.019364
 20
-418.000000
 41
1.000000
 42
1.071429
 43
 1.0
 50
-90.000000
  0
INSERT
  8
A-CASE-1
  2
FIXT-OvalFree
 10
-17.421699
 20
-449.034375
 41
1.000000
 42
1.000000
 43
 1.0
 50
-180.000000
  0
INSERT
  8
A-CASE-1
  2
FIXT-fire3618
 10
-274.017510
 20
-363.107800
 41
1.000000
 42
0.857143
 43
 1.0
 50
-270.000000
  0
INSERT
  8
A-CASE-1
  2
FIXT-fire3618
 10
-20.108852
 20
-94.979571
 41
1.000000
 42
1.000000
 43
 1.0
 50
0.000000
  0
LINE
  8
A-CASE-1
 10
10.790252
 20
-99.000000
 11
10.790252
 21
-121.000000
  0
LINE
  8
A-CASE-1
 10
-51.209748
 20
-121.000000
 11
-51.209748
 21
-99.000000
  0
LINE
  8
A-CASE-1
 10
10.790252
 20
-121.000000
 11
-51.209748
 21
-121.000000
  0
LINE
  8
A-CASE-1
 10
-15.209748
 20
-116.000000
 11
-20.209748
 21
-121.000000
  0
LINE
  8
A-CASE-1
 10
-25.209748
 20
-116.000000
 11
-20.209748
 21
-121.000000
  0
TEXT
  8
A-NOTE-1
 10
0.214745
 20
-558.668460
 40
4.251636
  1
LANDING
  7
STANDARD
  0
TEXT
  8
A-NOTE-1
 10
8.021402
 20
-564.887217
 40
3.129042
  1
4' x 2'2
  7
STANDARD
  0
TEXT
  8
A-NOTE-1
 10
90.505267
 20
-350.838778
 40
9.448080
  1
KITCHEN
  7
STANDARD
  0
TEXT
  8
A-NOTE-1
 10
102.453797
 20
-363.974998
 40
7.152095
  1
28' x 13'
  7
STANDARD
  0
TEXT
  8
A-NOTE-1
 10
-241.437980
 20
-370.282236
 40
9.448080
  1
LIVING ROOM
  7
STANDARD
  0
TEXT
  8
A-NOTE-1
 10
-216.719909
 20
-383.418455
 40
7.152095
  1
13' x 17'5
  7
STANDARD
  0
TEXT
  8
A-NOTE-1
 10
68.310454
 20
-671.010077
 40
9.448080
  1
GARAGE
  7
STANDARD
  0
TEXT
  8
A-NOTE-1
 10
76.484727
 20
-684.146296
 40
7.152095
  1
22' x 22'4
  7
STANDARD
  0
TEXT
  8
A-NOTE-1
 10
-89.904701
 20
-888.810100
 40
9.448080
  1
LIVING AREA
  7
STANDARD
  0
TEXT
  8
A-NOTE-1
 10
-69.406856
 20
-901.946319
 40
7.152095
  1
1748 sq ft
  7
STANDARD
  0
TEXT
  8
A-NOTE-1
 10
85.641201
 20
-502.810100
 40
9.448080
  1
DINING ROOM
  7
STANDARD
  0
TEXT
  8
A-NOTE-1
 10
112.056073
 20
-515.946319
 40
7.152095
  1
15'4 x 12'
  7
STANDARD
  0
TEXT
  8
A-NOTE-1
 10
43.350545
 20
-403.240469
 40
3.306828
  1
CHASE
  7
STANDARD
  0
TEXT
  8
A-NOTE-1
 10
46.527165
 20
-408.557079
 40
2.682036
  1
1'7 x 2'
  7
STANDARD
  0
TEXT
  8
A-NOTE-1
 10
-227.219853
 20
-532.670206
 40
5.196444
  1
OPEN ABOVE
  7
STANDARD
  0
TEXT
  8
A-NOTE-1
 10
-214.908707
 20
-540.349869
 40
4.023053
  1
8'1 x 10'10
  7
STANDARD
  0
TEXT
  8
A-NOTE-1
 10
-78.458781
 20
-245.155565
 40
9.448080
  1
FAMILY ROOM
  7
STANDARD
  0
TEXT
  8
A-NOTE-1
 10
-48.905951
 20
-258.291784
 40
7.152095
  1
15' x 20'
  7
STANDARD
  0
TEXT
  8
A-NOTE-1
 10
-133.805915
 20
-750.793544
 40
9.448080
  1
PORCH
  7
STANDARD
  0
TEXT
  8
A-NOTE-1
 10
-124.446128
 20
-763.929763
 40
7.152095
  1
11' x 4'
  7
STANDARD
  0
TEXT
  8
A-NOTE-1
 10
-36.038570
 20
-594.228392
 40
3.306828
  1
CLOSET
  7
STANDARD
  0
TEXT
  8
A-NOTE-1
 10
-31.326750
 20
-599.545002
 40
2.682036
  1
2' x 5'8
  7
STANDARD
  0
TEXT
  8
A-NOTE-1
 10
-241.603201
 20
-633.801868
 40
7.086060
  1
ELEVATOR
  7
STANDARD
  0
TEXT
  8
A-NOTE-1
 10
-229.457946
 20
-643.844582
 40
5.364071
  1
5'10 x 4'6
  7
STANDARD
  0
TEXT
  8
A-NOTE-1
 10
3.431050
 20
-396.608332
 40
3.306828
  1
CLOSET
  7
STANDARD
  0
TEXT
  8
A-NOTE-1
 10
7.777137
 20
-401.924942
 40
2.682036
  1
3'5 x 8"
  7
STANDARD
  0
TEXT
  8
A-NOTE-1
 10
95.716301
 20
-227.310100
 40
9.448080
  1
BREAKFAST
  7
STANDARD
  0
TEXT
  8
A-NOTE-1
 10
109.704359
 20
-240.446319
 40
7.152095
  1
10'10 x 6'10
  7
STANDARD
  0
TEXT
  8
A-NOTE-1
 10
-29.360217
 20
-423.971863
 40
8.030868
  1
BATH
  7
STANDARD
  0
TEXT
  8
A-NOTE-1
 10
-27.260703
 20
-435.475481
 40
6.258083
  1
6' x 5'5
  7
STANDARD
  0
TEXT
  8
A-NOTE-1
 10
-274.863413
 20
-740.843664
 40
9.448080
  1
STUDY
  7
STANDARD
  0
TEXT
  8
A-NOTE-1
 10
-275.977998
 20
-753.979883
 40
7.152095
  1
11'8 x 15'5
  7
STANDARD
  0
TEXT
  8
A-NOTE-1
 10
-24.232882
 20
-487.579295
 40
8.030868
  1
HALL
  7
STANDARD
  0
TEXT
  8
A-NOTE-1
 10
-23.405969
 20
-499.082914
 40
6.258083
  1
6' x 5'7
  7
STANDARD
  0
TEXT
  8
A-NOTE-1
 10
-128.151867
 20
-582.956906
 40
9.448080
  1
FOYER
  7
STANDARD
  0
TEXT
  8
A-NOTE-1
 10
-129.054351
 20
-596.093126
 40
7.152095
  1
10'8 x 25'4
  7
STANDARD
  0
LINE
  8
A-STAR-2
 10
-219.000000
 20
-601.500000
 11
-210.000000
 21
-601.500000
  0
LINE
  8
A-STAR-2
 10
-210.000000
 20
-601.500000
 11
-210.000000
 21
-559.500000
  0
LINE
  8
A-STAR-2
 10
-210.000000
 20
-559.500000
 11
-219.000000
 21
-559.500000
  0
LINE
  8
A-STAR-2
 10
-228.000000
 20
-601.500000
 11
-219.000000
 21
-601.500000
  0
LINE
  8
A-STAR-2
 10
-219.000000
 20
-601.500000
 11
-219.000000
 21
-559.500000
  0
LINE
  8
A-STAR-2
 10
-219.000000
 20
-559.500000
 11
-228.000000
 21
-559.500000
  0
LINE
  8
A-STAR-2
 10
-228.000000
 20
-601.500000
 11
-228.000000
 21
-559.500000
  0
LINE
  8
A-STAR-2
 10
-228.000000
 20
-559.000000
 11
-228.000000
 21
-602.000000
  0
LINE
  8
A-STAR-2
 10
-228.000000
 20
-602.000000
 11
-270.000000
 21
-602.000000
  0
LINE
  8
A-STAR-2
 10
-270.000000
 20
-602.000000
 11
-270.000000
 21
-559.000000
  0
LINE
  8
A-STAR-2
 10
-270.000000
 20
-559.000000
 11
-228.000000
 21
-559.000000
  0
LINE
  8
A-STAR-2
 10
-270.000000
 20
-550.000000
 11
-270.000000
 21
-559.000000
  0
LINE
  8
A-STAR-2
 10
-270.000000
 20
-559.000000
 11
-228.000000
 21
-559.000000
  0
LINE
  8
A-STAR-2
 10
-228.000000
 20
-559.000000
 11
-228.000000
 21
-550.000000
  0
LINE
  8
A-STAR-2
 10
-270.000000
 20
-541.000000
 11
-270.000000
 21
-550.000000
  0
LINE
  8
A-STAR-2
 10
-270.000000
 20
-550.000000
 11
-228.000000
 21
-550.000000
  0
LINE
  8
A-STAR-2
 10
-228.000000
 20
-550.000000
 11
-228.000000
 21
-541.000000
  0
LINE
  8
A-STAR-2
 10
-270.000000
 20
-532.000000
 11
-270.000000
 21
-541.000000
  0
LINE
  8
A-STAR-2
 10
-270.000000
 20
-541.000000
 11
-228.000000
 21
-541.000000
  0
LINE
  8
A-STAR-2
 10
-228.000000
 20
-541.000000
 11
-228.000000
 21
-532.000000
  0
LINE
  8
A-STAR-2
 10
-270.000000
 20
-523.000000
 11
-270.000000
 21
-532.000000
  0
LINE
  8
A-STAR-2
 10
-270.000000
 20
-532.000000
 11
-228.000000
 21
-532.000000
  0
LINE
  8
A-STAR-2
 10
-228.000000
 20
-532.000000
 11
-228.000000
 21
-523.000000
  0
LINE
  8
A-STAR-2
 10
-270.000000
 20
-514.000000
 11
-270.000000
 21
-523.000000
  0
LINE
  8
A-STAR-2
 10
-270.000000
 20
-523.000000
 11
-228.000000
 21
-523.000000
  0
LINE
  8
A-STAR-2
 10
-228.000000
 20
-523.000000
 11
-228.000000
 21
-514.000000
  0
LINE
  8
A-STAR-2
 10
-270.000000
 20
-514.000000
 11
-228.000000
 21
-514.000000
  0
LINE
  8
A-STAR-2
 10
-227.500000
 20
-514.000000
 11
-270.000000
 21
-514.000000
  0
LINE
  8
A-STAR-2
 10
-270.000000
 20
-514.000000
 11
-270.000000
 21
-472.000000
  0
LINE
  8
A-STAR-2
 10
-270.000000
 20
-472.000000
 11
-227.500000
 21
-472.000000
  0
LINE
  8
A-STAR-2
 10
-227.500000
 20
-472.000000
 11
-227.500000
 21
-514.000000
  0
LINE
  8
A-STAR-2
 10
-218.500000
 20
-472.000000
 11
-227.500000
 21
-472.000000
  0
LINE
  8
A-STAR-2
 10
-227.500000
 20
-472.000000
 11
-227.500000
 21
-514.000000
  0
LINE
  8
A-STAR-2
 10
-227.500000
 20
-514.000000
 11
-218.500000
 21
-514.000000
  0
LINE
  8
A-STAR-2
 10
-209.500000
 20
-472.000000
 11
-218.500000
 21
-472.000000
  0
LINE
  8
A-STAR-2
 10
-218.500000
 20
-472.000000
 11
-218.500000
 21
-514.000000
  0
LINE
  8
A-STAR-2
 10
-218.500000
 20
-514.000000
 11
-209.500000
 21
-514.000000
  0
LINE
  8
A-STAR-2
 10
-200.500000
 20
-472.000000
 11
-209.500000
 21
-472.000000
  0
LINE
  8
A-STAR-2
 10
-209.500000
 20
-472.000000
 11
-209.500000
 21
-514.000000
  0
LINE
  8
A-STAR-2
 10
-209.500000
 20
-514.000000
 11
-200.500000
 21
-514.000000
  0
LINE
  8
A-STAR-2
 10
-191.500000
 20
-472.000000
 11
-200.500000
 21
-472.000000
  0
LINE
  8
A-STAR-2
 10
-200.500000
 20
-472.000000
 11
-200.500000
 21
-514.000000
  0
LINE
  8
A-STAR-2
 10
-200.500000
 20
-514.000000
 11
-191.500000
 21
-514.000000
  0
LINE
  8
A-STAR-2
 10
-182.500000
 20
-472.000000
 11
-191.500000
 21
-472.000000
  0
LINE
  8
A-STAR-2
 10
-191.500000
 20
-472.000000
 11
-191.500000
 21
-514.000000
  0
LINE
  8
A-STAR-2
 10
-191.500000
 20
-514.000000
 11
-182.500000
 21
-514.000000
  0
LINE
  8
A-STAR-2
 10
-173.500000
 20
-472.000000
 11
-182.500000
 21
-472.000000
  0
LINE
  8
A-STAR-2
 10
-182.500000
 20
-472.000000
 11
-182.500000
 21
-514.000000
  0
LINE
  8
A-STAR-2
 10
-182.500000
 20
-514.000000
 11
-173.500000
 21
-514.000000
  0
LINE
  8
A-STAR-2
 10
-173.500000
 20
-472.000000
 11
-173.500000
 21
-514.000000
  0
TEXT
  8
A-POWR-2
 10
-187.401143
 20
-495.952525
 40
4.251636
  1
DN
  7
STANDARD
  0
LINE
  8
A-STAR-2
 10
-192.500000
 20
-493.000000
 11
-217.500000
 21
-493.000000
  0
LINE
  8
A-STAR-2
 10
-173.500000
 20
-472.000000
 11
-173.500000
 21
-514.000000
  0
LINE
  8
A-WALL-2
 10
-242.000000
 20
-255.000000
 11
-274.000000
 21
-255.000000
  0
LINE
  8
A-WALL-2
 10
-270.000000
 20
-259.000000
 11
-242.000000
 21
-259.000000
  0
LINE
  8
A-WALL-2
 10
-142.000000
 20
-259.000000
 11
-102.000000
 21
-259.000000
  0
LINE
  8
A-WALL-2
 10
-84.000000
 20
-255.000000
 11
-142.000000
 21
-255.000000
  0
LINE
  8
A-WALL-2
 10
-98.000000
 20
-259.000000
 11
-84.000000
 21
-259.000000
  0
LINE
  8
A-WALL-2
 10
16.000000
 20
-255.000000
 11
-56.000000
 21
-255.000000
  0
LINE
  8
A-WALL-2
 10
-56.000000
 20
-259.000000
 11
16.000000
 21
-259.000000
  0
LINE
  8
A-WALL-2
 10
44.000000
 20
-259.000000
 11
54.000000
 21
-259.000000
  0
LINE
  8
A-WALL-2
 10
58.000000
 20
-259.000000
 11
94.000000
 21
-259.000000
  0
LINE
  8
A-WALL-2
 10
188.000000
 20
-255.000000
 11
44.000000
 21
-255.000000
  0
LINE
  8
A-WALL-2
 10
98.000000
 20
-259.000000
 11
188.000000
 21
-259.000000
  0
LINE
  8
A-WALL-2
 10
230.000000
 20
-255.000000
 11
220.000000
 21
-255.000000
  0
LINE
  8
A-WALL-2
 10
220.000000
 20
-259.000000
 11
226.000000
 21
-259.000000
  0
LINE
  8
A-GLAZ-2
 10
-210.000000
 20
-255.000000
 11
-210.000000
 21
-259.000000
  0
LINE
  8
A-GLAZ-2
 10
-242.000000
 20
-259.000000
 11
-242.000000
 21
-255.000000
  0
LINE
  8
A-GLAZ-2
 10
-242.000000
 20
-259.000000
 11
-210.000000
 21
-259.000000
  0
LINE
  8
A-GLAZ-2
 10
-210.000000
 20
-255.000000
 11
-242.000000
 21
-255.000000
  0
LINE
  8
A-GLAZ-2
 10
-210.000000
 20
-257.000000
 11
-242.000000
 21
-257.000000
  0
TEXT
  8
A-DIMS-2
 10
-235.509035
 20
-250.523689
 40
5.527127
  1
2852
  7
STANDARD
  0
LINE
  8
A-GLAZ-2
 10
-176.000000
 20
-255.000000
 11
-176.000000
 21
-259.000000
  0
LINE
  8
A-GLAZ-2
 10
-208.000000
 20
-259.000000
 11
-208.000000
 21
-255.000000
  0
LINE
  8
A-GLAZ-2
 10
-208.000000
 20
-255.000000
 11
-210.000000
 21
-255.000000
  0
LINE
  8
A-GLAZ-2
 10
-208.000000
 20
-259.000000
 11
-210.000000
 21
-259.000000
  0
LINE
  8
A-GLAZ-2
 10
-208.000000
 20
-259.000000
 11
-176.000000
 21
-259.000000
  0
LINE
  8
A-GLAZ-2
 10
-176.000000
 20
-255.000000
 11
-208.000000
 21
-255.000000
  0
LINE
  8
A-GLAZ-2
 10
-176.000000
 20
-257.000000
 11
-208.000000
 21
-257.000000
  0
TEXT
  8
A-DIMS-2
 10
-201.509035
 20
-250.523689
 40
5.527127
  1
2852
  7
STANDARD
  0
LINE
  8
A-GLAZ-2
 10
-142.000000
 20
-255.000000
 11
-142.000000
 21
-259.000000
  0
LINE
  8
A-GLAZ-2
 10
-174.000000
 20
-259.000000
 11
-174.000000
 21
-255.000000
  0
LINE
  8
A-GLAZ-2
 10
-174.000000
 20
-255.000000
 11
-176.000000
 21
-255.000000
  0
LINE
  8
A-GLAZ-2
 10
-174.000000
 20
-259.000000
 11
-176.000000
 21
-259.000000
  0
LINE
  8
A-GLAZ-2
 10
-174.000000
 20
-259.000000
 11
-142.000000
 21
-259.000000
  0
LINE
  8
A-GLAZ-2
 10
-142.000000
 20
-255.000000
 11
-174.000000
 21
-255.000000
  0
LINE
  8
A-GLAZ-2
 10
-142.000000
 20
-257.000000
 11
-174.000000
 21
-257.000000
  0
TEXT
  8
A-DIMS-2
 10
-167.509035
 20
-250.523689
 40
5.527127
  1
2852
  7
STANDARD
  0
LINE
  8
A-GLAZ-2
 10
-56.000000
 20
-255.000000
 11
-56.000000
 21
-259.000000
  0
LINE
  8
A-GLAZ-2
 10
-84.000000
 20
-259.000000
 11
-84.000000
 21
-255.000000
  0
LINE
  8
A-GLAZ-2
 10
-84.000000
 20
-259.000000
 11
-56.000000
 21
-259.000000
  0
LINE
  8
A-GLAZ-2
 10
-56.000000
 20
-255.000000
 11
-84.000000
 21
-255.000000
  0
LINE
  8
A-GLAZ-2
 10
-56.000000
 20
-257.000000
 11
-84.000000
 21
-257.000000
  0
TEXT
  8
A-DIMS-2
 10
-79.509035
 20
-250.523689
 40
5.527127
  1
2424
  7
STANDARD
  0
LINE
  8
A-GLAZ-2
 10
44.000000
 20
-255.000000
 11
44.000000
 21
-259.000000
  0
LINE
  8
A-GLAZ-2
 10
16.000000
 20
-259.000000
 11
16.000000
 21
-255.000000
  0
LINE
  8
A-GLAZ-2
 10
16.000000
 20
-259.000000
 11
44.000000
 21
-259.000000
  0
LINE
  8
A-GLAZ-2
 10
44.000000
 20
-255.000000
 11
16.000000
 21
-255.000000
  0
LINE
  8
A-GLAZ-2
 10
44.000000
 20
-257.000000
 11
16.000000
 21
-257.000000
  0
TEXT
  8
A-DIMS-2
 10
20.490965
 20
-250.523689
 40
5.527127
  1
2424
  7
STANDARD
  0
LINE
  8
A-GLAZ-2
 10
220.000000
 20
-255.000000
 11
220.000000
 21
-259.000000
  0
LINE
  8
A-GLAZ-2
 10
188.000000
 20
-259.000000
 11
188.000000
 21
-255.000000
  0
LINE
  8
A-GLAZ-2
 10
188.000000
 20
-259.000000
 11
220.000000
 21
-259.000000
  0
LINE
  8
A-GLAZ-2
 10
220.000000
 20
-255.000000
 11
188.000000
 21
-255.000000
  0
LINE
  8
A-GLAZ-2
 10
220.000000
 20
-257.000000
 11
188.000000
 21
-257.000000
  0
TEXT
  8
A-DIMS-2
 10
194.490965
 20
-250.523689
 40
5.527127
  1
2842
  7
STANDARD
  0
LINE
  8
A-WALL-2
 10
230.000000
 20
-268.000000
 11
230.000000
 21
-255.000000
  0
LINE
  8
A-WALL-2
 10
226.000000
 20
-259.000000
 11
226.000000
 21
-268.000000
  0
LINE
  8
A-WALL-2
 10
226.000000
 20
-334.000000
 11
226.000000
 21
-349.000000
  0
LINE
  8
A-WALL-2
 10
230.000000
 20
-370.000000
 11
230.000000
 21
-334.000000
  0
LINE
  8
A-WALL-2
 10
226.000000
 20
-353.000000
 11
226.000000
 21
-370.000000
  0
LINE
  8
A-WALL-2
 10
226.000000
 20
-398.000000
 11
226.000000
 21
-416.000000
  0
LINE
  8
A-WALL-2
 10
226.000000
 20
-420.000000
 11
226.000000
 21
-474.000000
  0
LINE
  8
A-WALL-2
 10
230.000000
 20
-511.000000
 11
230.000000
 21
-398.000000
  0
LINE
  8
A-WALL-2
 10
226.000000
 20
-478.000000
 11
226.000000
 21
-511.000000
  0
LINE
  8
A-WALL-2
 10
226.000000
 20
-577.000000
 11
226.000000
 21
-610.000000
  0
LINE
  8
A-WALL-2
 10
230.000000
 20
-692.000000
 11
230.000000
 21
-577.000000
  0
LINE
  8
A-WALL-2
 10
226.000000
 20
-614.000000
 11
226.000000
 21
-692.000000
  0
LINE
  8
A-WALL-2
 10
230.000000
 20
-762.000000
 11
230.000000
 21
-720.000000
  0
LINE
  8
A-WALL-2
 10
226.000000
 20
-720.000000
 11
226.000000
 21
-758.000000
  0
LINE
  8
A-GLAZ-2
 10
230.000000
 20
-300.000000
 11
226.000000
 21
-300.000000
  0
LINE
  8
A-GLAZ-2
 10
226.000000
 20
-268.000000
 11
230.000000
 21
-268.000000
  0
LINE
  8
A-GLAZ-2
 10
226.000000
 20
-268.000000
 11
226.000000
 21
-300.000000
  0
LINE
  8
A-GLAZ-2
 10
230.000000
 20
-300.000000
 11
230.000000
 21
-268.000000
  0
LINE
  8
A-GLAZ-2
 10
228.000000
 20
-300.000000
 11
228.000000
 21
-268.000000
  0
TEXT
  8
A-DIMS-2
 10
239.759109
 20
-293.509035
 40
5.527127
  1
2842
 50
90.000000
  7
STANDARD
  0
LINE
  8
A-GLAZ-2
 10
230.000000
 20
-334.000000
 11
226.000000
 21
-334.000000
  0
LINE
  8
A-GLAZ-2
 10
226.000000
 20
-302.000000
 11
230.000000
 21
-302.000000
  0
LINE
  8
A-GLAZ-2
 10
230.000000
 20
-302.000000
 11
230.000000
 21
-300.000000
  0
LINE
  8
A-GLAZ-2
 10
226.000000
 20
-302.000000
 11
226.000000
 21
-300.000000
  0
LINE
  8
A-GLAZ-2
 10
226.000000
 20
-302.000000
 11
226.000000
 21
-334.000000
  0
LINE
  8
A-GLAZ-2
 10
230.000000
 20
-334.000000
 11
230.000000
 21
-302.000000
  0
LINE
  8
A-GLAZ-2
 10
228.000000
 20
-334.000000
 11
228.000000
 21
-302.000000
  0
TEXT
  8
A-DIMS-2
 10
239.759109
 20
-327.509035
 40
5.527127
  1
2842
 50
90.000000
  7
STANDARD
  0
LINE
  8
A-GLAZ-2
 10
230.000000
 20
-398.000000
 11
226.000000
 21
-398.000000
  0
LINE
  8
A-GLAZ-2
 10
226.000000
 20
-370.000000
 11
230.000000
 21
-370.000000
  0
LINE
  8
A-GLAZ-2
 10
226.000000
 20
-370.000000
 11
226.000000
 21
-398.000000
  0
LINE
  8
A-GLAZ-2
 10
230.000000
 20
-398.000000
 11
230.000000
 21
-370.000000
  0
LINE
  8
A-GLAZ-2
 10
228.000000
 20
-398.000000
 11
228.000000
 21
-370.000000
  0
TEXT
  8
A-DIMS-2
 10
239.759109
 20
-393.509035
 40
5.527127
  1
2432
 50
90.000000
  7
STANDARD
  0
LINE
  8
A-GLAZ-2
 10
230.000000
 20
-543.000000
 11
226.000000
 21
-543.000000
  0
LINE
  8
A-GLAZ-2
 10
226.000000
 20
-511.000000
 11
230.000000
 21
-511.000000
  0
LINE
  8
A-GLAZ-2
 10
226.000000
 20
-511.000000
 11
226.000000
 21
-543.000000
  0
LINE
  8
A-GLAZ-2
 10
230.000000
 20
-543.000000
 11
230.000000
 21
-511.000000
  0
LINE
  8
A-GLAZ-2
 10
228.000000
 20
-543.000000
 11
228.000000
 21
-511.000000
  0
TEXT
  8
A-DIMS-2
 10
239.759109
 20
-536.509035
 40
5.527127
  1
2852
 50
90.000000
  7
STANDARD
  0
LINE
  8
A-GLAZ-2
 10
230.000000
 20
-577.000000
 11
226.000000
 21
-577.000000
  0
LINE
  8
A-GLAZ-2
 10
226.000000
 20
-545.000000
 11
230.000000
 21
-545.000000
  0
LINE
  8
A-GLAZ-2
 10
230.000000
 20
-545.000000
 11
230.000000
 21
-543.000000
  0
LINE
  8
A-GLAZ-2
 10
226.000000
 20
-545.000000
 11
226.000000
 21
-543.000000
  0
LINE
  8
A-GLAZ-2
 10
226.000000
 20
-545.000000
 11
226.000000
 21
-577.000000
  0
LINE
  8
A-GLAZ-2
 10
230.000000
 20
-577.000000
 11
230.000000
 21
-545.000000
  0
LINE
  8
A-GLAZ-2
 10
228.000000
 20
-577.000000
 11
228.000000
 21
-545.000000
  0
TEXT
  8
A-DIMS-2
 10
239.759109
 20
-570.509035
 40
5.527127
  1
2852
 50
90.000000
  7
STANDARD
  0
LINE
  8
A-GLAZ-2
 10
230.000000
 20
-720.000000
 11
226.000000
 21
-720.000000
  0
LINE
  8
A-GLAZ-2
 10
226.000000
 20
-692.000000
 11
230.000000
 21
-692.000000
  0
LINE
  8
A-GLAZ-2
 10
226.000000
 20
-692.000000
 11
226.000000
 21
-720.000000
  0
LINE
  8
A-GLAZ-2
 10
230.000000
 20
-720.000000
 11
230.000000
 21
-692.000000
  0
LINE
  8
A-GLAZ-2
 10
228.000000
 20
-720.000000
 11
228.000000
 21
-692.000000
  0
TEXT
  8
A-DIMS-2
 10
239.759109
 20
-715.509035
 40
5.527127
  1
2432
 50
90.000000
  7
STANDARD
  0
LINE
  8
A-WALL-2
 10
-270.000000
 20
-280.000000
 11
-270.000000
 21
-259.000000
  0
LINE
  8
A-WALL-2
 10
-274.000000
 20
-255.000000
 11
-274.000000
 21
-280.000000
  0
LINE
  8
A-WALL-2
 10
-270.000000
 20
-416.000000
 11
-270.000000
 21
-312.000000
  0
LINE
  8
A-WALL-2
 10
-274.000000
 20
-312.000000
 11
-274.000000
 21
-416.000000
  0
LINE
  8
A-WALL-2
 10
-270.000000
 20
-468.000000
 11
-270.000000
 21
-448.000000
  0
LINE
  8
A-WALL-2
 10
-270.000000
 20
-603.000000
 11
-270.000000
 21
-472.000000
  0
LINE
  8
A-WALL-2
 10
-274.000000
 20
-448.000000
 11
-274.000000
 21
-607.000000
  0
LINE
  8
A-GLAZ-2
 10
-274.000000
 20
-280.000000
 11
-270.000000
 21
-280.000000
  0
LINE
  8
A-GLAZ-2
 10
-270.000000
 20
-312.000000
 11
-274.000000
 21
-312.000000
  0
LINE
  8
A-GLAZ-2
 10
-270.000000
 20
-312.000000
 11
-270.000000
 21
-280.000000
  0
LINE
  8
A-GLAZ-2
 10
-274.000000
 20
-280.000000
 11
-274.000000
 21
-312.000000
  0
LINE
  8
A-GLAZ-2
 10
-272.000000
 20
-280.000000
 11
-272.000000
 21
-312.000000
  0
TEXT
  8
A-DIMS-2
 10
-278.476311
 20
-305.509035
 40
5.527127
  1
2852
 50
90.000000
  7
STANDARD
  0
LINE
  8
A-GLAZ-2
 10
-274.000000
 20
-416.000000
 11
-270.000000
 21
-416.000000
  0
LINE
  8
A-GLAZ-2
 10
-270.000000
 20
-448.000000
 11
-274.000000
 21
-448.000000
  0
LINE
  8
A-GLAZ-2
 10
-270.000000
 20
-448.000000
 11
-270.000000
 21
-416.000000
  0
LINE
  8
A-GLAZ-2
 10
-274.000000
 20
-416.000000
 11
-274.000000
 21
-448.000000
  0
LINE
  8
A-GLAZ-2
 10
-272.000000
 20
-416.000000
 11
-272.000000
 21
-448.000000
  0
TEXT
  8
A-DIMS-2
 10
-278.476311
 20
-441.509035
 40
5.527127
  1
2852
 50
90.000000
  7
STANDARD
  0
LINE
  8
A-WALL-2
 10
-274.000000
 20
-607.000000
 11
-252.000000
 21
-607.000000
  0
LINE
  8
A-WALL-2
 10
-248.000000
 20
-607.000000
 11
-178.000000
 21
-607.000000
  0
LINE
  8
A-WALL-2
 10
-163.500000
 20
-603.000000
 11
-270.000000
 21
-603.000000
  0
LINE
  8
A-WALL-2
 10
-174.000000
 20
-607.000000
 11
-163.500000
 21
-607.000000
  0
LINE
  8
A-WALL-2
 10
-122.000000
 20
-603.000000
 11
-125.500000
 21
-603.000000
  0
LINE
  8
A-WALL-2
 10
-98.000000
 20
-603.000000
 11
-118.000000
 21
-603.000000
  0
LINE
  8
A-WALL-2
 10
-90.000000
 20
-603.000000
 11
-94.000000
 21
-603.000000
  0
LINE
  8
A-WALL-2
 10
-125.500000
 20
-607.000000
 11
-90.000000
 21
-607.000000
  0
LINE
  8
A-WALL-2
 10
-52.000000
 20
-607.000000
 11
-42.000000
 21
-607.000000
  0
LINE
  8
A-WALL-2
 10
-38.000000
 20
-607.000000
 11
-14.000000
 21
-607.000000
  0
LINE
  8
A-WALL-2
 10
8.000000
 20
-603.000000
 11
-52.000000
 21
-603.000000
  0
LINE
  8
A-WALL-2
 10
-10.000000
 20
-607.000000
 11
8.000000
 21
-607.000000
  0
LINE
  8
A-GLAZ-2
 10
-163.500000
 20
-603.000000
 11
-163.500000
 21
-607.000000
  0
LINE
  8
A-GLAZ-2
 10
-125.500000
 20
-603.000000
 11
-125.500000
 21
-607.000000
  0
LINE
  8
A-GLAZ-2
 10
-125.500000
 20
-607.000000
 11
-125.500000
 21
-645.000000
  0
LINE
  8
A-GLAZ-2
 10
-126.875000
 20
-645.000000
 11
-126.875000
 21
-607.000000
  0
LINE
  8
A-GLAZ-2
 10
-126.875000
 20
-607.000000
 11
-125.500000
 21
-607.000000
  0
ARC
  8
A-GLAZ-2
 10
-125.500000
 20
-607.000000
 40
38.000000
 50
180.000000
 51
270.000000
  0
TEXT
  8
A-DIMS-2
 10
-154.009035
 20
-607.641399
 40
5.527127
  1
3268
  7
STANDARD
  0
LINE
  8
A-GLAZ-2
 10
-90.000000
 20
-603.000000
 11
-90.000000
 21
-607.000000
  0
LINE
  8
A-GLAZ-2
 10
-52.000000
 20
-603.000000
 11
-52.000000
 21
-607.000000
  0
LINE
  8
A-GLAZ-2
 10
-90.000000
 20
-603.000000
 11
-90.000000
 21
-565.000000
  0
LINE
  8
A-GLAZ-2
 10
-88.625000
 20
-565.000000
 11
-88.625000
 21
-603.000000
  0
LINE
  8
A-GLAZ-2
 10
-88.625000
 20
-603.000000
 11
-90.000000
 21
-603.000000
  0
ARC
  8
A-GLAZ-2
 10
-90.000000
 20
-603.000000
 40
38.000000
 50
0.000000
 51
90.000000
  0
TEXT
  8
A-DIMS-2
 10
-80.509035
 20
-607.641399
 40
5.527127
  1
3268
  7
STANDARD
  0
LINE
  8
A-WALL-2
 10
-200.000000
 20
-771.000000
 11
-200.000000
 21
-665.000000
  0
LINE
  8
A-WALL-2
 10
-204.000000
 20
-665.000000
 11
-204.000000
 21
-775.000000
  0
LINE
  8
A-WALL-2
 10
226.000000
 20
-758.000000
 11
162.000000
 21
-758.000000
  0
LINE
  8
A-WALL-2
 10
154.000000
 20
-762.000000
 11
230.000000
 21
-762.000000
  0
LINE
  8
A-WALL-2
 10
158.000000
 20
-758.000000
 11
154.000000
 21
-758.000000
  0
LINE
  8
A-WALL-2
 10
-10.000000
 20
-762.000000
 11
88.000000
 21
-762.000000
  0
LINE
  8
A-WALL-2
 10
88.000000
 20
-758.000000
 11
-10.000000
 21
-758.000000
  0
LINE
  8
A-GLAZ-2
 10
122.000000
 20
-762.000000
 11
122.000000
 21
-758.000000
  0
LINE
  8
A-GLAZ-2
 10
154.000000
 20
-758.000000
 11
154.000000
 21
-762.000000
  0
LINE
  8
A-GLAZ-2
 10
154.000000
 20
-758.000000
 11
122.000000
 21
-758.000000
  0
LINE
  8
A-GLAZ-2
 10
122.000000
 20
-762.000000
 11
154.000000
 21
-762.000000
  0
LINE
  8
A-GLAZ-2
 10
122.000000
 20
-760.000000
 11
154.000000
 21
-760.000000
  0
TEXT
  8
A-DIMS-2
 10
128.490965
 20
-771.759109
 40
5.527127
  1
2852
  7
STANDARD
  0
LINE
  8
A-GLAZ-2
 10
88.000000
 20
-762.000000
 11
88.000000
 21
-758.000000
  0
LINE
  8
A-GLAZ-2
 10
120.000000
 20
-758.000000
 11
120.000000
 21
-762.000000
  0
LINE
  8
A-GLAZ-2
 10
120.000000
 20
-762.000000
 11
122.000000
 21
-762.000000
  0
LINE
  8
A-GLAZ-2
 10
120.000000
 20
-758.000000
 11
122.000000
 21
-758.000000
  0
LINE
  8
A-GLAZ-2
 10
120.000000
 20
-758.000000
 11
88.000000
 21
-758.000000
  0
LINE
  8
A-GLAZ-2
 10
88.000000
 20
-762.000000
 11
120.000000
 21
-762.000000
  0
LINE
  8
A-GLAZ-2
 10
88.000000
 20
-760.000000
 11
120.000000
 21
-760.000000
  0
TEXT
  8
A-DIMS-2
 10
94.490965
 20
-771.759109
 40
5.527127
  1
2852
  7
STANDARD
  0
LINE
  8
A-WALL-2
 10
-158.000000
 20
-771.000000
 11
-200.000000
 21
-771.000000
  0
LINE
  8
A-WALL-2
 10
-204.000000
 20
-775.000000
 11
-158.000000
 21
-775.000000
  0
LINE
  8
A-WALL-2
 10
-42.000000
 20
-771.000000
 11
-58.000000
 21
-771.000000
  0
LINE
  8
A-WALL-2
 10
-14.000000
 20
-771.000000
 11
-38.000000
 21
-771.000000
  0
LINE
  8
A-WALL-2
 10
-58.000000
 20
-775.000000
 11
-10.000000
 21
-775.000000
  0
LINE
  8
A-GLAZ-2
 10
-158.000000
 20
-775.000000
 11
-158.000000
 21
-771.000000
  0
LINE
  8
A-GLAZ-2
 10
-126.000000
 20
-771.000000
 11
-126.000000
 21
-775.000000
  0
LINE
  8
A-GLAZ-2
 10
-126.000000
 20
-775.000000
 11
-124.000000
 21
-775.000000
  0
LINE
  8
A-GLAZ-2
 10
-126.000000
 20
-771.000000
 11
-124.000000
 21
-771.000000
  0
LINE
  8
A-GLAZ-2
 10
-126.000000
 20
-771.000000
 11
-158.000000
 21
-771.000000
  0
LINE
  8
A-GLAZ-2
 10
-158.000000
 20
-775.000000
 11
-126.000000
 21
-775.000000
  0
LINE
  8
A-GLAZ-2
 10
-158.000000
 20
-773.000000
 11
-126.000000
 21
-773.000000
  0
TEXT
  8
A-DIMS-2
 10
-151.509035
 20
-784.759109
 40
5.527127
  1
2852
  7
STANDARD
  0
LINE
  8
A-GLAZ-2
 10
-124.000000
 20
-775.000000
 11
-124.000000
 21
-771.000000
  0
LINE
  8
A-GLAZ-2
 10
-92.000000
 20
-771.000000
 11
-92.000000
 21
-775.000000
  0
LINE
  8
A-GLAZ-2
 10
-92.000000
 20
-775.000000
 11
-90.000000
 21
-775.000000
  0
LINE
  8
A-GLAZ-2
 10
-92.000000
 20
-771.000000
 11
-90.000000
 21
-771.000000
  0
LINE
  8
A-GLAZ-2
 10
-92.000000
 20
-771.000000
 11
-124.000000
 21
-771.000000
  0
LINE
  8
A-GLAZ-2
 10
-124.000000
 20
-775.000000
 11
-92.000000
 21
-775.000000
  0
LINE
  8
A-GLAZ-2
 10
-124.000000
 20
-773.000000
 11
-92.000000
 21
-773.000000
  0
TEXT
  8
A-DIMS-2
 10
-117.509035
 20
-784.759109
 40
5.527127
  1
2852
  7
STANDARD
  0
LINE
  8
A-GLAZ-2
 10
-90.000000
 20
-775.000000
 11
-90.000000
 21
-771.000000
  0
LINE
  8
A-GLAZ-2
 10
-58.000000
 20
-771.000000
 11
-58.000000
 21
-775.000000
  0
LINE
  8
A-GLAZ-2
 10
-58.000000
 20
-771.000000
 11
-90.000000
 21
-771.000000
  0
LINE
  8
A-GLAZ-2
 10
-90.000000
 20
-775.000000
 11
-58.000000
 21
-775.000000
  0
LINE
  8
A-GLAZ-2
 10
-90.000000
 20
-773.000000
 11
-58.000000
 21
-773.000000
  0
TEXT
  8
A-DIMS-2
 10
-83.509035
 20
-784.759109
 40
5.527127
  1
2852
  7
STANDARD
  0
LINE
  8
A-WALL-2
 10
-10.000000
 20
-775.000000
 11
-10.000000
 21
-762.000000
  0
LINE
  8
A-WALL-2
 10
-14.000000
 20
-692.000000
 11
-14.000000
 21
-771.000000
  0
LINE
  8
A-WALL-2
 10
-14.000000
 20
-679.500000
 11
-14.000000
 21
-688.000000
  0
LINE
  8
A-WALL-2
 10
-10.000000
 20
-758.000000
 11
-10.000000
 21
-679.500000
  0
LINE
  8
A-WALL-2
 10
-10.000000
 20
-617.500000
 11
-10.000000
 21
-614.000000
  0
LINE
  8
A-WALL-2
 10
-14.000000
 20
-607.000000
 11
-14.000000
 21
-617.500000
  0
LINE
  8
A-WALL-2
 10
-10.000000
 20
-610.000000
 11
-10.000000
 21
-607.000000
  0
LINE
  8
A-GLAZ-2
 10
-14.000000
 20
-679.500000
 11
-10.000000
 21
-679.500000
  0
LINE
  8
A-GLAZ-2
 10
-14.000000
 20
-617.500000
 11
-10.000000
 21
-617.500000
  0
LINE
  8
A-GLAZ-2
 10
-10.000000
 20
-679.500000
 11
21.000000
 21
-679.500000
  0
LINE
  8
A-GLAZ-2
 10
21.000000
 20
-678.125000
 11
-10.000000
 21
-678.125000
  0
LINE
  8
A-GLAZ-2
 10
-10.000000
 20
-678.125000
 11
-10.000000
 21
-679.500000
  0
ARC
  8
A-GLAZ-2
 10
-10.000000
 20
-679.500000
 40
31.000000
 50
0.000000
 51
90.000000
  0
LINE
  8
A-GLAZ-2
 10
-10.000000
 20
-617.500000
 11
21.000000
 21
-617.500000
  0
LINE
  8
A-GLAZ-2
 10
21.000000
 20
-618.875000
 11
-10.000000
 21
-618.875000
  0
LINE
  8
A-GLAZ-2
 10
-10.000000
 20
-618.875000
 11
-10.000000
 21
-617.500000
  0
ARC
  8
A-GLAZ-2
 10
-10.000000
 20
-617.500000
 40
31.000000
 50
270.000000
 51
0.000000
  0
TEXT
  8
A-DIMS-2
 10
-9.358601
 20
-658.009035
 40
5.527127
  1
5268
 50
90.000000
  7
STANDARD
  0
LINE
  8
A-WALL-2
 10
8.000000
 20
-610.000000
 11
-10.000000
 21
-610.000000
  0
LINE
  8
A-WALL-2
 10
15.000000
 20
-610.000000
 11
12.000000
 21
-610.000000
  0
LINE
  8
A-WALL-2
 10
-10.000000
 20
-614.000000
 11
15.000000
 21
-614.000000
  0
LINE
  8
A-WALL-2
 10
54.000000
 20
-610.000000
 11
51.000000
 21
-610.000000
  0
LINE
  8
A-WALL-2
 10
51.000000
 20
-614.000000
 11
158.000000
 21
-614.000000
  0
LINE
  8
A-WALL-2
 10
166.000000
 20
-610.000000
 11
58.000000
 21
-610.000000
  0
LINE
  8
A-WALL-2
 10
162.000000
 20
-614.000000
 11
166.000000
 21
-614.000000
  0
LINE
  8
A-WALL-2
 10
226.000000
 20
-610.000000
 11
198.000000
 21
-610.000000
  0
LINE
  8
A-WALL-2
 10
198.000000
 20
-614.000000
 11
226.000000
 21
-614.000000
  0
LINE
  8
A-GLAZ-2
 10
15.000000
 20
-610.000000
 11
15.000000
 21
-614.000000
  0
LINE
  8
A-GLAZ-2
 10
51.000000
 20
-610.000000
 11
51.000000
 21
-614.000000
  0
LINE
  8
A-GLAZ-2
 10
15.000000
 20
-614.000000
 11
15.000000
 21
-650.000000
  0
LINE
  8
A-GLAZ-2
 10
16.375000
 20
-650.000000
 11
16.375000
 21
-614.000000
  0
LINE
  8
A-GLAZ-2
 10
16.375000
 20
-614.000000
 11
15.000000
 21
-614.000000
  0
ARC
  8
A-GLAZ-2
 10
15.000000
 20
-614.000000
 40
36.000000
 50
270.000000
 51
0.000000
  0
TEXT
  8
A-DIMS-2
 10
23.490965
 20
-614.641399
 40
5.527127
  1
3068
  7
STANDARD
  0
LINE
  8
A-GLAZ-2
 10
166.000000
 20
-610.000000
 11
166.000000
 21
-614.000000
  0
LINE
  8
A-GLAZ-2
 10
198.000000
 20
-610.000000
 11
198.000000
 21
-614.000000
  0
LINE
  8
A-GLAZ-2
 10
166.000000
 20
-614.000000
 11
166.000000
 21
-646.000000
  0
LINE
  8
A-GLAZ-2
 10
167.375000
 20
-646.000000
 11
167.375000
 21
-614.000000
  0
LINE
  8
A-GLAZ-2
 10
167.375000
 20
-614.000000
 11
166.000000
 21
-614.000000
  0
ARC
  8
A-GLAZ-2
 10
166.000000
 20
-614.000000
 40
32.000000
 50
270.000000
 51
0.000000
  0
TEXT
  8
A-DIMS-2
 10
172.490965
 20
-614.641399
 40
5.527127
  1
2868
  7
STANDARD
  0
LINE
  8
A-WALL-2
 10
162.000000
 20
-694.000000
 11
162.000000
 21
-614.000000
  0
LINE
  8
A-WALL-2
 10
158.000000
 20
-614.000000
 11
158.000000
 21
-694.000000
  0
LINE
  8
A-WALL-2
 10
162.000000
 20
-758.000000
 11
162.000000
 21
-726.000000
  0
LINE
  8
A-WALL-2
 10
158.000000
 20
-726.000000
 11
158.000000
 21
-758.000000
  0
LINE
  8
A-GLAZ-2
 10
162.000000
 20
-694.000000
 11
158.000000
 21
-694.000000
  0
LINE
  8
A-GLAZ-2
 10
162.000000
 20
-726.000000
 11
158.000000
 21
-726.000000
  0
LINE
  8
A-GLAZ-2
 10
162.000000
 20
-726.000000
 11
194.000000
 21
-726.000000
  0
LINE
  8
A-GLAZ-2
 10
194.000000
 20
-724.625000
 11
162.000000
 21
-724.625000
  0
LINE
  8
A-GLAZ-2
 10
162.000000
 20
-724.625000
 11
162.000000
 21
-726.000000
  0
ARC
  8
A-GLAZ-2
 10
162.000000
 20
-726.000000
 40
32.000000
 50
0.000000
 51
90.000000
  0
TEXT
  8
A-DIMS-2
 10
162.641399
 20
-719.509035
 40
5.527127
  1
2868
 50
90.000000
  7
STANDARD
  0
LINE
  8
A-WALL-2
 10
222.000000
 20
-478.000000
 11
226.000000
 21
-478.000000
  0
LINE
  8
A-WALL-2
 10
226.000000
 20
-474.000000
 11
222.000000
 21
-474.000000
  0
LINE
  8
A-WALL-2
 10
190.000000
 20
-474.000000
 11
160.000000
 21
-474.000000
  0
LINE
  8
A-WALL-2
 10
58.000000
 20
-478.000000
 11
190.000000
 21
-478.000000
  0
LINE
  8
A-WALL-2
 10
156.000000
 20
-474.000000
 11
58.000000
 21
-474.000000
  0
LINE
  8
A-GLAZ-2
 10
222.000000
 20
-478.000000
 11
222.000000
 21
-474.000000
  0
LINE
  8
A-GLAZ-2
 10
190.000000
 20
-478.000000
 11
190.000000
 21
-474.000000
  0
LINE
  8
A-GLAZ-2
 10
222.000000
 20
-474.000000
 11
222.000000
 21
-442.000000
  0
LINE
  8
A-GLAZ-2
 10
220.625000
 20
-442.000000
 11
220.625000
 21
-474.000000
  0
LINE
  8
A-GLAZ-2
 10
220.625000
 20
-474.000000
 11
222.000000
 21
-474.000000
  0
ARC
  8
A-GLAZ-2
 10
222.000000
 20
-474.000000
 40
32.000000
 50
90.000000
 51
180.000000
  0
TEXT
  8
A-DIMS-2
 10
196.490965
 20
-478.641399
 40
5.527127
  1
2868
  7
STANDARD
  0
LINE
  8
A-WALL-2
 10
54.000000
 20
-394.000000
 11
54.000000
 21
-418.000000
  0
LINE
  8
A-WALL-2
 10
58.000000
 20
-474.000000
 11
58.000000
 21
-394.000000
  0
LINE
  8
A-WALL-2
 10
54.000000
 20
-422.000000
 11
54.000000
 21
-486.000000
  0
LINE
  8
A-WALL-2
 10
58.000000
 20
-494.000000
 11
58.000000
 21
-478.000000
  0
LINE
  8
A-WALL-2
 10
54.000000
 20
-490.000000
 11
54.000000
 21
-494.000000
  0
LINE
  8
A-WALL-2
 10
58.000000
 20
-610.000000
 11
58.000000
 21
-530.000000
  0
LINE
  8
A-WALL-2
 10
54.000000
 20
-530.000000
 11
54.000000
 21
-610.000000
  0
LINE
  8
A-GLAZ-2
 10
58.000000
 20
-494.000000
 11
54.000000
 21
-494.000000
  0
LINE
  8
A-GLAZ-2
 10
58.000000
 20
-530.000000
 11
54.000000
 21
-530.000000
  0
LINE
  8
A-GLAZ-2
 10
58.000000
 20
-494.000000
 11
94.000000
 21
-494.000000
  0
LINE
  8
A-GLAZ-2
 10
94.000000
 20
-495.375000
 11
58.000000
 21
-495.375000
  0
LINE
  8
A-GLAZ-2
 10
58.000000
 20
-495.375000
 11
58.000000
 21
-494.000000
  0
ARC
  8
A-GLAZ-2
 10
58.000000
 20
-494.000000
 40
36.000000
 50
270.000000
 51
0.000000
  0
TEXT
  8
A-DIMS-2
 10
58.641399
 20
-521.509035
 40
5.527127
  1
3068
 50
90.000000
  7
STANDARD
  0
LINE
  8
A-WALL-2
 10
160.000000
 20
-420.000000
 11
226.000000
 21
-420.000000
  0
LINE
  8
A-WALL-2
 10
226.000000
 20
-416.000000
 11
160.000000
 21
-416.000000
  0
LINE
  8
A-WALL-2
 10
160.000000
 20
-355.500000
 11
160.000000
 21
-353.000000
  0
LINE
  8
A-WALL-2
 10
156.000000
 20
-349.000000
 11
156.000000
 21
-355.500000
  0
LINE
  8
A-WALL-2
 10
156.000000
 20
-387.500000
 11
156.000000
 21
-390.000000
  0
LINE
  8
A-WALL-2
 10
160.000000
 20
-416.000000
 11
160.000000
 21
-387.500000
  0
LINE
  8
A-WALL-2
 10
160.000000
 20
-474.000000
 11
160.000000
 21
-420.000000
  0
LINE
  8
A-WALL-2
 10
156.000000
 20
-394.000000
 11
156.000000
 21
-474.000000
  0
LINE
  8
A-GLAZ-2
 10
160.000000
 20
-355.500000
 11
156.000000
 21
-355.500000
  0
LINE
  8
A-GLAZ-2
 10
160.000000
 20
-387.500000
 11
156.000000
 21
-387.500000
  0
LINE
  8
A-GLAZ-2
 10
160.000000
 20
-355.500000
 11
192.000000
 21
-355.500000
  0
LINE
  8
A-GLAZ-2
 10
192.000000
 20
-356.875000
 11
160.000000
 21
-356.875000
  0
LINE
  8
A-GLAZ-2
 10
160.000000
 20
-356.875000
 11
160.000000
 21
-355.500000
  0
ARC
  8
A-GLAZ-2
 10
160.000000
 20
-355.500000
 40
32.000000
 50
270.000000
 51
0.000000
  0
TEXT
  8
A-DIMS-2
 10
160.641399
 20
-381.009035
 40
5.527127
  1
2868
 50
90.000000
  7
STANDARD
  0
LINE
  8
A-WALL-2
 10
-26.000000
 20
-390.000000
 11
-34.000000
 21
-390.000000
  0
LINE
  8
A-WALL-2
 10
-30.000000
 20
-394.000000
 11
-26.000000
 21
-394.000000
  0
LINE
  8
A-WALL-2
 10
34.000000
 20
-394.000000
 11
38.000000
 21
-394.000000
  0
LINE
  8
A-WALL-2
 10
42.000000
 20
-394.000000
 11
54.000000
 21
-394.000000
  0
LINE
  8
A-WALL-2
 10
60.000000
 20
-390.000000
 11
34.000000
 21
-390.000000
  0
LINE
  8
A-WALL-2
 10
58.000000
 20
-394.000000
 11
60.000000
 21
-394.000000
  0
LINE
  8
A-WALL-2
 10
94.000000
 20
-390.000000
 11
92.000000
 21
-390.000000
  0
LINE
  8
A-WALL-2
 10
156.000000
 20
-390.000000
 11
98.000000
 21
-390.000000
  0
LINE
  8
A-WALL-2
 10
92.000000
 20
-394.000000
 11
156.000000
 21
-394.000000
  0
LINE
  8
A-GLAZ-2
 10
-26.000000
 20
-390.000000
 11
-26.000000
 21
-394.000000
  0
LINE
  8
A-GLAZ-2
 10
34.000000
 20
-390.000000
 11
34.000000
 21
-394.000000
  0
LINE
  8
A-GLAZ-2
 10
34.000000
 20
-390.000000
 11
34.000000
 21
-360.000000
  0
LINE
  8
A-GLAZ-2
 10
32.625000
 20
-360.000000
 11
32.625000
 21
-390.000000
  0
LINE
  8
A-GLAZ-2
 10
32.625000
 20
-390.000000
 11
34.000000
 21
-390.000000
  0
ARC
  8
A-GLAZ-2
 10
34.000000
 20
-390.000000
 40
30.000000
 50
90.000000
 51
180.000000
  0
LINE
  8
A-GLAZ-2
 10
-26.000000
 20
-390.000000
 11
-26.000000
 21
-360.000000
  0
LINE
  8
A-GLAZ-2
 10
-24.625000
 20
-360.000000
 11
-24.625000
 21
-390.000000
  0
LINE
  8
A-GLAZ-2
 10
-24.625000
 20
-390.000000
 11
-26.000000
 21
-390.000000
  0
ARC
  8
A-GLAZ-2
 10
-26.000000
 20
-390.000000
 40
30.000000
 50
0.000000
 51
90.000000
  0
TEXT
  8
A-DIMS-2
 10
-5.509035
 20
-394.641399
 40
5.527127
  1
5068
  7
STANDARD
  0
LINE
  8
A-GLAZ-2
 10
60.000000
 20
-390.000000
 11
60.000000
 21
-394.000000
  0
LINE
  8
A-GLAZ-2
 10
92.000000
 20
-390.000000
 11
92.000000
 21
-394.000000
  0
LINE
  8
A-GLAZ-2
 10
60.000000
 20
-394.000000
 11
60.000000
 21
-426.000000
  0
LINE
  8
A-GLAZ-2
 10
61.375000
 20
-426.000000
 11
61.375000
 21
-394.000000
  0
LINE
  8
A-GLAZ-2
 10
61.375000
 20
-394.000000
 11
60.000000
 21
-394.000000
  0
ARC
  8
A-GLAZ-2
 10
60.000000
 20
-394.000000
 40
32.000000
 50
270.000000
 51
0.000000
  0
TEXT
  8
A-DIMS-2
 10
66.490965
 20
-394.641399
 40
5.527127
  1
2868
  7
STANDARD
  0
LINE
  8
A-WALL-2
 10
98.000000
 20
-293.500000
 11
98.000000
 21
-259.000000
  0
LINE
  8
A-WALL-2
 10
94.000000
 20
-259.000000
 11
94.000000
 21
-293.500000
  0
LINE
  8
A-WALL-2
 10
94.000000
 20
-321.500000
 11
94.000000
 21
-325.000000
  0
LINE
  8
A-WALL-2
 10
94.000000
 20
-329.000000
 11
94.000000
 21
-342.000000
  0
LINE
  8
A-WALL-2
 10
98.000000
 20
-350.000000
 11
98.000000
 21
-321.500000
  0
LINE
  8
A-WALL-2
 10
94.000000
 20
-346.000000
 11
94.000000
 21
-350.000000
  0
LINE
  8
A-WALL-2
 10
98.000000
 20
-390.000000
 11
98.000000
 21
-386.000000
  0
LINE
  8
A-WALL-2
 10
94.000000
 20
-386.000000
 11
94.000000
 21
-390.000000
  0
LINE
  8
A-GLAZ-2
 10
98.000000
 20
-293.500000
 11
94.000000
 21
-293.500000
  0
LINE
  8
A-GLAZ-2
 10
98.000000
 20
-321.500000
 11
94.000000
 21
-321.500000
  0
LINE
  8
A-GLAZ-2
 10
98.000000
 20
-293.500000
 11
126.000000
 21
-293.500000
  0
LINE
  8
A-GLAZ-2
 10
126.000000
 20
-294.875000
 11
98.000000
 21
-294.875000
  0
LINE
  8
A-GLAZ-2
 10
98.000000
 20
-294.875000
 11
98.000000
 21
-293.500000
  0
ARC
  8
A-GLAZ-2
 10
98.000000
 20
-293.500000
 40
28.000000
 50
270.000000
 51
0.000000
  0
TEXT
  8
A-DIMS-2
 10
98.641399
 20
-317.009035
 40
5.527127
  1
2468
 50
90.000000
  7
STANDARD
  0
LINE
  8
A-GLAZ-2
 10
98.000000
 20
-350.000000
 11
94.000000
 21
-350.000000
  0
LINE
  8
A-GLAZ-2
 10
98.000000
 20
-386.000000
 11
94.000000
 21
-386.000000
  0
LINE
  8
A-GLAZ-2
 10
98.000000
 20
-386.000000
 11
134.000000
 21
-386.000000
  0
LINE
  8
A-GLAZ-2
 10
134.000000
 20
-384.625000
 11
98.000000
 21
-384.625000
  0
LINE
  8
A-GLAZ-2
 10
98.000000
 20
-384.625000
 11
98.000000
 21
-386.000000
  0
ARC
  8
A-GLAZ-2
 10
98.000000
 20
-386.000000
 40
36.000000
 50
0.000000
 51
90.000000
  0
TEXT
  8
A-DIMS-2
 10
98.641399
 20
-377.509035
 40
5.527127
  1
3068
 50
90.000000
  7
STANDARD
  0
LINE
  8
A-WALL-2
 10
58.000000
 20
-325.000000
 11
58.000000
 21
-259.000000
  0
LINE
  8
A-WALL-2
 10
58.000000
 20
-342.000000
 11
58.000000
 21
-329.000000
  0
LINE
  8
A-WALL-2
 10
54.000000
 20
-259.000000
 11
54.000000
 21
-346.000000
  0
LINE
  8
A-WALL-2
 10
64.000000
 20
-342.000000
 11
58.000000
 21
-342.000000
  0
LINE
  8
A-WALL-2
 10
54.000000
 20
-346.000000
 11
64.000000
 21
-346.000000
  0
LINE
  8
A-WALL-2
 10
94.000000
 20
-342.000000
 11
88.000000
 21
-342.000000
  0
LINE
  8
A-WALL-2
 10
88.000000
 20
-346.000000
 11
94.000000
 21
-346.000000
  0
LINE
  8
A-GLAZ-2
 10
64.000000
 20
-342.000000
 11
64.000000
 21
-346.000000
  0
LINE
  8
A-GLAZ-2
 10
88.000000
 20
-342.000000
 11
88.000000
 21
-346.000000
  0
LINE
  8
A-GLAZ-2
 10
88.000000
 20
-346.000000
 11
88.000000
 21
-370.000000
  0
LINE
  8
A-GLAZ-2
 10
86.625000
 20
-370.000000
 11
86.625000
 21
-346.000000
  0
LINE
  8
A-GLAZ-2
 10
86.625000
 20
-346.000000
 11
88.000000
 21
-346.000000
  0
ARC
  8
A-GLAZ-2
 10
88.000000
 20
-346.000000
 40
24.000000
 50
180.000000
 51
270.000000
  0
TEXT
  8
A-DIMS-2
 10
66.490965
 20
-346.641399
 40
5.527127
  1
2068
  7
STANDARD
  0
LINE
  8
A-WALL-2
 10
94.000000
 20
-325.000000
 11
58.000000
 21
-325.000000
  0
LINE
  8
A-WALL-2
 10
58.000000
 20
-329.000000
 11
94.000000
 21
-329.000000
  0
LINE
  8
A-WALL-2
 10
-30.000000
 20
-418.000000
 11
-30.000000
 21
-394.000000
  0
LINE
  8
A-WALL-2
 10
-34.000000
 20
-390.000000
 11
-34.000000
 21
-438.000000
  0
LINE
  8
A-WALL-2
 10
-30.000000
 20
-486.000000
 11
-30.000000
 21
-422.000000
  0
LINE
  8
A-WALL-2
 10
-34.000000
 20
-442.000000
 11
-34.000000
 21
-490.000000
  0
LINE
  8
A-WALL-2
 10
38.000000
 20
-418.000000
 11
-30.000000
 21
-418.000000
  0
LINE
  8
A-WALL-2
 10
54.000000
 20
-418.000000
 11
42.000000
 21
-418.000000
  0
LINE
  8
A-WALL-2
 10
-30.000000
 20
-422.000000
 11
54.000000
 21
-422.000000
  0
LINE
  8
A-WALL-2
 10
-26.000000
 20
-486.000000
 11
-30.000000
 21
-486.000000
  0
LINE
  8
A-WALL-2
 10
-34.000000
 20
-490.000000
 11
-26.000000
 21
-490.000000
  0
LINE
  8
A-WALL-2
 10
54.000000
 20
-486.000000
 11
6.000000
 21
-486.000000
  0
LINE
  8
A-WALL-2
 10
6.000000
 20
-490.000000
 11
54.000000
 21
-490.000000
  0
LINE
  8
A-GLAZ-2
 10
-26.000000
 20
-486.000000
 11
-26.000000
 21
-490.000000
  0
LINE
  8
A-GLAZ-2
 10
6.000000
 20
-486.000000
 11
6.000000
 21
-490.000000
  0
LINE
  8
A-GLAZ-2
 10
-26.000000
 20
-486.000000
 11
-26.000000
 21
-454.000000
  0
LINE
  8
A-GLAZ-2
 10
-24.625000
 20
-454.000000
 11
-24.625000
 21
-486.000000
  0
LINE
  8
A-GLAZ-2
 10
-24.625000
 20
-486.000000
 11
-26.000000
 21
-486.000000
  0
ARC
  8
A-GLAZ-2
 10
-26.000000
 20
-486.000000
 40
32.000000
 50
0.000000
 51
90.000000
  0
TEXT
  8
A-DIMS-2
 10
-19.509035
 20
-490.641399
 40
5.527127
  1
2868
  7
STANDARD
  0
LINE
  8
A-WALL-2
 10
42.000000
 20
-418.000000
 11
42.000000
 21
-394.000000
  0
LINE
  8
A-WALL-2
 10
38.000000
 20
-394.000000
 11
38.000000
 21
-418.000000
  0
LINE
  8
A-WALL-2
 10
-94.000000
 20
-438.000000
 11
-98.000000
 21
-438.000000
  0
LINE
  8
A-WALL-2
 10
-98.000000
 20
-442.000000
 11
-94.000000
 21
-442.000000
  0
LINE
  8
A-WALL-2
 10
-34.000000
 20
-438.000000
 11
-38.000000
 21
-438.000000
  0
LINE
  8
A-WALL-2
 10
-38.000000
 20
-442.000000
 11
-34.000000
 21
-442.000000
  0
LINE
  8
A-GLAZ-2
 10
-94.000000
 20
-438.000000
 11
-94.000000
 21
-442.000000
  0
LINE
  8
A-GLAZ-2
 10
-38.000000
 20
-438.000000
 11
-38.000000
 21
-442.000000
  0
LINE
  8
A-GLAZ-2
 10
-94.000000
 20
-442.000000
 11
-94.000000
 21
-470.000000
  0
LINE
  8
A-GLAZ-2
 10
-92.625000
 20
-470.000000
 11
-92.625000
 21
-442.000000
  0
LINE
  8
A-GLAZ-2
 10
-92.625000
 20
-442.000000
 11
-94.000000
 21
-442.000000
  0
ARC
  8
A-GLAZ-2
 10
-94.000000
 20
-442.000000
 40
28.000000
 50
270.000000
 51
0.000000
  0
LINE
  8
A-GLAZ-2
 10
-38.000000
 20
-442.000000
 11
-38.000000
 21
-470.000000
  0
LINE
  8
A-GLAZ-2
 10
-39.375000
 20
-470.000000
 11
-39.375000
 21
-442.000000
  0
LINE
  8
A-GLAZ-2
 10
-39.375000
 20
-442.000000
 11
-38.000000
 21
-442.000000
  0
ARC
  8
A-GLAZ-2
 10
-38.000000
 20
-442.000000
 40
28.000000
 50
180.000000
 51
270.000000
  0
TEXT
  8
A-DIMS-2
 10
-75.509035
 20
-442.641399
 40
5.527127
  1
4868
  7
STANDARD
  0
LINE
  8
A-WALL-2
 10
-98.000000
 20
-339.000000
 11
-98.000000
 21
-259.000000
  0
LINE
  8
A-WALL-2
 10
-102.000000
 20
-259.000000
 11
-102.000000
 21
-339.000000
  0
LINE
  8
A-WALL-2
 10
-98.000000
 20
-438.000000
 11
-98.000000
 21
-403.000000
  0
LINE
  8
A-WALL-2
 10
-98.000000
 20
-472.000000
 11
-98.000000
 21
-442.000000
  0
LINE
  8
A-WALL-2
 10
-102.000000
 20
-403.000000
 11
-102.000000
 21
-468.000000
  0
LINE
  8
A-GLAZ-2
 10
-98.000000
 20
-339.000000
 11
-102.000000
 21
-339.000000
  0
LINE
  8
A-GLAZ-2
 10
-98.000000
 20
-403.000000
 11
-102.000000
 21
-403.000000
  0
TEXT
  8
A-DIMS-2
 10
-97.358601
 20
-380.509035
 40
5.527127
  1
5476
 50
90.000000
  7
STANDARD
  0
LINE
  8
A-WALL-2
 10
-102.000000
 20
-468.000000
 11
-270.000000
 21
-468.000000
  0
LINE
  8
A-WALL-2
 10
-270.000000
 20
-472.000000
 11
-98.000000
 21
-472.000000
  0
LINE
  8
A-WALL-2
 10
226.000000
 20
-349.000000
 11
156.000000
 21
-349.000000
  0
LINE
  8
A-WALL-2
 10
160.000000
 20
-353.000000
 11
226.000000
 21
-353.000000
  0
LINE
  8
A-WALL-2
 10
-170.000000
 20
-515.000000
 11
-174.000000
 21
-515.000000
  0
LINE
  8
A-WALL-2
 10
-170.000000
 20
-603.000000
 11
-170.000000
 21
-515.000000
  0
LINE
  8
A-WALL-2
 10
-174.000000
 20
-515.000000
 11
-174.000000
 21
-603.000000
  0
LINE
  8
A-WALL-2
 10
8.000000
 20
-607.000000
 11
8.000000
 21
-610.000000
  0
LINE
  8
A-WALL-2
 10
8.000000
 20
-539.000000
 11
8.000000
 21
-603.000000
  0
LINE
  8
A-WALL-2
 10
12.000000
 20
-610.000000
 11
12.000000
 21
-535.000000
  0
LINE
  8
A-WALL-2
 10
-94.000000
 20
-539.000000
 11
8.000000
 21
-539.000000
  0
LINE
  8
A-WALL-2
 10
-118.000000
 20
-539.000000
 11
-98.000000
 21
-539.000000
  0
LINE
  8
A-WALL-2
 10
12.000000
 20
-535.000000
 11
-122.000000
 21
-535.000000
  0
LINE
  8
A-WALL-2
 10
-118.000000
 20
-548.000000
 11
-118.000000
 21
-539.000000
  0
LINE
  8
A-WALL-2
 10
-122.000000
 20
-535.000000
 11
-122.000000
 21
-548.000000
  0
LINE
  8
A-WALL-2
 10
-118.000000
 20
-603.000000
 11
-118.000000
 21
-596.000000
  0
LINE
  8
A-WALL-2
 10
-122.000000
 20
-596.000000
 11
-122.000000
 21
-603.000000
  0
LINE
  8
A-GLAZ-2
 10
-118.000000
 20
-548.000000
 11
-122.000000
 21
-548.000000
  0
LINE
  8
A-GLAZ-2
 10
-118.000000
 20
-596.000000
 11
-122.000000
 21
-596.000000
  0
LINE
  8
A-GLAZ-2
 10
-122.000000
 20
-548.000000
 11
-146.000000
 21
-548.000000
  0
LINE
  8
A-GLAZ-2
 10
-146.000000
 20
-549.375000
 11
-122.000000
 21
-549.375000
  0
LINE
  8
A-GLAZ-2
 10
-122.000000
 20
-549.375000
 11
-122.000000
 21
-548.000000
  0
ARC
  8
A-GLAZ-2
 10
-122.000000
 20
-548.000000
 40
24.000000
 50
180.000000
 51
270.000000
  0
LINE
  8
A-GLAZ-2
 10
-122.000000
 20
-596.000000
 11
-146.000000
 21
-596.000000
  0
LINE
  8
A-GLAZ-2
 10
-146.000000
 20
-594.625000
 11
-122.000000
 21
-594.625000
  0
LINE
  8
A-GLAZ-2
 10
-122.000000
 20
-594.625000
 11
-122.000000
 21
-596.000000
  0
ARC
  8
A-GLAZ-2
 10
-122.000000
 20
-596.000000
 40
24.000000
 50
90.000000
 51
180.000000
  0
TEXT
  8
A-DIMS-2
 10
-117.358601
 20
-581.509035
 40
5.527127
  1
4068
 50
90.000000
  7
STANDARD
  0
LINE
  8
A-WALL-2
 10
-94.000000
 20
-603.000000
 11
-94.000000
 21
-539.000000
  0
LINE
  8
A-WALL-2
 10
-98.000000
 20
-539.000000
 11
-98.000000
 21
-603.000000
  0
LINE
  8
A-WALL-2
 10
-38.000000
 20
-688.000000
 11
-38.000000
 21
-607.000000
  0
LINE
  8
A-WALL-2
 10
-38.000000
 20
-701.000000
 11
-38.000000
 21
-692.000000
  0
LINE
  8
A-WALL-2
 10
-42.000000
 20
-607.000000
 11
-42.000000
 21
-701.000000
  0
LINE
  8
A-WALL-2
 10
-38.000000
 20
-771.000000
 11
-38.000000
 21
-763.000000
  0
LINE
  8
A-WALL-2
 10
-42.000000
 20
-763.000000
 11
-42.000000
 21
-771.000000
  0
LINE
  8
A-GLAZ-2
 10
-38.000000
 20
-701.000000
 11
-42.000000
 21
-701.000000
  0
LINE
  8
A-GLAZ-2
 10
-38.000000
 20
-763.000000
 11
-42.000000
 21
-763.000000
  0
LINE
  8
A-GLAZ-2
 10
-42.000000
 20
-701.000000
 11
-73.000000
 21
-701.000000
  0
LINE
  8
A-GLAZ-2
 10
-73.000000
 20
-702.375000
 11
-42.000000
 21
-702.375000
  0
LINE
  8
A-GLAZ-2
 10
-42.000000
 20
-702.375000
 11
-42.000000
 21
-701.000000
  0
ARC
  8
A-GLAZ-2
 10
-42.000000
 20
-701.000000
 40
31.000000
 50
180.000000
 51
270.000000
  0
LINE
  8
A-GLAZ-2
 10
-42.000000
 20
-763.000000
 11
-73.000000
 21
-763.000000
  0
LINE
  8
A-GLAZ-2
 10
-73.000000
 20
-761.625000
 11
-42.000000
 21
-761.625000
  0
LINE
  8
A-GLAZ-2
 10
-42.000000
 20
-761.625000
 11
-42.000000
 21
-763.000000
  0
ARC
  8
A-GLAZ-2
 10
-42.000000
 20
-763.000000
 40
31.000000
 50
90.000000
 51
180.000000
  0
TEXT
  8
A-DIMS-2
 10
-37.358601
 20
-741.509035
 40
5.527127
  1
5268
 50
90.000000
  7
STANDARD
  0
LINE
  8
A-WALL-2
 10
-14.000000
 20
-688.000000
 11
-38.000000
 21
-688.000000
  0
LINE
  8
A-WALL-2
 10
-38.000000
 20
-692.000000
 11
-14.000000
 21
-692.000000
  0
LINE
  8
A-WALL-2
  6
DOTTED
 10
-174.000000
 20
-515.000000
 11
-170.000000
 21
-515.000000
  0
LINE
  8
A-WALL-2
  6
DOTTED
 10
-170.000000
 20
-515.000000
 11
-170.000000
 21
-472.000000
  0
LINE
  8
A-WALL-2
  6
DOTTED
 10
-174.000000
 20
-472.000000
 11
-174.000000
 21
-515.000000
  0
LINE
  8
A-WALL-2
 10
-248.000000
 20
-661.000000
 11
-248.000000
 21
-607.000000
  0
LINE
  8
A-WALL-2
 10
-252.000000
 20
-607.000000
 11
-252.000000
 21
-665.000000
  0
LINE
  8
A-WALL-2
 10
-252.000000
 20
-665.000000
 11
-204.000000
 21
-665.000000
  0
LINE
  8
A-WALL-2
 10
-178.000000
 20
-661.000000
 11
-248.000000
 21
-661.000000
  0
LINE
  8
A-WALL-2
 10
-200.000000
 20
-665.000000
 11
-174.000000
 21
-665.000000
  0
LINE
  8
A-WALL-2
 10
-174.000000
 20
-617.000000
 11
-174.000000
 21
-607.000000
  0
LINE
  8
A-WALL-2
 10
-178.000000
 20
-607.000000
 11
-178.000000
 21
-617.000000
  0
LINE
  8
A-WALL-2
 10
-174.000000
 20
-665.000000
 11
-174.000000
 21
-655.000000
  0
LINE
  8
A-WALL-2
 10
-178.000000
 20
-655.000000
 11
-178.000000
 21
-661.000000
  0
LINE
  8
A-GLAZ-2
 10
-174.000000
 20
-617.000000
 11
-178.000000
 21
-617.000000
  0
LINE
  8
A-GLAZ-2
 10
-174.000000
 20
-655.000000
 11
-178.000000
 21
-655.000000
  0
LINE
  8
A-GLAZ-2
 10
-174.000000
 20
-655.000000
 11
-136.000000
 21
-655.000000
  0
LINE
  8
A-GLAZ-2
 10
-136.000000
 20
-653.625000
 11
-174.000000
 21
-653.625000
  0
LINE
  8
A-GLAZ-2
 10
-174.000000
 20
-653.625000
 11
-174.000000
 21
-655.000000
  0
ARC
  8
A-GLAZ-2
 10
-174.000000
 20
-655.000000
 40
38.000000
 50
0.000000
 51
90.000000
  0
TEXT
  8
A-DIMS-2
 10
-173.358601
 20
-645.509035
 40
5.527127
  1
3268
 50
90.000000
  7
STANDARD
  0
INSERT
  8
A-CASE-2
  2
FIXT-Toilet
 10
206.211552
 20
-386.019364
 41
1.000000
 42
1.071429
 43
 1.0
 50
-180.000000
  0
INSERT
  8
A-CASE-2
  2
FIXT-Bidet
 10
177.544432
 20
-389.941346
 41
1.000000
 42
1.000000
 43
 1.0
 50
-180.000000
  0
LINE
  8
A-CASE-2
 10
226.000000
 20
-343.000000
 11
182.000000
 21
-343.000000
  0
LINE
  8
A-CASE-2
 10
182.000000
 20
-343.000000
 11
182.000000
 21
-259.000000
  0
INSERT
  8
A-CASE-2
  2
FIXT-OSpa7242
 10
181.952856
 20
-301.000000
 41
1.166667
 42
1.047619
 43
 1.0
 50
-90.000000
  0
LINE
  8
A-CASE-2
 10
140.000000
 20
-259.000000
 11
140.000000
 21
-262.000000
  0
LINE
  8
A-CASE-2
 10
140.000000
 20
-280.000000
 11
140.000000
 21
-283.000000
  0
LINE
  8
A-CASE-2
 10
140.000000
 20
-283.000000
 11
98.000000
 21
-283.000000
  0
INSERT
  8
A-CASE-2
  2
FIXT-OvalBath
 10
119.000000
 20
-287.983894
 41
1.000000
 42
1.000000
 43
 1.0
 50
0.000000
  0
LINE
  8
A-CASE-2
 10
182.000000
 20
-259.000000
 11
182.000000
 21
-283.000000
  0
LINE
  8
A-CASE-2
 10
140.000000
 20
-283.000000
 11
140.000000
 21
-280.000000
  0
LINE
  8
A-CASE-2
 10
140.000000
 20
-262.000000
 11
140.000000
 21
-259.000000
  0
LINE
  8
A-CASE-2
 10
182.000000
 20
-283.000000
 11
140.000000
 21
-283.000000
  0
INSERT
  8
A-CASE-2
  2
FIXT-OvalBath
 10
161.000000
 20
-287.983894
 41
1.000000
 42
1.000000
 43
 1.0
 50
0.000000
  0
LINE
  8
A-CASE-2
  6
DASHED
 10
182.000000
 20
-259.000000
 11
182.000000
 21
-260.000000
  0
LINE
  8
A-CASE-2
  6
DASHED
 10
182.000000
 20
-260.000000
 11
98.000000
 21
-260.000000
  0
LINE
  8
A-CASE-2
  6
DASHED
 10
100.000000
 20
-286.275119
 11
98.000000
 21
-286.275119
  0
LINE
  8
A-CASE-2
  6
DASHED
 10
98.000000
 20
-262.275119
 11
100.000000
 21
-262.275119
  0
LINE
  8
A-CASE-2
  6
DASHED
 10
100.000000
 20
-262.275119
 11
100.000000
 21
-286.275119
  0
LINE
  8
A-CASE-2
  6
DASHED
 10
98.000000
 20
-286.275119
 11
98.000000
 21
-262.275119
  0
INSERT
  8
A-CASE-2
  2
FIXT-Washer26
 10
20.034060
 20
-439.199538
 41
1.000000
 42
1.000000
 43
 1.0
 50
-90.000000
  0
INSERT
  8
A-CASE-2
  2
FIXT-DryerG28
 10
20.034060
 20
-468.969114
 41
1.000000
 42
1.000000
 43
 1.0
 50
-90.000000
  0
LINE
  8
A-CASE-2
 10
41.980325
 20
-486.000000
 11
41.980325
 21
-422.000000
  0
LINE
  8
A-CASE-2
 10
53.980325
 20
-422.000000
 11
53.980325
 21
-486.000000
  0
LINE
  8
A-CASE-2
 10
42.000000
 20
-486.000000
 11
42.000000
 21
-422.000000
  0
LINE
  8
A-CASE-2
 10
54.000000
 20
-422.000000
 11
54.000000
 21
-486.000000
  0
LINE
  8
A-CASE-2
 10
-12.000000
 20
-452.555707
 11
-30.000000
 21
-452.555707
  0
LINE
  8
A-CASE-2
 10
-30.000000
 20
-422.555707
 11
-12.000000
 21
-422.555707
  0
LINE
  8
A-CASE-2
 10
-12.000000
 20
-422.555707
 11
-12.000000
 21
-452.555707
  0
LINE
  8
A-CASE-2
 10
-30.000000
 20
-452.555707
 11
-30.000000
 21
-422.555707
  0
LINE
  8
A-CASE-2
 10
-25.000000
 20
-442.555707
 11
-30.000000
 21
-437.555707
  0
LINE
  8
A-CASE-2
 10
-25.000000
 20
-432.555707
 11
-30.000000
 21
-437.555707
  0
INSERT
  8
A-CASE-2
  2
FIXT-Toilet
 10
-41.528991
 20
-568.980636
 41
1.000000
 42
1.071429
 43
 1.0
 50
0.000000
  0
LINE
  8
A-CASE-2
 10
-58.000000
 20
-539.000000
 11
-58.000000
 21
-563.000000
  0
LINE
  8
A-CASE-2
 10
-58.000000
 20
-563.000000
 11
-94.000000
 21
-563.000000
  0
INSERT
  8
A-CASE-2
  2
FIXT-OvalBath
 10
-76.000000
 20
-567.983894
 41
1.000000
 42
1.000000
 43
 1.0
 50
0.000000
  0
INSERT
  8
A-CASE-2
  2
FIXT-tubshr02
 10
-23.993200
 20
-571.563772
 41
1.000000
 42
1.000000
 43
 1.0
 50
-90.000000
  0
INSERT
  8
A-CASE-2
  2
FIXT-tubshr02
 10
192.000000
 20
-726.006800
 41
1.000000
 42
1.000000
 43
 1.0
 50
-180.000000
  0
INSERT
  8
A-CASE-2
  2
FIXT-Toilet
 10
196.019364
 20
-706.405410
 41
1.000000
 42
1.071429
 43
 1.0
 50
-90.000000
  0
LINE
  8
A-CASE-2
 10
225.184193
 20
-650.652645
 11
222.184193
 21
-650.652645
  0
LINE
  8
A-CASE-2
 10
204.184193
 20
-650.652645
 11
201.184193
 21
-650.652645
  0
LINE
  8
A-CASE-2
 10
201.184193
 20
-650.652645
 11
201.184193
 21
-614.652645
  0
INSERT
  8
A-CASE-2
  2
FIXT-OvalBath
 10
196.200299
 20
-632.652645
 41
1.000000
 42
1.000000
 43
 1.0
 50
-90.000000
  0
LINE
  8
A-CASE-2
 10
225.184193
 20
-686.652645
 11
201.184193
 21
-686.652645
  0
LINE
  8
A-CASE-2
 10
201.184193
 20
-650.652645
 11
204.184193
 21
-650.652645
  0
LINE
  8
A-CASE-2
 10
222.184193
 20
-650.652645
 11
225.184193
 21
-650.652645
  0
LINE
  8
A-CASE-2
 10
201.184193
 20
-686.652645
 11
201.184193
 21
-650.652645
  0
INSERT
  8
A-CASE-2
  2
FIXT-OvalBath
 10
196.200299
 20
-668.652645
 41
1.000000
 42
1.000000
 43
 1.0
 50
-90.000000
  0
LINE
  8
A-CASE-2
  6
DASHED
 10
-94.290411
 20
-335.092803
 11
-97.290411
 21
-335.092803
  0
LINE
  8
A-CASE-2
  6
DASHED
 10
-97.290411
 20
-319.092803
 11
-94.290411
 21
-319.092803
  0
LINE
  8
A-CASE-2
  6
DASHED
 10
-94.290411
 20
-319.092803
 11
-94.290411
 21
-335.092803
  0
LINE
  8
A-CASE-2
  6
DASHED
 10
-97.290411
 20
-335.092803
 11
-97.290411
 21
-319.092803
  0
LINE
  8
A-CASE-2
  6
DASHED
 10
54.000000
 20
-332.868417
 11
53.000000
 21
-332.868417
  0
LINE
  8
A-CASE-2
  6
DASHED
 10
53.000000
 20
-304.868417
 11
54.000000
 21
-304.868417
  0
LINE
  8
A-CASE-2
  6
DASHED
 10
53.000000
 20
-332.868417
 11
53.000000
 21
-304.868417
  0
LINE
  8
A-CASE-2
  6
DASHED
 10
225.347355
 20
-686.000000
 11
224.347355
 21
-686.000000
  0
LINE
  8
A-CASE-2
  6
DASHED
 10
225.347355
 20
-614.000000
 11
225.347355
 21
-686.000000
  0
LINE
  8
A-CASE-2
  6
DASHED
 10
224.347355
 20
-686.000000
 11
224.347355
 21
-614.000000
  0
TEXT
  8
A-NOTE-2
 10
-248.703058
 20
-355.194054
 40
9.448080
  1
MASTER BEDROOM
  7
STANDARD
  0
TEXT
  8
A-NOTE-2
 10
-203.199185
 20
-368.330273
 40
7.152095
  1
14' x 17'5
  7
STANDARD
  0
TEXT
  8
A-NOTE-2
 10
166.140602
 20
-676.573256
 40
8.030868
  1
BATH
  7
STANDARD
  0
TEXT
  8
A-NOTE-2
 10
165.679991
 20
-688.076875
 40
6.258083
  1
5'4 x 12'
  7
STANDARD
  0
TEXT
  8
A-NOTE-2
 10
24.293336
 20
-716.213683
 40
9.448080
  1
BEDROOM #3
  7
STANDARD
  0
TEXT
  8
A-NOTE-2
 10
51.088864
 20
-729.349903
 40
7.152095
  1
14' x 12'
  7
STANDARD
  0
TEXT
  8
A-NOTE-2
 10
-241.603201
 20
-632.947953
 40
7.086060
  1
ELEVATOR
  7
STANDARD
  0
TEXT
  8
A-NOTE-2
 10
-229.457946
 20
-642.990667
 40
5.364071
  1
5'10 x 4'6
  7
STANDARD
  0
TEXT
  8
A-NOTE-2
 10
82.820601
 20
-444.038585
 40
8.030868
  1
CLOSET
  7
STANDARD
  0
TEXT
  8
A-NOTE-2
 10
90.359188
 20
-455.542203
 40
6.258083
  1
8'2 x 6'8
  7
STANDARD
  0
TEXT
  8
A-NOTE-2
 10
168.820601
 20
-431.910615
 40
8.030868
  1
CLOSET
  7
STANDARD
  0
TEXT
  8
A-NOTE-2
 10
176.359188
 20
-443.414234
 40
6.258083
  1
5'6 x 4'6
  7
STANDARD
  0
TEXT
  8
A-NOTE-2
 10
97.248147
 20
-539.176092
 40
9.448080
  1
BEDROOM #4
  7
STANDARD
  0
TEXT
  8
A-NOTE-2
 10
124.043675
 20
-552.312311
 40
7.152095
  1
14' x 11'
  7
STANDARD
  0
TEXT
  8
A-NOTE-2
 10
61.709745
 20
-290.758838
 40
4.251636
  1
SHOWER
  7
STANDARD
  0
TEXT
  8
A-NOTE-2
 10
70.021402
 20
-296.977595
 40
3.129042
  1
3' x 5'6
  7
STANDARD
  0
TEXT
  8
A-NOTE-2
 10
-10.511301
 20
-401.051008
 40
4.251636
  1
CLOSET
  7
STANDARD
  0
TEXT
  8
A-NOTE-2
 10
-4.118645
 20
-407.269765
 40
3.129042
  1
5'8 x 2'
  7
STANDARD
  0
TEXT
  8
A-NOTE-2
 10
102.496908
 20
-333.341642
 40
7.086060
  1
MASTER BATH
  7
STANDARD
  0
TEXT
  8
A-NOTE-2
 10
119.787777
 20
-343.384356
 40
5.364071
  1
10'8 x 10'11
  7
STANDARD
  0
TEXT
  8
A-NOTE-2
 10
38.788800
 20
-405.178724
 40
3.306828
  1
CHASE
  7
STANDARD
  0
TEXT
  8
A-NOTE-2
 10
43.062616
 20
-410.495334
 40
2.682036
  1
1' x 2'
  7
STANDARD
  0
TEXT
  8
A-NOTE-2
 10
65.607515
 20
-333.600423
 40
3.306828
  1
CLOSET
  7
STANDARD
  0
TEXT
  8
A-NOTE-2
 10
70.319335
 20
-338.917032
 40
2.682036
  1
3' x 1'1
  7
STANDARD
  0
TEXT
  8
A-NOTE-2
 10
-21.555474
 20
-464.742536
 40
5.196444
  1
LAUNDRY
  7
STANDARD
  0
TEXT
  8
A-NOTE-2
 10
-11.578944
 20
-472.422198
 40
4.023053
  1
7' x 5'4
  7
STANDARD
  0
TEXT
  8
A-NOTE-2
 10
-82.853530
 20
-333.811332
 40
9.448080
  1
SITTING ROOM
  7
STANDARD
  0
TEXT
  8
A-NOTE-2
 10
-58.896772
 20
-346.947552
 40
7.152095
  1
12'8 x 10'11
  7
STANDARD
  0
TEXT
  8
A-NOTE-2
 10
-83.700147
 20
-503.161007
 40
9.448080
  1
HALL
  7
STANDARD
  0
TEXT
  8
A-NOTE-2
 10
-88.251874
 20
-516.297227
 40
7.152095
  1
18'8 x 7'9
  7
STANDARD
  0
TEXT
  8
A-NOTE-2
 10
-120.515975
 20
-588.228392
 40
3.306828
  1
CLOSET
  7
STANDARD
  0
TEXT
  8
A-NOTE-2
 10
-116.901352
 20
-593.545002
 40
2.682036
  1
1'8 x 5'4
  7
STANDARD
  0
TEXT
  8
A-NOTE-2
 10
185.418082
 20
-369.645266
 40
7.086060
  1
TOILET
  7
STANDARD
  0
TEXT
  8
A-NOTE-2
 10
190.061729
 20
-379.687980
 40
5.364071
  1
5'6 x 5'3
  7
STANDARD
  0
TEXT
  8
A-NOTE-2
 10
-71.750407
 20
-581.469103
 40
8.030868
  1
BATH
  7
STANDARD
  0
TEXT
  8
A-NOTE-2
 10
-72.211018
 20
-592.972722
 40
6.258083
  1
8'6 x 5'4
  7
STANDARD
  0
TEXT
  8
A-NOTE-2
 10
-35.330740
 20
-626.505566
 40
3.306828
  1
CLOSET
  7
STANDARD
  0
TEXT
  8
A-NOTE-2
 10
-30.618920
 20
-631.822175
 40
2.682036
  1
2' x 6'9
  7
STANDARD
  0
TEXT
  8
A-NOTE-2
 10
-37.808145
 20
-749.790137
 40
3.306828
  1
CLOSET
  7
STANDARD
  0
TEXT
  8
A-NOTE-2
 10
-33.096325
 20
-755.106747
 40
2.682036
  1
2' x 6'7
  7
STANDARD
  0
TEXT
  8
A-NOTE-2
 10
-225.762596
 20
-531.371938
 40
4.724040
  1
OPEN BELOW
  7
STANDARD
  0
TEXT
  8
A-NOTE-2
 10
-211.737060
 20
-538.321147
 40
3.576047
  1
8' x 10'11
  7
STANDARD
  0
TEXT
  8
A-NOTE-2
 10
-65.904701
 20
-824.810100
 40
9.448080
  1
LIVING AREA
  7
STANDARD
  0
TEXT
  8
A-NOTE-2
 10
-45.406856
 20
-837.946319
 40
7.152095
  1
1640 sq ft
  7
STANDARD
  0
TEXT
  8
A-NOTE-2
 10
-179.812724
 20
-705.451993
 40
9.448080
  1
BEDROOM #2
  7
STANDARD
  0
TEXT
  8
A-NOTE-2
 10
-158.868910
 20
-718.588213
 40
7.152095
  1
13'2 x 13'8
  7
STANDARD
  0
ENDSEC
  0
EOF
