  0
SECTION
  2
HEADER
  9
$ACADVER
  1
AC1006
  9
$EXTMIN
 10
-657.457712
 20
-942.523378
  9
$EXTMAX
 10
589.688829
 20
-79.598751
  9
$ANGDIR
 70
   0
  9
$LUNITS
 70
   2
  0
ENDSEC
  0
SECTION
  2
TABLES
  0
TABLE
  2
LTYPE
 70
   3
  0
LTYPE
  2
CONTINUOUS
 70
64
  3
SOLID LINE
 72
65
 73
0
 40
0.
  0
LTYPE
  2
DASHED
 70
64
  3
DASHED LINE
 72
65
 73
2
 40
8.
 49
5.
 49
-3.
  0
LTYPE
  2
DOTTED
 70
64
  3
DOTTED LINE
 72
65
 73
2
 40
4.
 49
2.
 49
-2.
  0
ENDTAB
  0
TABLE
  2
LAYER
 70
   15
  0
LAYER
  2
A-WALL-1
 70
64
 62
   7
  6
CONTINUOUS
  0
LAYER
  2
A-CASE-1
 70
64
 62
   7
  6
CONTINUOUS
  0
LAYER
  2
A-DIMS-1
 70
64
 62
   7
  6
CONTINUOUS
  0
LAYER
  2
A-POWR-1
 70
64
 62
   7
  6
CONTINUOUS
  0
LAYER
  2
A-NOTE-1
 70
64
 62
   7
  6
CONTINUOUS
  0
LAYER
  2
A-TEXT-1
 70
64
 62
   7
  6
CONTINUOUS
  0
LAYER
  2
A-FURN-1
 70
64
 62
   7
  6
CONTINUOUS
  0
LAYER
  2
A-GLAZ-1
 70
64
 62
   7
  6
CONTINUOUS
  0
LAYER
  2
A-STAR-1
 70
64
 62
   7
  6
CONTINUOUS
  0
LAYER
  2
A-ROOF-1
 70
64
 62
   7
  6
CONTINUOUS
  0
LAYER
  2
A-C000-1
 70
64
 62
   7
  6
CONTINUOUS
  0
ENDTAB
  0
ENDSEC
  0
SECTION
  2
BLOCKS
  0
BLOCK
  8
A-CASE-1
  2
FIXT-Toilet
 70
64
 10
0.0
 20
0.0
  0
ARC
  8
A-CASE-1
 10
9.046126
 20
27.780609
 40
1.431891
 50
0.000000
 51
90.000000
  0
LINE
  8
A-CASE-1
 10
9.046126
 20
29.212500
 11
-9.046126
 21
29.212500
  0
ARC
  8
A-CASE-1
 10
-9.046126
 20
27.780609
 40
1.431891
 50
90.000000
 51
180.000000
  0
LINE
  8
A-CASE-1
 10
-10.478017
 20
27.780609
 11
-10.478017
 21
21.731952
  0
ARC
  8
A-CASE-1
 10
-9.046126
 20
21.731952
 40
1.431891
 50
180.000000
 51
270.000000
  0
LINE
  8
A-CASE-1
 10
-9.046126
 20
20.300061
 11
9.046126
 21
20.300061
  0
ARC
  8
A-CASE-1
 10
9.046126
 20
21.731952
 40
1.431891
 50
270.000000
 51
0.000000
  0
LINE
  8
A-CASE-1
 10
10.478017
 20
21.731952
 11
10.478017
 21
27.780609
  0
ARC
  8
A-CASE-1
 10
0.029649
 20
13.174761
 40
6.001594
 50
38.796550
 51
141.203450
  0
ARC
  8
A-CASE-1
 10
0.029649
 20
7.965448
 40
6.001594
 50
218.796550
 51
321.203450
  0
ARC
  8
A-CASE-1
 10
3.269587
 20
10.570105
 40
10.158689
 50
141.203449
 51
218.796551
  0
ARC
  8
A-CASE-1
 10
-3.210289
 20
10.570105
 40
10.158689
 50
321.203449
 51
38.796551
  0
ENDBLK
  0
BLOCK
  8
A-CASE-1
  2
FIXT-OvalFree
 70
64
 10
0.0
 20
0.0
  0
ARC
  8
A-CASE-1
 10
11.460326
 20
3.470522
 40
3.539272
 50
270.000000
 51
14.999997
  0
ARC
  8
A-CASE-1
 10
-11.460326
 20
3.470522
 40
3.539272
 50
165.000003
 51
270.000000
  0
LINE
  8
A-CASE-1
 10
11.460326
 20
-0.068750
 11
-11.460326
 21
-0.068750
  0
ARC
  8
A-CASE-1
 10
-8.247561
 20
15.460728
 40
3.539272
 50
90.000000
 51
165.000003
  0
LINE
  8
A-CASE-1
 10
-14.879001
 20
4.386553
 11
-11.666235
 21
16.376759
  0
ARC
  8
A-CASE-1
 10
8.247561
 20
15.460728
 40
3.539272
 50
14.999997
 51
90.000000
  0
LINE
  8
A-CASE-1
 10
-8.247561
 20
19.000000
 11
8.247561
 21
19.000000
  0
LINE
  8
A-CASE-1
 10
11.666235
 20
16.376759
 11
14.879001
 21
4.386553
  0
ARC
  8
A-CASE-1
 10
-3.168259
 20
9.212500
 40
5.846813
 50
127.551279
 51
232.448716
  0
ARC
  8
A-CASE-1
 10
3.138114
 20
9.212500
 40
5.846813
 50
307.551284
 51
52.448721
  0
ARC
  8
A-CASE-1
 10
-0.015072
 20
13.314206
 40
11.020456
 50
232.448718
 51
307.551282
  0
ARC
  8
A-CASE-1
 10
-0.015072
 20
5.110794
 40
11.020456
 50
52.448718
 51
127.551282
  0
CIRCLE
  8
A-CASE-1
 10
-0.015072
 20
11.659375
 40
0.646875
  0
CIRCLE
  8
A-CASE-1
 10
-0.015072
 20
11.659375
 40
1.040625
  0
ARC
  8
A-CASE-1
 10
2.271533
 20
17.545980
 40
0.835270
 50
0.000000
 51
90.000000
  0
LINE
  8
A-CASE-1
 10
2.271533
 20
18.381250
 11
-2.414177
 21
18.381250
  0
ARC
  8
A-CASE-1
 10
-2.414177
 20
17.545980
 40
0.835270
 50
90.000000
 51
180.000000
  0
LINE
  8
A-CASE-1
 10
-3.249447
 20
17.545980
 11
-3.249447
 21
17.585270
  0
ARC
  8
A-CASE-1
 10
-2.414177
 20
17.585270
 40
0.835270
 50
180.000000
 51
270.000000
  0
LINE
  8
A-CASE-1
 10
-2.414177
 20
16.750000
 11
2.271533
 21
16.750000
  0
ARC
  8
A-CASE-1
 10
2.271533
 20
17.585270
 40
0.835270
 50
270.000000
 51
0.000000
  0
LINE
  8
A-CASE-1
 10
3.106803
 20
17.585270
 11
3.106803
 21
17.545980
  0
ENDBLK
  0
BLOCK
  8
A-CASE-1
  2
FIXT-fire3618
 70
64
 10
0.0
 20
0.0
  0
LINE
  8
A-CASE-1
 10
29.948162
 20
-6.079029
 11
29.948162
 21
-24.979031
  0
LINE
  8
A-CASE-1
 10
29.948162
 20
-24.979031
 11
-29.948162
 21
-24.979031
  0
LINE
  8
A-CASE-1
 10
-29.948162
 20
-24.979031
 11
-29.948162
 21
-6.079029
  0
LINE
  8
A-CASE-1
 10
6.591125
 20
11.525184
 11
-6.587155
 21
11.525184
  0
LINE
  8
A-CASE-1
 10
-6.587155
 20
11.525184
 11
-6.587155
 21
-1.653096
  0
LINE
  8
A-CASE-1
 10
-6.587155
 20
-1.653096
 11
6.591125
 21
-1.653096
  0
LINE
  8
A-CASE-1
 10
6.591125
 20
-1.653096
 11
6.591125
 21
11.525184
  0
LINE
  8
A-CASE-1
 10
-17.736944
 20
-5.384176
 11
17.843761
 21
-5.384176
  0
CIRCLE
  8
A-CASE-1
 10
0.001985
 20
5.075015
 40
5.945351
  0
LINE
  8
A-CASE-1
 10
18.029947
 20
-6.079029
 11
13.185582
 21
12.000382
  0
LINE
  8
A-CASE-1
 10
13.185582
 20
12.000382
 11
-13.078766
 21
12.000382
  0
LINE
  8
A-CASE-1
 10
-13.078766
 20
12.000382
 11
-17.923130
 21
-6.079029
  0
LINE
  8
A-CASE-1
 10
-17.923130
 20
-6.079029
 11
18.029947
 21
-6.079029
  0
ENDBLK
  0
BLOCK
  8
A-POWR-1
  2
FIXT-GFI_Out
 70
64
 10
0.0
 20
0.0
  0
CIRCLE
  8
A-POWR-1
 10
-0.006993
 20
-5.734540
 40
3.254864
  0
LINE
  8
A-POWR-1
 10
-1.973961
 20
-8.380580
 11
-1.973961
 21
-0.000000
  0
LINE
  8
A-POWR-1
 10
2.006808
 20
-8.286915
 11
2.006808
 21
-0.000000
  0
TEXT
  8
A-POWR-1
 10
-2.220030
 20
-15.419935
 40
2.125818
  1
GFI
  7
STANDARD
  0
ENDBLK
  0
BLOCK
  8
A-POWR-1
  2
FIXT-WP_Out
 70
64
 10
0.0
 20
0.0
  0
CIRCLE
  8
A-POWR-1
 10
-0.006993
 20
-5.734540
 40
3.254864
  0
LINE
  8
A-POWR-1
 10
-1.973961
 20
-8.380580
 11
-1.973961
 21
-0.000000
  0
LINE
  8
A-POWR-1
 10
2.006808
 20
-8.286915
 11
2.006808
 21
-0.000000
  0
TEXT
  8
A-POWR-1
 10
-2.260667
 20
-15.419935
 40
2.125818
  1
WP
  7
STANDARD
  0
ENDBLK
  0
BLOCK
  8
A-POWR-1
  2
FIXT-3_Way
 70
64
 10
0.0
 20
0.0
  0
LINE
  8
A-POWR-1
 10
1.506088
 20
-2.396511
 11
-2.053707
 21
-2.396511
  0
ARC
  8
A-POWR-1
 10
-2.053707
 20
-4.016987
 40
1.620476
 50
90.000000
 51
181.041633
  0
ARC
  8
A-POWR-1
 10
-1.993710
 20
-4.015897
 40
1.680484
 50
181.041622
 51
270.000000
  0
LINE
  8
A-POWR-1
 10
-1.993710
 20
-5.696380
 11
-0.263288
 21
-5.696380
  0
ARC
  8
A-POWR-1
 10
-0.173292
 20
-7.420123
 40
1.636124
 50
270.000000
 51
1.534338
  0
ARC
  8
A-POWR-1
 10
-0.263288
 20
-7.422534
 40
1.726153
 50
1.534347
 51
90.000000
  0
LINE
  8
A-POWR-1
 10
-0.173292
 20
-9.056247
 11
-3.662938
 21
-9.056247
  0
LINE
  8
A-POWR-1
 10
-1.156680
 20
-0.026605
 11
-1.156680
 21
-11.036168
  0
TEXT
  8
A-POWR-1
 10
0.455396
 20
-14.297986
 40
2.550982
  1
3
  7
STANDARD
  0
ENDBLK
  0
BLOCK
  8
A-POWR-1
  2
FIXT-4_Way
 70
64
 10
0.0
 20
0.0
  0
LINE
  8
A-POWR-1
 10
1.506088
 20
-2.396511
 11
-2.053707
 21
-2.396511
  0
ARC
  8
A-POWR-1
 10
-2.053707
 20
-4.016987
 40
1.620476
 50
90.000000
 51
181.041633
  0
ARC
  8
A-POWR-1
 10
-1.993710
 20
-4.015897
 40
1.680484
 50
181.041622
 51
270.000000
  0
LINE
  8
A-POWR-1
 10
-1.993710
 20
-5.696380
 11
-0.263288
 21
-5.696380
  0
ARC
  8
A-POWR-1
 10
-0.173292
 20
-7.420123
 40
1.636124
 50
270.000000
 51
1.534338
  0
ARC
  8
A-POWR-1
 10
-0.263288
 20
-7.422534
 40
1.726153
 50
1.534347
 51
90.000000
  0
LINE
  8
A-POWR-1
 10
-0.173292
 20
-9.056247
 11
-3.662938
 21
-9.056247
  0
LINE
  8
A-POWR-1
 10
-1.156680
 20
-0.026605
 11
-1.156680
 21
-11.036168
  0
TEXT
  8
A-POWR-1
 10
0.455396
 20
-14.297986
 40
2.550982
  1
4
  7
STANDARD
  0
ENDBLK
  0
BLOCK
  8
A-POWR-1
  2
FIXT-5_Way
 70
64
 10
0.0
 20
0.0
  0
LINE
  8
A-POWR-1
 10
1.506088
 20
-2.396511
 11
-2.053707
 21
-2.396511
  0
ARC
  8
A-POWR-1
 10
-2.053707
 20
-4.016987
 40
1.620476
 50
90.000000
 51
181.041633
  0
ARC
  8
A-POWR-1
 10
-1.993710
 20
-4.015897
 40
1.680484
 50
181.041622
 51
270.000000
  0
LINE
  8
A-POWR-1
 10
-1.993710
 20
-5.696380
 11
-0.263288
 21
-5.696380
  0
ARC
  8
A-POWR-1
 10
-0.173292
 20
-7.420123
 40
1.636124
 50
270.000000
 51
1.534338
  0
ARC
  8
A-POWR-1
 10
-0.263288
 20
-7.422534
 40
1.726153
 50
1.534347
 51
90.000000
  0
LINE
  8
A-POWR-1
 10
-0.173292
 20
-9.056247
 11
-3.662938
 21
-9.056247
  0
LINE
  8
A-POWR-1
 10
-1.156680
 20
-0.026605
 11
-1.156680
 21
-11.036168
  0
TEXT
  8
A-POWR-1
 10
0.455396
 20
-14.297986
 40
2.550982
  1
5
  7
STANDARD
  0
ENDBLK
  0
ENDSEC
  0
SECTION
  2
ENTITIES
  0
LINE
  8
A-WALL-1
 10
-270.000000
 20
-280.000000
 11
-270.000000
 21
-259.000000
  0
LINE
  8
A-WALL-1
 10
-274.000000
 20
-255.000000
 11
-274.000000
 21
-280.000000
  0
LINE
  8
A-WALL-1
 10
-270.000000
 20
-416.000000
 11
-270.000000
 21
-312.000000
  0
LINE
  8
A-WALL-1
 10
-274.000000
 20
-312.000000
 11
-274.000000
 21
-416.000000
  0
LINE
  8
A-WALL-1
 10
-270.000000
 20
-468.000000
 11
-270.000000
 21
-448.000000
  0
LINE
  8
A-WALL-1
 10
-270.000000
 20
-519.000000
 11
-270.000000
 21
-472.000000
  0
LINE
  8
A-WALL-1
 10
-274.000000
 20
-448.000000
 11
-274.000000
 21
-519.000000
  0
LINE
  8
A-WALL-1
 10
-270.000000
 20
-602.000000
 11
-270.000000
 21
-555.000000
  0
LINE
  8
A-WALL-1
 10
-274.000000
 20
-555.000000
 11
-274.000000
 21
-602.000000
  0
LINE
  8
A-GLAZ-1
 10
-274.000000
 20
-280.000000
 11
-270.000000
 21
-280.000000
  0
LINE
  8
A-GLAZ-1
 10
-270.000000
 20
-312.000000
 11
-274.000000
 21
-312.000000
  0
LINE
  8
A-GLAZ-1
 10
-270.000000
 20
-312.000000
 11
-270.000000
 21
-280.000000
  0
LINE
  8
A-GLAZ-1
 10
-274.000000
 20
-280.000000
 11
-274.000000
 21
-312.000000
  0
LINE
  8
A-GLAZ-1
 10
-272.000000
 20
-280.000000
 11
-272.000000
 21
-312.000000
  0
TEXT
  8
A-DIMS-1
 10
-278.476311
 20
-305.509035
 40
5.527127
  1
2862
 50
90.000000
  7
STANDARD
  0
LINE
  8
A-GLAZ-1
 10
-274.000000
 20
-416.000000
 11
-270.000000
 21
-416.000000
  0
LINE
  8
A-GLAZ-1
 10
-270.000000
 20
-448.000000
 11
-274.000000
 21
-448.000000
  0
LINE
  8
A-GLAZ-1
 10
-270.000000
 20
-448.000000
 11
-270.000000
 21
-416.000000
  0
LINE
  8
A-GLAZ-1
 10
-274.000000
 20
-416.000000
 11
-274.000000
 21
-448.000000
  0
LINE
  8
A-GLAZ-1
 10
-272.000000
 20
-416.000000
 11
-272.000000
 21
-448.000000
  0
TEXT
  8
A-DIMS-1
 10
-278.476311
 20
-441.509035
 40
5.527127
  1
2862
 50
90.000000
  7
STANDARD
  0
LINE
  8
A-GLAZ-1
 10
-274.000000
 20
-519.000000
 11
-270.000000
 21
-519.000000
  0
LINE
  8
A-GLAZ-1
 10
-270.000000
 20
-555.000000
 11
-274.000000
 21
-555.000000
  0
LINE
  8
A-GLAZ-1
 10
-270.000000
 20
-555.000000
 11
-270.000000
 21
-519.000000
  0
LINE
  8
A-GLAZ-1
 10
-274.000000
 20
-519.000000
 11
-274.000000
 21
-555.000000
  0
LINE
  8
A-GLAZ-1
 10
-272.000000
 20
-519.000000
 11
-272.000000
 21
-555.000000
  0
TEXT
  8
A-DIMS-1
 10
-278.476311
 20
-546.509035
 40
5.527127
  1
3074
 50
90.000000
  7
STANDARD
  0
LINE
  8
A-WALL-1
 10
-171.600937
 20
-608.000000
 11
-171.600937
 21
-602.000000
  0
LINE
  8
A-WALL-1
 10
-274.000000
 20
-602.000000
 11
-286.630371
 21
-602.000000
  0
LINE
  8
A-WALL-1
 10
-286.973511
 20
-608.000000
 11
-252.000000
 21
-608.000000
  0
LINE
  8
A-WALL-1
 10
-248.000000
 20
-608.000000
 11
-178.000000
 21
-608.000000
  0
LINE
  8
A-WALL-1
 10
-171.600937
 20
-602.000000
 11
-270.000000
 21
-602.000000
  0
LINE
  8
A-WALL-1
 10
-174.000000
 20
-608.000000
 11
-171.600937
 21
-608.000000
  0
LINE
  8
A-WALL-1
 10
-252.000000
 20
-666.000000
 11
-178.000000
 21
-666.000000
  0
LINE
  8
A-WALL-1
 10
-178.000000
 20
-662.000000
 11
-248.000000
 21
-662.000000
  0
LINE
  8
A-WALL-1
 10
78.000000
 20
-839.000000
 11
102.000000
 21
-839.000000
  0
LINE
  8
A-WALL-1
 10
98.000000
 20
-835.000000
 11
78.000000
 21
-835.000000
  0
LINE
  8
A-WALL-1
 10
-42.000000
 20
-839.000000
 11
-18.000000
 21
-839.000000
  0
LINE
  8
A-WALL-1
 10
-18.000000
 20
-835.000000
 11
-38.000000
 21
-835.000000
  0
LINE
  8
A-GLAZ-1
 10
78.000000
 20
-839.000000
 11
78.000000
 21
-835.000000
  0
LINE
  8
A-GLAZ-1
 10
-18.000000
 20
-839.000000
 11
-18.000000
 21
-835.000000
  0
LINE
  8
A-GLAZ-1
  6
DASHED
 10
78.000000
 20
-835.000000
 11
-18.000000
 21
-835.000000
  0
LINE
  8
A-GLAZ-1
  6
DASHED
 10
78.000000
 20
-758.920000
 11
-18.000000
 21
-758.920000
  0
LINE
  8
A-GLAZ-1
  6
DASHED
 10
78.000000
 20
-835.000000
 11
78.000000
 21
-758.920000
  0
LINE
  8
A-GLAZ-1
  6
DASHED
 10
-18.000000
 20
-835.000000
 11
-18.000000
 21
-758.920000
  0
LINE
  8
A-GLAZ-1
 10
78.000000
 20
-839.000000
 11
-18.000000
 21
-839.000000
  0
TEXT
  8
A-DIMS-1
 10
20.490965
 20
-848.759109
 40
5.527127
  1
8070
  7
STANDARD
  0
LINE
  8
A-WALL-1
 10
98.000000
 20
-805.000000
 11
98.000000
 21
-835.000000
  0
LINE
  8
A-WALL-1
 10
102.000000
 20
-839.000000
 11
102.000000
 21
-809.000000
  0
LINE
  8
A-WALL-1
 10
212.000000
 20
-809.000000
 11
230.000000
 21
-809.000000
  0
LINE
  8
A-WALL-1
 10
226.000000
 20
-805.000000
 11
212.000000
 21
-805.000000
  0
LINE
  8
A-WALL-1
 10
102.000000
 20
-809.000000
 11
116.000000
 21
-809.000000
  0
LINE
  8
A-WALL-1
 10
116.000000
 20
-805.000000
 11
98.000000
 21
-805.000000
  0
LINE
  8
A-GLAZ-1
 10
212.000000
 20
-809.000000
 11
212.000000
 21
-805.000000
  0
LINE
  8
A-GLAZ-1
 10
116.000000
 20
-809.000000
 11
116.000000
 21
-805.000000
  0
LINE
  8
A-GLAZ-1
  6
DASHED
 10
212.000000
 20
-805.000000
 11
116.000000
 21
-805.000000
  0
LINE
  8
A-GLAZ-1
  6
DASHED
 10
212.000000
 20
-728.920000
 11
116.000000
 21
-728.920000
  0
LINE
  8
A-GLAZ-1
  6
DASHED
 10
212.000000
 20
-805.000000
 11
212.000000
 21
-728.920000
  0
LINE
  8
A-GLAZ-1
  6
DASHED
 10
116.000000
 20
-805.000000
 11
116.000000
 21
-728.920000
  0
LINE
  8
A-GLAZ-1
 10
212.000000
 20
-809.000000
 11
116.000000
 21
-809.000000
  0
TEXT
  8
A-DIMS-1
 10
154.490965
 20
-818.759109
 40
5.527127
  1
8070
  7
STANDARD
  0
LINE
  8
A-WALL-1
 10
226.000000
 20
-259.000000
 11
226.000000
 21
-415.000000
  0
LINE
  8
A-WALL-1
 10
230.000000
 20
-433.000000
 11
230.000000
 21
-255.000000
  0
LINE
  8
A-WALL-1
 10
226.000000
 20
-419.000000
 11
226.000000
 21
-434.656860
  0
LINE
  8
A-WALL-1
 10
226.000000
 20
-541.343140
 11
226.000000
 21
-563.000000
  0
LINE
  8
A-WALL-1
 10
230.000000
 20
-571.000000
 11
230.000000
 21
-543.000000
  0
LINE
  8
A-WALL-1
 10
226.000000
 20
-567.000000
 11
226.000000
 21
-571.000000
  0
LINE
  8
A-WALL-1
 10
230.000000
 20
-809.000000
 11
230.000000
 21
-609.000000
  0
LINE
  8
A-WALL-1
 10
226.000000
 20
-609.000000
 11
226.000000
 21
-805.000000
  0
LINE
  8
A-WALL-1
 10
230.000000
 20
-433.000000
 11
233.459262
 21
-436.459262
  0
LINE
  8
A-WALL-1
 10
250.429825
 20
-453.429825
 11
254.000000
 21
-457.000000
  0
LINE
  8
A-WALL-1
 10
226.000000
 20
-434.656854
 11
230.630835
 21
-439.287689
  0
LINE
  8
A-WALL-1
 10
247.601398
 20
-456.258252
 11
250.000000
 21
-458.656854
  0
LINE
  8
A-GLAZ-1
 10
250.429825
 20
-453.429825
 11
247.601398
 21
-456.258252
  0
LINE
  8
A-GLAZ-1
 10
230.630835
 20
-439.287689
 11
233.459262
 21
-436.459262
  0
LINE
  8
A-GLAZ-1
 10
230.630835
 20
-439.287689
 11
247.601398
 21
-456.258252
  0
LINE
  8
A-GLAZ-1
 10
250.429825
 20
-453.429825
 11
233.459262
 21
-436.459262
  0
LINE
  8
A-GLAZ-1
 10
249.015611
 20
-454.844039
 11
232.045049
 21
-437.873476
  0
LINE
  8
A-WALL-1
 10
230.000000
 20
-543.000000
 11
232.752155
 21
-540.247845
  0
LINE
  8
A-WALL-1
 10
251.136932
 20
-521.863068
 11
254.000000
 21
-519.000000
  0
LINE
  8
A-WALL-1
 10
226.000000
 20
-541.343146
 11
229.923728
 21
-537.419417
  0
LINE
  8
A-WALL-1
 10
248.308505
 20
-519.034641
 11
250.000000
 21
-517.343146
  0
LINE
  8
A-GLAZ-1
 10
232.752155
 20
-540.247845
 11
229.923728
 21
-537.419417
  0
LINE
  8
A-GLAZ-1
 10
248.308505
 20
-519.034641
 11
251.136932
 21
-521.863068
  0
LINE
  8
A-GLAZ-1
 10
248.308505
 20
-519.034641
 11
229.923728
 21
-537.419417
  0
LINE
  8
A-GLAZ-1
 10
232.752155
 20
-540.247845
 11
251.136932
 21
-521.863068
  0
LINE
  8
A-GLAZ-1
 10
231.337942
 20
-538.833631
 11
249.722718
 21
-520.448855
  0
LINE
  8
A-WALL-1
 10
254.000000
 20
-457.000000
 11
254.000000
 21
-461.000000
  0
LINE
  8
A-WALL-1
 10
254.000000
 20
-515.000000
 11
254.000000
 21
-519.000000
  0
LINE
  8
A-WALL-1
 10
250.000000
 20
-458.656854
 11
250.000000
 21
-461.000000
  0
LINE
  8
A-WALL-1
 10
250.000000
 20
-515.000000
 11
250.000000
 21
-517.343146
  0
LINE
  8
A-GLAZ-1
 10
254.000000
 20
-515.000000
 11
250.000000
 21
-515.000000
  0
LINE
  8
A-GLAZ-1
 10
250.000000
 20
-461.000000
 11
254.000000
 21
-461.000000
  0
LINE
  8
A-GLAZ-1
 10
250.000000
 20
-461.000000
 11
250.000000
 21
-515.000000
  0
LINE
  8
A-GLAZ-1
 10
254.000000
 20
-515.000000
 11
254.000000
 21
-461.000000
  0
LINE
  8
A-GLAZ-1
 10
252.000000
 20
-515.000000
 11
252.000000
 21
-461.000000
  0
LINE
  8
A-DIMS-1
 10
238.920000
 20
-433.000000
 11
232.920000
 21
-433.000000
  0
LINE
  8
A-DIMS-1
 10
234.420000
 20
-436.000000
 11
235.920000
 21
-433.000000
  0
LINE
  8
A-DIMS-1
 10
238.920000
 20
-543.000000
 11
232.920000
 21
-543.000000
  0
LINE
  8
A-DIMS-1
 10
237.420000
 20
-540.000000
 11
235.920000
 21
-543.000000
  0
LINE
  8
A-DIMS-1
 10
235.920000
 20
-479.701056
 11
235.920000
 21
-433.000000
  0
LINE
  8
A-DIMS-1
 10
235.920000
 20
-496.298944
 11
235.920000
 21
-543.000000
  0
TEXT
  8
A-DIMS-1
 10
238.561399
 20
-493.546937
 40
5.527127
  1
9'2
 50
90.000000
  7
STANDARD
  0
LINE
  8
A-DIMS-1
 10
233.000000
 20
-416.500000
 11
230.000000
 21
-415.000000
  0
LINE
  8
A-DIMS-1
 10
254.000000
 20
-412.000000
 11
254.000000
 21
-428.000000
  0
LINE
  8
A-DIMS-1
 10
251.000000
 20
-413.500000
 11
254.000000
 21
-415.000000
  0
LINE
  8
A-DIMS-1
 10
236.078314
 20
-415.000000
 11
230.000000
 21
-415.000000
  0
LINE
  8
A-DIMS-1
 10
247.921686
 20
-415.000000
 11
254.000000
 21
-415.000000
  0
TEXT
  8
A-DIMS-1
 10
238.830322
 20
-417.641399
 40
5.527127
  1
2'
  7
STANDARD
  0
LINE
  8
A-DIMS-1
 10
247.000000
 20
-457.000000
 11
241.000000
 21
-457.000000
  0
LINE
  8
A-DIMS-1
 10
242.500000
 20
-460.000000
 11
244.000000
 21
-457.000000
  0
LINE
  8
A-DIMS-1
 10
247.000000
 20
-519.000000
 11
241.000000
 21
-519.000000
  0
LINE
  8
A-DIMS-1
 10
245.500000
 20
-516.000000
 11
244.000000
 21
-519.000000
  0
LINE
  8
A-DIMS-1
 10
244.000000
 20
-479.701056
 11
244.000000
 21
-457.000000
  0
LINE
  8
A-DIMS-1
 10
244.000000
 20
-496.298944
 11
244.000000
 21
-519.000000
  0
TEXT
  8
A-DIMS-1
 10
246.641399
 20
-493.546937
 40
5.527127
  1
5'2
 50
90.000000
  7
STANDARD
  0
TEXT
  8
A-DIMS-1
 10
238.385870
 20
-435.055410
 40
5.527127
  1
2062
 50
-44.900000
  7
STANDARD
  0
TEXT
  8
A-DIMS-1
 10
242.121373
 20
-544.680092
 40
5.527127
  1
2262
 50
44.900000
  7
STANDARD
  0
TEXT
  8
A-DIMS-1
 10
263.759109
 20
-497.509035
 40
5.527127
  1
4662
 50
90.000000
  7
STANDARD
  0
LINE
  8
A-GLAZ-1
 10
230.000000
 20
-571.000000
 11
226.000000
 21
-571.000000
  0
LINE
  8
A-GLAZ-1
 10
230.000000
 20
-609.000000
 11
226.000000
 21
-609.000000
  0
LINE
  8
A-GLAZ-1
 10
226.000000
 20
-571.000000
 11
188.000000
 21
-571.000000
  0
LINE
  8
A-GLAZ-1
 10
188.000000
 20
-572.750000
 11
226.000000
 21
-572.750000
  0
LINE
  8
A-GLAZ-1
 10
226.000000
 20
-572.750000
 11
226.000000
 21
-571.000000
  0
ARC
  8
A-GLAZ-1
 10
226.000000
 20
-571.000000
 40
38.000000
 50
180.000000
 51
270.000000
  0
LINE
  8
A-GLAZ-1
 10
230.000000
 20
-571.000000
 11
230.000000
 21
-609.000000
  0
TEXT
  8
A-DIMS-1
 10
239.759109
 20
-599.509035
 40
5.527127
  1
3268
 50
90.000000
  7
STANDARD
  0
LINE
  8
A-WALL-1
 10
-242.000000
 20
-255.000000
 11
-274.000000
 21
-255.000000
  0
LINE
  8
A-WALL-1
 10
-270.000000
 20
-259.000000
 11
-240.343140
 21
-259.000000
  0
LINE
  8
A-WALL-1
 10
-114.000000
 20
-255.000000
 11
-146.000000
 21
-255.000000
  0
LINE
  8
A-WALL-1
 10
-147.656860
 20
-259.000000
 11
-114.000000
 21
-259.000000
  0
LINE
  8
A-WALL-1
 10
-242.000000
 20
-255.000000
 11
-239.247845
 21
-252.247845
  0
LINE
  8
A-WALL-1
 10
-220.863068
 20
-233.863068
 11
-218.000000
 21
-231.000000
  0
LINE
  8
A-WALL-1
 10
-240.343146
 20
-259.000000
 11
-236.419417
 21
-255.076272
  0
LINE
  8
A-WALL-1
 10
-218.034641
 20
-236.691495
 11
-216.343146
 21
-235.000000
  0
LINE
  8
A-GLAZ-1
 10
-220.863068
 20
-233.863068
 11
-218.034641
 21
-236.691495
  0
LINE
  8
A-GLAZ-1
 10
-236.419417
 20
-255.076272
 11
-239.247845
 21
-252.247845
  0
LINE
  8
A-GLAZ-1
 10
-236.419417
 20
-255.076272
 11
-218.034641
 21
-236.691495
  0
LINE
  8
A-GLAZ-1
 10
-220.863068
 20
-233.863068
 11
-239.247845
 21
-252.247845
  0
LINE
  8
A-GLAZ-1
 10
-219.448855
 20
-235.277282
 11
-237.833631
 21
-253.662058
  0
LINE
  8
A-WALL-1
 10
-146.000000
 20
-255.000000
 11
-148.752155
 21
-252.247845
  0
LINE
  8
A-WALL-1
 10
-167.136932
 20
-233.863068
 11
-170.000000
 21
-231.000000
  0
LINE
  8
A-WALL-1
 10
-147.656854
 20
-259.000000
 11
-151.580583
 21
-255.076272
  0
LINE
  8
A-WALL-1
 10
-169.965359
 20
-236.691495
 11
-171.656854
 21
-235.000000
  0
LINE
  8
A-GLAZ-1
 10
-148.752155
 20
-252.247845
 11
-151.580583
 21
-255.076272
  0
LINE
  8
A-GLAZ-1
 10
-169.965359
 20
-236.691495
 11
-167.136932
 21
-233.863068
  0
LINE
  8
A-GLAZ-1
 10
-169.965359
 20
-236.691495
 11
-151.580583
 21
-255.076272
  0
LINE
  8
A-GLAZ-1
 10
-148.752155
 20
-252.247845
 11
-167.136932
 21
-233.863068
  0
LINE
  8
A-GLAZ-1
 10
-150.166369
 20
-253.662058
 11
-168.551145
 21
-235.277282
  0
LINE
  8
A-WALL-1
 10
-218.000000
 20
-231.000000
 11
-214.000000
 21
-231.000000
  0
LINE
  8
A-WALL-1
 10
-174.000000
 20
-231.000000
 11
-170.000000
 21
-231.000000
  0
LINE
  8
A-WALL-1
 10
-216.343146
 20
-235.000000
 11
-214.000000
 21
-235.000000
  0
LINE
  8
A-WALL-1
 10
-174.000000
 20
-235.000000
 11
-171.656854
 21
-235.000000
  0
LINE
  8
A-GLAZ-1
 10
-174.000000
 20
-231.000000
 11
-174.000000
 21
-235.000000
  0
LINE
  8
A-GLAZ-1
 10
-214.000000
 20
-235.000000
 11
-214.000000
 21
-231.000000
  0
LINE
  8
A-GLAZ-1
 10
-214.000000
 20
-235.000000
 11
-174.000000
 21
-235.000000
  0
LINE
  8
A-GLAZ-1
 10
-174.000000
 20
-231.000000
 11
-214.000000
 21
-231.000000
  0
LINE
  8
A-GLAZ-1
 10
-174.000000
 20
-233.000000
 11
-214.000000
 21
-233.000000
  0
LINE
  8
A-WALL-1
 10
-242.000000
 20
-259.000000
 11
-146.000000
 21
-259.000000
  0
LINE
  8
A-DIMS-1
 10
-242.000000
 20
-246.080000
 11
-242.000000
 21
-252.080000
  0
LINE
  8
A-DIMS-1
 10
-239.000000
 20
-250.580000
 11
-242.000000
 21
-249.080000
  0
LINE
  8
A-DIMS-1
 10
-146.000000
 20
-246.080000
 11
-146.000000
 21
-252.080000
  0
LINE
  8
A-DIMS-1
 10
-149.000000
 20
-247.580000
 11
-146.000000
 21
-249.080000
  0
LINE
  8
A-DIMS-1
 10
-199.921686
 20
-249.080000
 11
-242.000000
 21
-249.080000
  0
LINE
  8
A-DIMS-1
 10
-188.078314
 20
-249.080000
 11
-146.000000
 21
-249.080000
  0
TEXT
  8
A-DIMS-1
 10
-197.169678
 20
-251.721399
 40
5.527127
  1
8'
  7
STANDARD
  0
LINE
  8
A-DIMS-1
 10
-258.500000
 20
-252.000000
 11
-260.000000
 21
-255.000000
  0
LINE
  8
A-DIMS-1
 10
-263.000000
 20
-231.000000
 11
-247.000000
 21
-231.000000
  0
LINE
  8
A-DIMS-1
 10
-261.500000
 20
-234.000000
 11
-260.000000
 21
-231.000000
  0
LINE
  8
A-DIMS-1
 10
-260.000000
 20
-248.921686
 11
-260.000000
 21
-255.000000
  0
LINE
  8
A-DIMS-1
 10
-260.000000
 20
-237.078314
 11
-260.000000
 21
-231.000000
  0
TEXT
  8
A-DIMS-1
 10
-257.358601
 20
-246.169678
 40
5.527127
  1
2'
 50
90.000000
  7
STANDARD
  0
LINE
  8
A-DIMS-1
 10
-218.000000
 20
-238.000000
 11
-218.000000
 21
-244.000000
  0
LINE
  8
A-DIMS-1
 10
-215.000000
 20
-242.500000
 11
-218.000000
 21
-241.000000
  0
LINE
  8
A-DIMS-1
 10
-170.000000
 20
-238.000000
 11
-170.000000
 21
-244.000000
  0
LINE
  8
A-DIMS-1
 10
-173.000000
 20
-239.500000
 11
-170.000000
 21
-241.000000
  0
LINE
  8
A-DIMS-1
 10
-199.921686
 20
-241.000000
 11
-218.000000
 21
-241.000000
  0
LINE
  8
A-DIMS-1
 10
-188.078314
 20
-241.000000
 11
-170.000000
 21
-241.000000
  0
TEXT
  8
A-DIMS-1
 10
-197.169678
 20
-243.641399
 40
5.527127
  1
4'
  7
STANDARD
  0
TEXT
  8
A-DIMS-1
 10
-239.944590
 20
-246.614130
 40
5.527127
  1
2260
 50
45.000000
  7
STANDARD
  0
TEXT
  8
A-DIMS-1
 10
-161.503217
 20
-233.166323
 40
5.527127
  1
2260
 50
314.900000
  7
STANDARD
  0
TEXT
  8
A-DIMS-1
 10
-203.509035
 20
-226.523689
 40
5.527127
  1
3460
  7
STANDARD
  0
LINE
  8
A-WALL-1
 10
-110.000000
 20
-105.000000
 11
-110.000000
 21
-99.000000
  0
LINE
  8
A-WALL-1
 10
-114.000000
 20
-95.000000
 11
-114.000000
 21
-105.000000
  0
LINE
  8
A-WALL-1
 10
-114.000000
 20
-141.000000
 11
-114.000000
 21
-255.000000
  0
LINE
  8
A-WALL-1
 10
-110.000000
 20
-264.000000
 11
-110.000000
 21
-141.000000
  0
LINE
  8
A-WALL-1
 10
-114.000000
 20
-259.000000
 11
-114.000000
 21
-264.000000
  0
LINE
  8
A-WALL-1
 10
-110.000000
 20
-409.000000
 11
-110.000000
 21
-302.000000
  0
LINE
  8
A-WALL-1
 10
-114.000000
 20
-302.000000
 11
-114.000000
 21
-409.000000
  0
LINE
  8
A-GLAZ-1
 10
-114.000000
 20
-105.000000
 11
-110.000000
 21
-105.000000
  0
LINE
  8
A-GLAZ-1
 10
-110.000000
 20
-141.000000
 11
-114.000000
 21
-141.000000
  0
LINE
  8
A-GLAZ-1
 10
-110.000000
 20
-141.000000
 11
-110.000000
 21
-105.000000
  0
LINE
  8
A-GLAZ-1
 10
-114.000000
 20
-105.000000
 11
-114.000000
 21
-141.000000
  0
LINE
  8
A-GLAZ-1
 10
-112.000000
 20
-105.000000
 11
-112.000000
 21
-141.000000
  0
TEXT
  8
A-DIMS-1
 10
-118.476311
 20
-132.509035
 40
5.527127
  1
3068
 50
90.000000
  7
STANDARD
  0
LINE
  8
A-GLAZ-1
 10
-110.000000
 20
-264.000000
 11
-114.000000
 21
-264.000000
  0
LINE
  8
A-GLAZ-1
 10
-110.000000
 20
-302.000000
 11
-114.000000
 21
-302.000000
  0
TEXT
  8
A-DIMS-1
 10
-109.358601
 20
-292.509035
 40
5.527127
  1
3278
 50
90.000000
  7
STANDARD
  0
LINE
  8
A-WALL-1
  6
DOTTED
 10
70.000000
 20
-259.000000
 11
204.000000
 21
-259.000000
  0
LINE
  8
A-WALL-1
  6
DOTTED
 10
202.000000
 20
-257.000000
 11
72.000000
 21
-257.000000
  0
LINE
  8
A-WALL-1
 10
202.000000
 20
-231.000000
 11
202.000000
 21
-259.000000
  0
LINE
  8
A-WALL-1
 10
206.000000
 20
-255.000000
 11
206.000000
 21
-231.000000
  0
LINE
  8
A-WALL-1
 10
202.000000
 20
-175.000000
 11
202.000000
 21
-199.000000
  0
LINE
  8
A-WALL-1
 10
206.000000
 20
-199.000000
 11
206.000000
 21
-171.000000
  0
LINE
  8
A-GLAZ-1
 10
206.000000
 20
-231.000000
 11
202.000000
 21
-231.000000
  0
LINE
  8
A-GLAZ-1
 10
202.000000
 20
-199.000000
 11
206.000000
 21
-199.000000
  0
LINE
  8
A-GLAZ-1
 10
202.000000
 20
-199.000000
 11
202.000000
 21
-231.000000
  0
LINE
  8
A-GLAZ-1
 10
206.000000
 20
-231.000000
 11
206.000000
 21
-199.000000
  0
LINE
  8
A-GLAZ-1
 10
204.000000
 20
-231.000000
 11
204.000000
 21
-199.000000
  0
TEXT
  8
A-DIMS-1
 10
215.759109
 20
-224.509035
 40
5.527127
  1
2852
 50
90.000000
  7
STANDARD
  0
LINE
  8
A-WALL-1
 10
187.000000
 20
-175.000000
 11
202.000000
 21
-175.000000
  0
LINE
  8
A-WALL-1
 10
206.000000
 20
-171.000000
 11
187.000000
 21
-171.000000
  0
LINE
  8
A-WALL-1
 10
70.000000
 20
-175.000000
 11
93.000000
 21
-175.000000
  0
LINE
  8
A-WALL-1
 10
93.000000
 20
-171.000000
 11
74.000000
 21
-171.000000
  0
LINE
  8
A-GLAZ-1
 10
187.000000
 20
-171.000000
 11
187.000000
 21
-175.000000
  0
LINE
  8
A-GLAZ-1
 10
157.000000
 20
-175.000000
 11
157.000000
 21
-171.000000
  0
LINE
  8
A-GLAZ-1
 10
157.000000
 20
-171.000000
 11
155.000000
 21
-171.000000
  0
LINE
  8
A-GLAZ-1
 10
157.000000
 20
-175.000000
 11
155.000000
 21
-175.000000
  0
LINE
  8
A-GLAZ-1
 10
157.000000
 20
-175.000000
 11
187.000000
 21
-175.000000
  0
LINE
  8
A-GLAZ-1
 10
187.000000
 20
-171.000000
 11
157.000000
 21
-171.000000
  0
LINE
  8
A-GLAZ-1
 10
187.000000
 20
-173.000000
 11
157.000000
 21
-173.000000
  0
TEXT
  8
A-DIMS-1
 10
162.490965
 20
-166.523689
 40
5.527127
  1
2668
  7
STANDARD
  0
LINE
  8
A-GLAZ-1
 10
155.000000
 20
-171.000000
 11
155.000000
 21
-175.000000
  0
LINE
  8
A-GLAZ-1
 10
125.000000
 20
-175.000000
 11
125.000000
 21
-171.000000
  0
LINE
  8
A-GLAZ-1
 10
125.000000
 20
-171.000000
 11
123.000000
 21
-171.000000
  0
LINE
  8
A-GLAZ-1
 10
125.000000
 20
-175.000000
 11
123.000000
 21
-175.000000
  0
LINE
  8
A-GLAZ-1
 10
125.000000
 20
-175.000000
 11
155.000000
 21
-175.000000
  0
LINE
  8
A-GLAZ-1
 10
155.000000
 20
-171.000000
 11
125.000000
 21
-171.000000
  0
LINE
  8
A-GLAZ-1
 10
155.000000
 20
-173.000000
 11
125.000000
 21
-173.000000
  0
TEXT
  8
A-DIMS-1
 10
130.490965
 20
-166.523689
 40
5.527127
  1
2668
  7
STANDARD
  0
LINE
  8
A-GLAZ-1
 10
123.000000
 20
-175.000000
 11
123.000000
 21
-171.000000
  0
LINE
  8
A-GLAZ-1
 10
93.000000
 20
-175.000000
 11
93.000000
 21
-171.000000
  0
LINE
  8
A-GLAZ-1
 10
123.000000
 20
-175.000000
 11
123.000000
 21
-205.000000
  0
LINE
  8
A-GLAZ-1
 10
121.250000
 20
-205.000000
 11
121.250000
 21
-175.000000
  0
LINE
  8
A-GLAZ-1
 10
121.250000
 20
-175.000000
 11
123.000000
 21
-175.000000
  0
ARC
  8
A-GLAZ-1
 10
123.000000
 20
-175.000000
 40
30.000000
 50
180.000000
 51
270.000000
  0
LINE
  8
A-GLAZ-1
 10
123.000000
 20
-171.000000
 11
93.000000
 21
-171.000000
  0
TEXT
  8
A-DIMS-1
 10
98.490965
 20
-166.523689
 40
5.527127
  1
2668
  7
STANDARD
  0
LINE
  8
A-WALL-1
  6
DOTTED
 10
70.000000
 20
-173.000000
 11
70.000000
 21
-259.000000
  0
LINE
  8
A-WALL-1
  6
DOTTED
 10
72.000000
 20
-257.000000
 11
72.000000
 21
-175.000000
  0
LINE
  8
A-WALL-1
 10
58.000000
 20
-99.000000
 11
70.000000
 21
-99.000000
  0
LINE
  8
A-WALL-1
 10
74.000000
 20
-95.000000
 11
58.000000
 21
-95.000000
  0
LINE
  8
A-WALL-1
 10
-62.000000
 20
-99.000000
 11
22.000000
 21
-99.000000
  0
LINE
  8
A-WALL-1
 10
22.000000
 20
-95.000000
 11
-62.000000
 21
-95.000000
  0
LINE
  8
A-WALL-1
 10
-110.000000
 20
-99.000000
 11
-98.000000
 21
-99.000000
  0
LINE
  8
A-WALL-1
 10
-98.000000
 20
-95.000000
 11
-114.000000
 21
-95.000000
  0
LINE
  8
A-GLAZ-1
 10
58.000000
 20
-95.000000
 11
58.000000
 21
-99.000000
  0
LINE
  8
A-GLAZ-1
 10
22.000000
 20
-99.000000
 11
22.000000
 21
-95.000000
  0
LINE
  8
A-GLAZ-1
 10
22.000000
 20
-99.000000
 11
58.000000
 21
-99.000000
  0
LINE
  8
A-GLAZ-1
 10
58.000000
 20
-95.000000
 11
22.000000
 21
-95.000000
  0
LINE
  8
A-GLAZ-1
 10
58.000000
 20
-97.000000
 11
22.000000
 21
-97.000000
  0
TEXT
  8
A-DIMS-1
 10
30.490965
 20
-90.523689
 40
5.527127
  1
3062
  7
STANDARD
  0
LINE
  8
A-GLAZ-1
 10
-62.000000
 20
-95.000000
 11
-62.000000
 21
-99.000000
  0
LINE
  8
A-GLAZ-1
 10
-98.000000
 20
-99.000000
 11
-98.000000
 21
-95.000000
  0
LINE
  8
A-GLAZ-1
 10
-98.000000
 20
-99.000000
 11
-62.000000
 21
-99.000000
  0
LINE
  8
A-GLAZ-1
 10
-62.000000
 20
-95.000000
 11
-98.000000
 21
-95.000000
  0
LINE
  8
A-GLAZ-1
 10
-62.000000
 20
-97.000000
 11
-98.000000
 21
-97.000000
  0
TEXT
  8
A-DIMS-1
 10
-89.509035
 20
-90.523689
 40
5.527127
  1
3062
  7
STANDARD
  0
LINE
  8
A-WALL-1
 10
-172.429367
 20
-468.000000
 11
-270.000000
 21
-468.000000
  0
LINE
  8
A-WALL-1
 10
-270.000000
 20
-472.000000
 11
-173.600937
 21
-472.000000
  0
LINE
  8
A-WALL-1
 10
-163.115662
 20
-458.686279
 11
-172.429367
 21
-468.000000
  0
LINE
  8
A-WALL-1
 10
-169.600937
 20
-470.828430
 11
-160.287231
 21
-461.514709
  0
LINE
  8
A-WALL-1
 10
-113.429367
 20
-409.000000
 11
-120.689247
 21
-416.259888
  0
LINE
  8
A-WALL-1
 10
-117.860825
 20
-419.088318
 11
-111.772514
 21
-413.000000
  0
LINE
  8
A-GLAZ-1
 10
-163.115657
 20
-458.686292
 11
-160.287230
 21
-461.514719
  0
LINE
  8
A-GLAZ-1
 10
-120.689250
 20
-416.259885
 11
-117.860823
 21
-419.088312
  0
TEXT
  8
A-DIMS-1
 10
-145.344392
 20
-447.478956
 40
5.527127
  1
5078
 50
45.000000
  7
STANDARD
  0
LINE
  8
A-WALL-1
 10
106.500000
 20
-419.000000
 11
226.000000
 21
-419.000000
  0
LINE
  8
A-WALL-1
 10
226.000000
 20
-415.000000
 11
106.500000
 21
-415.000000
  0
LINE
  8
A-WALL-1
 10
68.500000
 20
-415.000000
 11
65.000000
 21
-415.000000
  0
LINE
  8
A-WALL-1
 10
42.000000
 20
-419.000000
 11
68.500000
 21
-419.000000
  0
LINE
  8
A-WALL-1
 10
61.000000
 20
-415.000000
 11
42.000000
 21
-415.000000
  0
LINE
  8
A-GLAZ-1
 10
106.500000
 20
-419.000000
 11
106.500000
 21
-418.000000
  0
LINE
  8
A-GLAZ-1
 10
106.500000
 20
-416.000000
 11
106.500000
 21
-415.000000
  0
LINE
  8
A-GLAZ-1
 10
68.500000
 20
-419.000000
 11
68.500000
 21
-415.000000
  0
LINE
  8
A-GLAZ-1
 10
125.500000
 20
-416.312500
 11
125.500000
 21
-417.687500
  0
LINE
  8
A-GLAZ-1
 10
87.500000
 20
-416.312500
 11
87.500000
 21
-417.687500
  0
LINE
  8
A-GLAZ-1
 10
125.500000
 20
-416.312500
 11
87.500000
 21
-416.312500
  0
LINE
  8
A-GLAZ-1
 10
125.500000
 20
-417.687500
 11
87.500000
 21
-417.687500
  0
TEXT
  8
A-DIMS-1
 10
77.990965
 20
-410.523689
 40
5.527127
  1
3268
  7
STANDARD
  0
LINE
  8
A-WALL-1
 10
38.000000
 20
-570.000000
 11
42.000000
 21
-570.000000
  0
LINE
  8
A-WALL-1
 10
38.000000
 20
-391.000000
 11
38.000000
 21
-399.000000
  0
LINE
  8
A-WALL-1
 10
42.000000
 20
-415.000000
 11
42.000000
 21
-391.000000
  0
LINE
  8
A-WALL-1
 10
38.000000
 20
-403.000000
 11
38.000000
 21
-468.000000
  0
LINE
  8
A-WALL-1
 10
42.000000
 20
-478.000000
 11
42.000000
 21
-419.000000
  0
LINE
  8
A-WALL-1
 10
38.000000
 20
-472.000000
 11
38.000000
 21
-478.000000
  0
LINE
  8
A-WALL-1
 10
38.000000
 20
-532.000000
 11
38.000000
 21
-539.000000
  0
LINE
  8
A-WALL-1
 10
42.000000
 20
-563.000000
 11
42.000000
 21
-532.000000
  0
LINE
  8
A-WALL-1
 10
42.000000
 20
-570.000000
 11
42.000000
 21
-567.000000
  0
LINE
  8
A-WALL-1
 10
38.000000
 20
-543.000000
 11
38.000000
 21
-570.000000
  0
LINE
  8
A-GLAZ-1
 10
42.000000
 20
-478.000000
 11
38.000000
 21
-478.000000
  0
LINE
  8
A-GLAZ-1
 10
42.000000
 20
-532.000000
 11
38.000000
 21
-532.000000
  0
TEXT
  8
A-DIMS-1
 10
42.641399
 20
-514.509035
 40
5.527127
  1
4678
 50
90.000000
  7
STANDARD
  0
LINE
  8
A-WALL-1
 10
226.000000
 20
-563.000000
 11
42.000000
 21
-563.000000
  0
LINE
  8
A-WALL-1
 10
42.000000
 20
-567.000000
 11
226.000000
 21
-567.000000
  0
LINE
  8
A-WALL-1
 10
-6.000000
 20
-387.000000
 11
-13.647619
 21
-387.000000
  0
LINE
  8
A-WALL-1
 10
-11.990766
 20
-391.000000
 11
-6.000000
 21
-391.000000
  0
LINE
  8
A-WALL-1
 10
34.000000
 20
-391.000000
 11
38.000000
 21
-391.000000
  0
LINE
  8
A-WALL-1
 10
65.000000
 20
-387.000000
 11
34.000000
 21
-387.000000
  0
LINE
  8
A-WALL-1
 10
42.000000
 20
-391.000000
 11
61.000000
 21
-391.000000
  0
LINE
  8
A-GLAZ-1
 10
-6.000000
 20
-387.000000
 11
-6.000000
 21
-391.000000
  0
LINE
  8
A-GLAZ-1
 10
34.000000
 20
-387.000000
 11
34.000000
 21
-391.000000
  0
LINE
  8
A-GLAZ-1
 10
-6.000000
 20
-389.000000
 11
1.071068
 21
-381.928932
  0
LINE
  8
A-GLAZ-1
 10
1.071068
 20
-381.928932
 11
2.043340
 21
-382.901204
  0
LINE
  8
A-GLAZ-1
 10
2.043340
 20
-382.901204
 11
-5.027728
 21
-389.972272
  0
LINE
  8
A-GLAZ-1
 10
-5.027728
 20
-389.972272
 11
-6.000000
 21
-389.000000
  0
LINE
  8
A-GLAZ-1
 10
2.043340
 20
-382.901204
 11
9.114407
 21
-389.972272
  0
LINE
  8
A-GLAZ-1
 10
9.114407
 20
-389.972272
 11
10.086679
 21
-389.000000
  0
LINE
  8
A-GLAZ-1
 10
10.086679
 20
-389.000000
 11
3.015611
 21
-381.928932
  0
LINE
  8
A-GLAZ-1
 10
3.015611
 20
-381.928932
 11
2.043340
 21
-382.901204
  0
LINE
  8
A-GLAZ-1
 10
34.000000
 20
-389.000000
 11
26.928932
 21
-381.928932
  0
LINE
  8
A-GLAZ-1
 10
26.928932
 20
-381.928932
 11
25.956660
 21
-382.901204
  0
LINE
  8
A-GLAZ-1
 10
25.956660
 20
-382.901204
 11
33.027728
 21
-389.972272
  0
LINE
  8
A-GLAZ-1
 10
33.027728
 20
-389.972272
 11
34.000000
 21
-389.000000
  0
LINE
  8
A-GLAZ-1
 10
25.956660
 20
-382.901204
 11
18.885593
 21
-389.972272
  0
LINE
  8
A-GLAZ-1
 10
18.885593
 20
-389.972272
 11
17.913321
 21
-389.000000
  0
LINE
  8
A-GLAZ-1
 10
17.913321
 20
-389.000000
 11
24.984389
 21
-381.928932
  0
LINE
  8
A-GLAZ-1
 10
24.984389
 20
-381.928932
 11
25.956660
 21
-382.901204
  0
TEXT
  8
A-DIMS-1
 10
4.490965
 20
-391.641399
 40
5.527127
  1
3468
  7
STANDARD
  0
LINE
  8
A-WALL-1
 10
65.000000
 20
-415.000000
 11
65.000000
 21
-387.000000
  0
LINE
  8
A-WALL-1
 10
61.000000
 20
-391.000000
 11
61.000000
 21
-415.000000
  0
LINE
  8
A-WALL-1
 10
34.000000
 20
-472.000000
 11
38.000000
 21
-472.000000
  0
LINE
  8
A-WALL-1
 10
38.000000
 20
-468.000000
 11
34.000000
 21
-468.000000
  0
LINE
  8
A-WALL-1
 10
-34.000000
 20
-472.000000
 11
-2.000000
 21
-472.000000
  0
LINE
  8
A-WALL-1
 10
-2.000000
 20
-468.000000
 11
-34.000000
 21
-468.000000
  0
LINE
  8
A-GLAZ-1
 10
34.000000
 20
-472.000000
 11
34.000000
 21
-468.000000
  0
LINE
  8
A-GLAZ-1
 10
-2.000000
 20
-472.000000
 11
-2.000000
 21
-468.000000
  0
LINE
  8
A-GLAZ-1
 10
34.000000
 20
-468.000000
 11
34.000000
 21
-432.000000
  0
LINE
  8
A-GLAZ-1
 10
32.625000
 20
-432.000000
 11
32.625000
 21
-468.000000
  0
LINE
  8
A-GLAZ-1
 10
32.625000
 20
-468.000000
 11
34.000000
 21
-468.000000
  0
ARC
  8
A-GLAZ-1
 10
34.000000
 20
-468.000000
 40
36.000000
 50
90.000000
 51
180.000000
  0
TEXT
  8
A-DIMS-1
 10
6.490965
 20
-472.641399
 40
5.527127
  1
3068
  7
STANDARD
  0
LINE
  8
A-WALL-1
 10
-38.000000
 20
-532.000000
 11
-38.000000
 21
-539.000000
  0
LINE
  8
A-WALL-1
 10
-34.000000
 20
-539.000000
 11
-34.000000
 21
-532.000000
  0
LINE
  8
A-WALL-1
 10
-34.000000
 20
-478.000000
 11
-34.000000
 21
-472.000000
  0
LINE
  8
A-WALL-1
 10
-38.000000
 20
-413.000000
 11
-38.000000
 21
-478.000000
  0
LINE
  8
A-WALL-1
 10
-34.000000
 20
-468.000000
 11
-34.000000
 21
-413.000000
  0
LINE
  8
A-GLAZ-1
 10
-38.000000
 20
-532.000000
 11
-34.000000
 21
-532.000000
  0
LINE
  8
A-GLAZ-1
 10
-38.000000
 20
-478.000000
 11
-34.000000
 21
-478.000000
  0
TEXT
  8
A-DIMS-1
 10
-33.358601
 20
-514.509035
 40
5.527127
  1
4678
 50
90.000000
  7
STANDARD
  0
LINE
  8
A-WALL-1
 10
-19.990765
 20
-399.000000
 11
-11.990766
 21
-391.000000
  0
LINE
  8
A-WALL-1
 10
-33.990765
 20
-413.000000
 11
-23.990765
 21
-403.000000
  0
LINE
  8
A-WALL-1
 10
-13.647619
 20
-387.000000
 11
-35.647621
 21
-409.000000
  0
LINE
  8
A-WALL-1
 10
-103.600937
 20
-409.000000
 11
-110.000000
 21
-409.000000
  0
LINE
  8
A-WALL-1
 10
-111.772514
 20
-413.000000
 11
-103.600937
 21
-413.000000
  0
LINE
  8
A-WALL-1
 10
-43.600937
 20
-413.000000
 11
-38.000000
 21
-413.000000
  0
LINE
  8
A-WALL-1
 10
-35.647621
 20
-409.000000
 11
-43.600937
 21
-409.000000
  0
LINE
  8
A-WALL-1
 10
-34.000000
 20
-413.000000
 11
-33.990765
 21
-413.000000
  0
LINE
  8
A-GLAZ-1
 10
-103.600938
 20
-409.000000
 11
-103.600938
 21
-413.000000
  0
LINE
  8
A-GLAZ-1
 10
-43.600938
 20
-409.000000
 11
-43.600938
 21
-413.000000
  0
TEXT
  8
A-DIMS-1
 10
-83.109974
 20
-413.641399
 40
5.527127
  1
5078
  7
STANDARD
  0
LINE
  8
A-WALL-1
 10
-38.000000
 20
-563.000000
 11
-38.000000
 21
-543.000000
  0
LINE
  8
A-WALL-1
 10
-42.000000
 20
-539.000000
 11
-42.000000
 21
-563.000000
  0
LINE
  8
A-WALL-1
 10
-38.000000
 20
-611.000000
 11
-38.000000
 21
-593.000000
  0
LINE
  8
A-WALL-1
 10
-42.000000
 20
-593.000000
 11
-42.000000
 21
-717.000000
  0
LINE
  8
A-WALL-1
 10
-42.000000
 20
-721.000000
 11
-42.000000
 21
-769.000000
  0
LINE
  8
A-WALL-1
 10
-38.000000
 20
-835.000000
 11
-38.000000
 21
-615.000000
  0
LINE
  8
A-WALL-1
 10
-42.000000
 20
-773.000000
 11
-42.000000
 21
-839.000000
  0
LINE
  8
A-GLAZ-1
 10
-38.000000
 20
-563.000000
 11
-42.000000
 21
-563.000000
  0
LINE
  8
A-GLAZ-1
 10
-38.000000
 20
-593.000000
 11
-42.000000
 21
-593.000000
  0
LINE
  8
A-GLAZ-1
 10
-42.000000
 20
-563.000000
 11
-72.000000
 21
-563.000000
  0
LINE
  8
A-GLAZ-1
 10
-72.000000
 20
-564.375000
 11
-42.000000
 21
-564.375000
  0
LINE
  8
A-GLAZ-1
 10
-42.000000
 20
-564.375000
 11
-42.000000
 21
-563.000000
  0
ARC
  8
A-GLAZ-1
 10
-42.000000
 20
-563.000000
 40
30.000000
 50
180.000000
 51
270.000000
  0
TEXT
  8
A-DIMS-1
 10
-37.358601
 20
-587.509035
 40
5.527127
  1
2668
 50
90.000000
  7
STANDARD
  0
LINE
  8
A-WALL-1
 10
-14.000000
 20
-611.000000
 11
-38.000000
 21
-611.000000
  0
LINE
  8
A-WALL-1
 10
-38.000000
 20
-615.000000
 11
-10.000000
 21
-615.000000
  0
LINE
  8
A-WALL-1
 10
-10.000000
 20
-615.000000
 11
-10.000000
 21
-543.000000
  0
LINE
  8
A-WALL-1
 10
-14.000000
 20
-543.000000
 11
-14.000000
 21
-611.000000
  0
LINE
  8
A-WALL-1
 10
-61.000000
 20
-721.000000
 11
-42.000000
 21
-721.000000
  0
LINE
  8
A-WALL-1
 10
-42.000000
 20
-717.000000
 11
-61.000000
 21
-717.000000
  0
LINE
  8
A-WALL-1
 10
-174.000000
 20
-721.000000
 11
-155.000000
 21
-721.000000
  0
LINE
  8
A-WALL-1
 10
-155.000000
 20
-717.000000
 11
-174.000000
 21
-717.000000
  0
LINE
  8
A-GLAZ-1
 10
-85.000000
 20
-721.000000
 11
-85.000000
 21
-717.000000
  0
LINE
  8
A-GLAZ-1
 10
-61.000000
 20
-717.000000
 11
-61.000000
 21
-721.000000
  0
LINE
  8
A-GLAZ-1
 10
-61.000000
 20
-717.000000
 11
-85.000000
 21
-717.000000
  0
LINE
  8
A-GLAZ-1
 10
-85.000000
 20
-721.000000
 11
-61.000000
 21
-721.000000
  0
LINE
  8
A-GLAZ-1
 10
-85.000000
 20
-719.000000
 11
-61.000000
 21
-719.000000
  0
TEXT
  8
A-DIMS-1
 10
-82.509035
 20
-730.759109
 40
5.527127
  1
2068
  7
STANDARD
  0
LINE
  8
A-GLAZ-1
 10
-87.000000
 20
-721.000000
 11
-87.000000
 21
-717.000000
  0
LINE
  8
A-GLAZ-1
 10
-129.000000
 20
-721.000000
 11
-129.000000
 21
-717.000000
  0
LINE
  8
A-GLAZ-1
 10
-87.000000
 20
-721.000000
 11
-85.000000
 21
-721.000000
  0
LINE
  8
A-GLAZ-1
 10
-87.000000
 20
-717.000000
 11
-85.000000
 21
-717.000000
  0
LINE
  8
A-GLAZ-1
 10
-87.000000
 20
-717.000000
 11
-87.000000
 21
-675.000000
  0
LINE
  8
A-GLAZ-1
 10
-88.750000
 20
-675.000000
 11
-88.750000
 21
-717.000000
  0
LINE
  8
A-GLAZ-1
 10
-88.750000
 20
-717.000000
 11
-87.000000
 21
-717.000000
  0
ARC
  8
A-GLAZ-1
 10
-87.000000
 20
-717.000000
 40
42.000000
 50
90.000000
 51
180.000000
  0
LINE
  8
A-GLAZ-1
 10
-87.000000
 20
-721.000000
 11
-129.000000
 21
-721.000000
  0
TEXT
  8
A-DIMS-1
 10
-117.509035
 20
-730.759109
 40
5.527127
  1
3668
  7
STANDARD
  0
LINE
  8
A-GLAZ-1
 10
-155.000000
 20
-721.000000
 11
-155.000000
 21
-717.000000
  0
LINE
  8
A-GLAZ-1
 10
-131.000000
 20
-717.000000
 11
-131.000000
 21
-721.000000
  0
LINE
  8
A-GLAZ-1
 10
-131.000000
 20
-721.000000
 11
-129.000000
 21
-721.000000
  0
LINE
  8
A-GLAZ-1
 10
-131.000000
 20
-717.000000
 11
-129.000000
 21
-717.000000
  0
LINE
  8
A-GLAZ-1
 10
-131.000000
 20
-717.000000
 11
-155.000000
 21
-717.000000
  0
LINE
  8
A-GLAZ-1
 10
-155.000000
 20
-721.000000
 11
-131.000000
 21
-721.000000
  0
LINE
  8
A-GLAZ-1
 10
-155.000000
 20
-719.000000
 11
-131.000000
 21
-719.000000
  0
TEXT
  8
A-DIMS-1
 10
-152.509035
 20
-730.759109
 40
5.527127
  1
2068
  7
STANDARD
  0
LINE
  8
A-WALL-1
 10
-57.000000
 20
-773.000000
 11
-42.000000
 21
-773.000000
  0
LINE
  8
A-WALL-1
 10
-42.000000
 20
-769.000000
 11
-57.000000
 21
-769.000000
  0
LINE
  8
A-WALL-1
 10
-174.000000
 20
-773.000000
 11
-159.000000
 21
-773.000000
  0
LINE
  8
A-WALL-1
 10
-159.000000
 20
-769.000000
 11
-174.000000
 21
-769.000000
  0
LINE
  8
A-GLAZ-1
 10
-57.000000
 20
-773.000000
 11
-57.000000
 21
-769.000000
  0
LINE
  8
A-GLAZ-1
 10
-159.000000
 20
-773.000000
 11
-159.000000
 21
-769.000000
  0
LINE
  8
A-GLAZ-1
 10
-57.000000
 20
-773.000000
 11
-159.000000
 21
-773.000000
  0
TEXT
  8
A-DIMS-1
 10
-117.509035
 20
-782.759109
 40
5.527127
  1
8678
  7
STANDARD
  0
LINE
  8
A-WALL-1
 10
-174.000000
 20
-797.000000
 11
-174.000000
 21
-773.000000
  0
LINE
  8
A-WALL-1
 10
-174.000000
 20
-769.000000
 11
-174.000000
 21
-721.000000
  0
LINE
  8
A-WALL-1
 10
-178.000000
 20
-708.000000
 11
-178.000000
 21
-793.000000
  0
LINE
  8
A-WALL-1
 10
-174.000000
 20
-717.000000
 11
-174.000000
 21
-708.000000
  0
LINE
  8
A-WALL-1
 10
-178.000000
 20
-666.000000
 11
-178.000000
 21
-670.000000
  0
LINE
  8
A-WALL-1
 10
-178.000000
 20
-655.000000
 11
-178.000000
 21
-662.000000
  0
LINE
  8
A-WALL-1
 10
-174.000000
 20
-670.000000
 11
-174.000000
 21
-655.000000
  0
LINE
  8
A-WALL-1
 10
-178.000000
 20
-608.000000
 11
-178.000000
 21
-617.000000
  0
LINE
  8
A-WALL-1
 10
-174.000000
 20
-617.000000
 11
-174.000000
 21
-608.000000
  0
LINE
  8
A-GLAZ-1
 10
-178.000000
 20
-708.000000
 11
-174.000000
 21
-708.000000
  0
LINE
  8
A-GLAZ-1
 10
-178.000000
 20
-670.000000
 11
-174.000000
 21
-670.000000
  0
LINE
  8
A-GLAZ-1
 10
-178.000000
 20
-708.000000
 11
-216.000000
 21
-708.000000
  0
LINE
  8
A-GLAZ-1
 10
-216.000000
 20
-706.625000
 11
-178.000000
 21
-706.625000
  0
LINE
  8
A-GLAZ-1
 10
-178.000000
 20
-706.625000
 11
-178.000000
 21
-708.000000
  0
ARC
  8
A-GLAZ-1
 10
-178.000000
 20
-708.000000
 40
38.000000
 50
90.000000
 51
180.000000
  0
TEXT
  8
A-DIMS-1
 10
-173.358601
 20
-698.509035
 40
5.527127
  1
3268
 50
90.000000
  7
STANDARD
  0
LINE
  8
A-GLAZ-1
 10
-178.000000
 20
-655.000000
 11
-174.000000
 21
-655.000000
  0
LINE
  8
A-GLAZ-1
 10
-178.000000
 20
-617.000000
 11
-174.000000
 21
-617.000000
  0
LINE
  8
A-GLAZ-1
 10
-174.000000
 20
-655.000000
 11
-136.000000
 21
-655.000000
  0
LINE
  8
A-GLAZ-1
 10
-136.000000
 20
-653.625000
 11
-174.000000
 21
-653.625000
  0
LINE
  8
A-GLAZ-1
 10
-174.000000
 20
-653.625000
 11
-174.000000
 21
-655.000000
  0
ARC
  8
A-GLAZ-1
 10
-174.000000
 20
-655.000000
 40
38.000000
 50
0.000000
 51
90.000000
  0
TEXT
  8
A-DIMS-1
 10
-173.358601
 20
-645.509035
 40
5.527127
  1
3268
 50
90.000000
  7
STANDARD
  0
LINE
  8
A-WALL-1
 10
-199.000000
 20
-797.000000
 11
-174.000000
 21
-797.000000
  0
LINE
  8
A-WALL-1
 10
-178.000000
 20
-793.000000
 11
-199.000000
 21
-793.000000
  0
LINE
  8
A-WALL-1
 10
-230.000000
 20
-797.000000
 11
-227.000000
 21
-797.000000
  0
LINE
  8
A-WALL-1
 10
-227.000000
 20
-793.000000
 11
-230.000000
 21
-793.000000
  0
LINE
  8
A-WALL-1
 10
-269.000000
 20
-797.000000
 11
-266.000000
 21
-797.000000
  0
LINE
  8
A-WALL-1
 10
-266.000000
 20
-793.000000
 11
-269.000000
 21
-793.000000
  0
LINE
  8
A-WALL-1
 10
-322.000000
 20
-797.000000
 11
-297.000000
 21
-797.000000
  0
LINE
  8
A-WALL-1
 10
-297.000000
 20
-793.000000
 11
-318.000000
 21
-793.000000
  0
LINE
  8
A-GLAZ-1
 10
-227.000000
 20
-797.000000
 11
-227.000000
 21
-793.000000
  0
LINE
  8
A-GLAZ-1
 10
-199.000000
 20
-793.000000
 11
-199.000000
 21
-797.000000
  0
LINE
  8
A-GLAZ-1
 10
-199.000000
 20
-793.000000
 11
-227.000000
 21
-793.000000
  0
LINE
  8
A-GLAZ-1
 10
-227.000000
 20
-797.000000
 11
-199.000000
 21
-797.000000
  0
LINE
  8
A-GLAZ-1
 10
-227.000000
 20
-795.000000
 11
-199.000000
 21
-795.000000
  0
TEXT
  8
A-DIMS-1
 10
-222.509035
 20
-806.759109
 40
5.527127
  1
2462
  7
STANDARD
  0
LINE
  8
A-GLAZ-1
 10
-266.000000
 20
-797.000000
 11
-266.000000
 21
-793.000000
  0
LINE
  8
A-GLAZ-1
 10
-230.000000
 20
-793.000000
 11
-230.000000
 21
-797.000000
  0
LINE
  8
A-GLAZ-1
 10
-230.000000
 20
-793.000000
 11
-266.000000
 21
-793.000000
  0
LINE
  8
A-GLAZ-1
 10
-266.000000
 20
-797.000000
 11
-230.000000
 21
-797.000000
  0
LINE
  8
A-GLAZ-1
 10
-266.000000
 20
-795.000000
 11
-230.000000
 21
-795.000000
  0
TEXT
  8
A-DIMS-1
 10
-257.509035
 20
-806.759109
 40
5.527127
  1
3078
  7
STANDARD
  0
LINE
  8
A-GLAZ-1
 10
-297.000000
 20
-797.000000
 11
-297.000000
 21
-793.000000
  0
LINE
  8
A-GLAZ-1
 10
-269.000000
 20
-793.000000
 11
-269.000000
 21
-797.000000
  0
LINE
  8
A-GLAZ-1
 10
-269.000000
 20
-793.000000
 11
-297.000000
 21
-793.000000
  0
LINE
  8
A-GLAZ-1
 10
-297.000000
 20
-797.000000
 11
-269.000000
 21
-797.000000
  0
LINE
  8
A-GLAZ-1
 10
-297.000000
 20
-795.000000
 11
-269.000000
 21
-795.000000
  0
TEXT
  8
A-DIMS-1
 10
-292.509035
 20
-806.759109
 40
5.527127
  1
2462
  7
STANDARD
  0
LINE
  8
A-WALL-1
 10
-322.000000
 20
-785.000000
 11
-322.000000
 21
-797.000000
  0
LINE
  8
A-WALL-1
 10
-318.000000
 20
-793.000000
 11
-318.000000
 21
-785.000000
  0
LINE
  8
A-WALL-1
 10
-322.000000
 20
-637.369629
 11
-322.000000
 21
-753.000000
  0
LINE
  8
A-WALL-1
 10
-318.000000
 20
-753.000000
 11
-318.000000
 21
-639.026489
  0
LINE
  8
A-GLAZ-1
 10
-322.000000
 20
-753.000000
 11
-318.000000
 21
-753.000000
  0
LINE
  8
A-GLAZ-1
 10
-318.000000
 20
-785.000000
 11
-322.000000
 21
-785.000000
  0
LINE
  8
A-GLAZ-1
 10
-318.000000
 20
-785.000000
 11
-318.000000
 21
-753.000000
  0
LINE
  8
A-GLAZ-1
 10
-322.000000
 20
-753.000000
 11
-322.000000
 21
-785.000000
  0
LINE
  8
A-GLAZ-1
 10
-320.000000
 20
-753.000000
 11
-320.000000
 21
-785.000000
  0
TEXT
  8
A-DIMS-1
 10
-326.476311
 20
-778.509035
 40
5.527127
  1
2862
 50
90.000000
  7
STANDARD
  0
LINE
  8
A-WALL-1
 10
-317.171570
 20
-632.541199
 11
-322.000000
 21
-637.369629
  0
LINE
  8
A-WALL-1
 10
-318.000000
 20
-639.026489
 11
-314.343140
 21
-635.369629
  0
LINE
  8
A-WALL-1
 10
-286.630371
 20
-602.000000
 11
-294.544159
 21
-609.913757
  0
LINE
  8
A-WALL-1
 10
-291.715729
 20
-612.742188
 11
-286.973511
 21
-608.000000
  0
LINE
  8
A-GLAZ-1
 10
-294.544156
 20
-609.913780
 11
-291.715729
 21
-612.742207
  0
LINE
  8
A-GLAZ-1
 10
-314.343146
 20
-635.369624
 11
-317.171573
 21
-632.541197
  0
LINE
  8
A-GLAZ-1
 10
-314.343146
 20
-635.369624
 11
-291.715729
 21
-612.742207
  0
LINE
  8
A-GLAZ-1
 10
-294.544156
 20
-609.913780
 11
-317.171573
 21
-632.541197
  0
LINE
  8
A-GLAZ-1
 10
-293.129942
 20
-611.327994
 11
-315.757359
 21
-633.955411
  0
TEXT
  8
A-DIMS-1
 10
-315.746998
 20
-624.786162
 40
5.527127
  1
2862
 50
45.000000
  7
STANDARD
  0
LINE
  8
A-WALL-1
 10
230.000000
 20
-255.000000
 11
206.000000
 21
-255.000000
  0
LINE
  8
A-WALL-1
 10
202.000000
 20
-259.000000
 11
226.000000
 21
-259.000000
  0
LINE
  8
A-WALL-1
 10
74.000000
 20
-104.000000
 11
74.000000
 21
-95.000000
  0
LINE
  8
A-WALL-1
 10
70.000000
 20
-99.000000
 11
70.000000
 21
-104.000000
  0
LINE
  8
A-WALL-1
 10
74.000000
 20
-171.000000
 11
74.000000
 21
-142.000000
  0
LINE
  8
A-WALL-1
 10
70.000000
 20
-142.000000
 11
70.000000
 21
-175.000000
  0
LINE
  8
A-GLAZ-1
 10
74.000000
 20
-104.000000
 11
70.000000
 21
-104.000000
  0
LINE
  8
A-GLAZ-1
 10
74.000000
 20
-142.000000
 11
70.000000
 21
-142.000000
  0
LINE
  8
A-GLAZ-1
 10
70.000000
 20
-104.000000
 11
32.000000
 21
-104.000000
  0
LINE
  8
A-GLAZ-1
 10
32.000000
 20
-105.750000
 11
70.000000
 21
-105.750000
  0
LINE
  8
A-GLAZ-1
 10
70.000000
 20
-105.750000
 11
70.000000
 21
-104.000000
  0
ARC
  8
A-GLAZ-1
 10
70.000000
 20
-104.000000
 40
38.000000
 50
180.000000
 51
270.000000
  0
LINE
  8
A-GLAZ-1
 10
74.000000
 20
-104.000000
 11
74.000000
 21
-142.000000
  0
TEXT
  8
A-DIMS-1
 10
83.759109
 20
-132.509035
 40
5.527127
  1
3268
 50
90.000000
  7
STANDARD
  0
LINE
  8
A-WALL-1
  6
DOTTED
 10
38.000000
 20
-569.000000
 11
-10.000000
 21
-569.000000
  0
LINE
  8
A-WALL-1
  6
DOTTED
 10
-10.000000
 20
-571.000000
 11
42.000000
 21
-571.000000
  0
LINE
  8
A-WALL-1
 10
73.414215
 20
-257.511749
 11
70.585785
 21
-254.683334
  0
LINE
  8
A-WALL-1
 10
-13.414213
 20
-338.683319
 11
-10.585787
 21
-341.511749
  0
LINE
  8
A-WALL-1
 10
-10.585787
 20
-341.511749
 11
73.414215
 21
-257.511749
  0
LINE
  8
A-WALL-1
 10
70.585785
 20
-254.683334
 11
-13.414213
 21
-338.683319
  0
LINE
  8
A-WALL-1
 10
-173.600937
 20
-514.000000
 11
-169.600937
 21
-514.000000
  0
LINE
  8
A-WALL-1
 10
-169.600937
 20
-474.000000
 11
-169.600937
 21
-470.828430
  0
LINE
  8
A-WALL-1
 10
-173.600937
 20
-472.000000
 11
-173.600937
 21
-474.000000
  0
LINE
  8
A-WALL-1
 10
-169.600937
 20
-514.000000
 11
-169.600937
 21
-510.000000
  0
LINE
  8
A-WALL-1
 10
-173.600937
 20
-510.000000
 11
-173.600937
 21
-514.000000
  0
LINE
  8
A-GLAZ-1
 10
-169.600938
 20
-474.000000
 11
-173.600938
 21
-474.000000
  0
LINE
  8
A-GLAZ-1
 10
-169.600938
 20
-510.000000
 11
-173.600938
 21
-510.000000
  0
LINE
  8
A-GLAZ-1
 10
-169.600938
 20
-474.000000
 11
-133.600938
 21
-474.000000
  0
LINE
  8
A-GLAZ-1
 10
-133.600938
 20
-475.375000
 11
-169.600938
 21
-475.375000
  0
LINE
  8
A-GLAZ-1
 10
-169.600938
 20
-475.375000
 11
-169.600938
 21
-474.000000
  0
ARC
  8
A-GLAZ-1
 10
-169.600938
 20
-474.000000
 40
36.000000
 50
270.000000
 51
0.000000
  0
TEXT
  8
A-DIMS-1
 10
-168.959539
 20
-501.509035
 40
5.527127
  1
3068
 50
90.000000
  7
STANDARD
  0
LINE
  8
A-WALL-1
 10
34.000000
 20
-543.000000
 11
38.000000
 21
-543.000000
  0
LINE
  8
A-WALL-1
 10
38.000000
 20
-539.000000
 11
34.000000
 21
-539.000000
  0
LINE
  8
A-WALL-1
 10
-10.000000
 20
-543.000000
 11
-2.000000
 21
-543.000000
  0
LINE
  8
A-WALL-1
 10
-2.000000
 20
-539.000000
 11
-34.000000
 21
-539.000000
  0
LINE
  8
A-WALL-1
 10
-38.000000
 20
-543.000000
 11
-14.000000
 21
-543.000000
  0
LINE
  8
A-WALL-1
 10
-38.000000
 20
-539.000000
 11
-42.000000
 21
-539.000000
  0
LINE
  8
A-GLAZ-1
 10
34.000000
 20
-543.000000
 11
34.000000
 21
-539.000000
  0
LINE
  8
A-GLAZ-1
 10
-2.000000
 20
-543.000000
 11
-2.000000
 21
-539.000000
  0
LINE
  8
A-GLAZ-1
 10
-2.000000
 20
-539.000000
 11
-2.000000
 21
-503.000000
  0
LINE
  8
A-GLAZ-1
 10
-0.625000
 20
-503.000000
 11
-0.625000
 21
-539.000000
  0
LINE
  8
A-GLAZ-1
 10
-0.625000
 20
-539.000000
 11
-2.000000
 21
-539.000000
  0
ARC
  8
A-GLAZ-1
 10
-2.000000
 20
-539.000000
 40
36.000000
 50
0.000000
 51
90.000000
  0
LINE
  8
A-GLAZ-1
 10
34.000000
 20
-543.000000
 11
-2.000000
 21
-543.000000
  0
TEXT
  8
A-DIMS-1
 10
6.490965
 20
-552.759109
 40
5.527127
  1
3068
  7
STANDARD
  0
LINE
  8
A-WALL-1
 10
-23.990765
 20
-403.000000
 11
38.000000
 21
-403.000000
  0
LINE
  8
A-WALL-1
 10
38.000000
 20
-399.000000
 11
-19.990765
 21
-399.000000
  0
LINE
  8
A-WALL-1
 10
-248.000000
 20
-662.000000
 11
-248.000000
 21
-608.000000
  0
LINE
  8
A-WALL-1
 10
-252.000000
 20
-608.000000
 11
-252.000000
 21
-666.000000
  0
LINE
  8
A-WALL-1
  6
DOTTED
 10
-170.600937
 20
-608.000000
 11
-170.600937
 21
-514.000000
  0
LINE
  8
A-WALL-1
  6
DOTTED
 10
-172.600937
 20
-514.000000
 11
-172.600937
 21
-602.000000
  0
LINE
  8
A-WALL-1
  6
DOTTED
 10
-12.000000
 20
-341.097534
 11
-12.000000
 21
-339.097534
  0
LINE
  8
A-WALL-1
  6
DOTTED
 10
-110.000000
 20
-341.097534
 11
-12.000000
 21
-341.097534
  0
LINE
  8
A-WALL-1
  6
DOTTED
 10
-12.000000
 20
-339.097534
 11
-110.000000
 21
-339.097534
  0
LINE
  8
A-STAR-1
 10
-10.000000
 20
-571.000000
 11
-10.000000
 21
-581.000000
  0
LINE
  8
A-STAR-1
 10
-10.000000
 20
-581.000000
 11
38.000000
 21
-581.000000
  0
LINE
  8
A-STAR-1
 10
38.000000
 20
-581.000000
 11
38.000000
 21
-571.000000
  0
LINE
  8
A-STAR-1
 10
-10.000000
 20
-571.000000
 11
38.000000
 21
-571.000000
  0
LINE
  8
A-STAR-1
 10
-219.000000
 20
-601.500000
 11
-210.000000
 21
-601.500000
  0
LINE
  8
A-STAR-1
 10
-210.000000
 20
-601.500000
 11
-210.000000
 21
-559.500000
  0
LINE
  8
A-STAR-1
 10
-210.000000
 20
-559.500000
 11
-219.000000
 21
-559.500000
  0
LINE
  8
A-STAR-1
 10
-228.000000
 20
-601.500000
 11
-219.000000
 21
-601.500000
  0
LINE
  8
A-STAR-1
 10
-219.000000
 20
-601.500000
 11
-219.000000
 21
-559.500000
  0
LINE
  8
A-STAR-1
 10
-219.000000
 20
-559.500000
 11
-228.000000
 21
-559.500000
  0
LINE
  8
A-STAR-1
 10
-228.000000
 20
-601.500000
 11
-228.000000
 21
-559.500000
  0
TEXT
  8
A-POWR-1
 10
-223.738595
 20
-579.452525
 40
4.251636
  1
UP
  7
STANDARD
  0
LINE
  8
A-STAR-1
 10
-229.000000
 20
-582.500000
 11
-218.000000
 21
-582.500000
  0
LINE
  8
A-STAR-1
 10
-228.000000
 20
-559.000000
 11
-228.000000
 21
-602.000000
  0
LINE
  8
A-STAR-1
 10
-228.000000
 20
-602.000000
 11
-270.000000
 21
-602.000000
  0
LINE
  8
A-STAR-1
 10
-270.000000
 20
-602.000000
 11
-270.000000
 21
-559.000000
  0
LINE
  8
A-STAR-1
 10
-270.000000
 20
-559.000000
 11
-228.000000
 21
-559.000000
  0
LINE
  8
A-STAR-1
 10
-270.000000
 20
-550.000000
 11
-270.000000
 21
-559.000000
  0
LINE
  8
A-STAR-1
 10
-270.000000
 20
-559.000000
 11
-228.000000
 21
-559.000000
  0
LINE
  8
A-STAR-1
 10
-228.000000
 20
-559.000000
 11
-228.000000
 21
-550.000000
  0
LINE
  8
A-STAR-1
 10
-270.000000
 20
-541.000000
 11
-270.000000
 21
-550.000000
  0
LINE
  8
A-STAR-1
 10
-270.000000
 20
-550.000000
 11
-228.000000
 21
-550.000000
  0
LINE
  8
A-STAR-1
 10
-228.000000
 20
-550.000000
 11
-228.000000
 21
-541.000000
  0
LINE
  8
A-STAR-1
 10
-270.000000
 20
-532.000000
 11
-270.000000
 21
-541.000000
  0
LINE
  8
A-STAR-1
 10
-270.000000
 20
-541.000000
 11
-228.000000
 21
-541.000000
  0
LINE
  8
A-STAR-1
 10
-228.000000
 20
-541.000000
 11
-228.000000
 21
-532.000000
  0
LINE
  8
A-STAR-1
 10
-270.000000
 20
-523.000000
 11
-270.000000
 21
-532.000000
  0
LINE
  8
A-STAR-1
 10
-270.000000
 20
-532.000000
 11
-228.000000
 21
-532.000000
  0
LINE
  8
A-STAR-1
 10
-228.000000
 20
-532.000000
 11
-228.000000
 21
-523.000000
  0
LINE
  8
A-STAR-1
 10
-270.000000
 20
-514.000000
 11
-270.000000
 21
-523.000000
  0
LINE
  8
A-STAR-1
 10
-270.000000
 20
-523.000000
 11
-228.000000
 21
-523.000000
  0
LINE
  8
A-STAR-1
 10
-228.000000
 20
-523.000000
 11
-228.000000
 21
-514.000000
  0
LINE
  8
A-STAR-1
 10
-270.000000
 20
-514.000000
 11
-228.000000
 21
-514.000000
  0
LINE
  8
A-STAR-1
 10
-227.500000
 20
-514.000000
 11
-270.000000
 21
-514.000000
  0
LINE
  8
A-STAR-1
 10
-270.000000
 20
-514.000000
 11
-270.000000
 21
-472.000000
  0
LINE
  8
A-STAR-1
 10
-270.000000
 20
-472.000000
 11
-227.500000
 21
-472.000000
  0
LINE
  8
A-STAR-1
 10
-227.500000
 20
-472.000000
 11
-227.500000
 21
-514.000000
  0
LINE
  8
A-STAR-1
 10
-218.500000
 20
-472.000000
 11
-227.500000
 21
-472.000000
  0
LINE
  8
A-STAR-1
 10
-227.500000
 20
-472.000000
 11
-227.500000
 21
-514.000000
  0
LINE
  8
A-STAR-1
 10
-227.500000
 20
-514.000000
 11
-218.500000
 21
-514.000000
  0
LINE
  8
A-STAR-1
 10
-209.500000
 20
-472.000000
 11
-218.500000
 21
-472.000000
  0
LINE
  8
A-STAR-1
 10
-218.500000
 20
-472.000000
 11
-218.500000
 21
-514.000000
  0
LINE
  8
A-STAR-1
 10
-218.500000
 20
-514.000000
 11
-209.500000
 21
-514.000000
  0
LINE
  8
A-STAR-1
 10
-200.500000
 20
-472.000000
 11
-209.500000
 21
-472.000000
  0
LINE
  8
A-STAR-1
 10
-209.500000
 20
-472.000000
 11
-209.500000
 21
-514.000000
  0
LINE
  8
A-STAR-1
 10
-209.500000
 20
-514.000000
 11
-200.500000
 21
-514.000000
  0
LINE
  8
A-STAR-1
 10
-191.500000
 20
-472.000000
 11
-200.500000
 21
-472.000000
  0
LINE
  8
A-STAR-1
 10
-200.500000
 20
-472.000000
 11
-200.500000
 21
-514.000000
  0
LINE
  8
A-STAR-1
 10
-200.500000
 20
-514.000000
 11
-191.500000
 21
-514.000000
  0
LINE
  8
A-STAR-1
 10
-182.500000
 20
-472.000000
 11
-191.500000
 21
-472.000000
  0
LINE
  8
A-STAR-1
 10
-191.500000
 20
-472.000000
 11
-191.500000
 21
-514.000000
  0
LINE
  8
A-STAR-1
 10
-191.500000
 20
-514.000000
 11
-182.500000
 21
-514.000000
  0
LINE
  8
A-STAR-1
 10
-173.500000
 20
-472.000000
 11
-182.500000
 21
-472.000000
  0
LINE
  8
A-STAR-1
 10
-182.500000
 20
-472.000000
 11
-182.500000
 21
-514.000000
  0
LINE
  8
A-STAR-1
 10
-182.500000
 20
-514.000000
 11
-173.500000
 21
-514.000000
  0
LINE
  8
A-STAR-1
 10
-173.500000
 20
-472.000000
 11
-173.500000
 21
-514.000000
  0
INSERT
  8
A-CASE-1
  2
FIXT-Toilet
 10
8.019364
 20
-418.000000
 41
1.000000
 42
1.071429
 43
 1.0
 50
-90.000000
  0
INSERT
  8
A-CASE-1
  2
FIXT-OvalFree
 10
-17.421699
 20
-449.034375
 41
1.000000
 42
1.000000
 43
 1.0
 50
-180.000000
  0
INSERT
  8
A-CASE-1
  2
FIXT-fire3618
 10
-274.017510
 20
-363.107800
 41
1.000000
 42
0.857143
 43
 1.0
 50
-270.000000
  0
INSERT
  8
A-CASE-1
  2
FIXT-fire3618
 10
-20.108852
 20
-94.979571
 41
1.000000
 42
1.000000
 43
 1.0
 50
0.000000
  0
LINE
  8
A-CASE-1
 10
10.790252
 20
-99.000000
 11
10.790252
 21
-121.000000
  0
LINE
  8
A-CASE-1
 10
-51.209748
 20
-121.000000
 11
-51.209748
 21
-99.000000
  0
LINE
  8
A-CASE-1
 10
10.790252
 20
-121.000000
 11
-51.209748
 21
-121.000000
  0
LINE
  8
A-CASE-1
 10
-15.209748
 20
-116.000000
 11
-20.209748
 21
-121.000000
  0
LINE
  8
A-CASE-1
 10
-25.209748
 20
-116.000000
 11
-20.209748
 21
-121.000000
  0
TEXT
  8
A-NOTE-1
 10
0.214745
 20
-558.668460
 40
4.251636
  1
LANDING
  7
STANDARD
  0
TEXT
  8
A-NOTE-1
 10
8.021402
 20
-564.887217
 40
3.129042
  1
4' x 2'2
  7
STANDARD
  0
TEXT
  8
A-NOTE-1
 10
90.505267
 20
-350.838778
 40
9.448080
  1
KITCHEN
  7
STANDARD
  0
TEXT
  8
A-NOTE-1
 10
102.453797
 20
-363.974998
 40
7.152095
  1
28' x 13'
  7
STANDARD
  0
TEXT
  8
A-NOTE-1
 10
-241.437980
 20
-370.282236
 40
9.448080
  1
LIVING ROOM
  7
STANDARD
  0
TEXT
  8
A-NOTE-1
 10
-216.719909
 20
-383.418455
 40
7.152095
  1
13' x 17'5
  7
STANDARD
  0
TEXT
  8
A-NOTE-1
 10
68.310454
 20
-671.010077
 40
9.448080
  1
GARAGE
  7
STANDARD
  0
TEXT
  8
A-NOTE-1
 10
76.484727
 20
-684.146296
 40
7.152095
  1
22' x 22'4
  7
STANDARD
  0
TEXT
  8
A-NOTE-1
 10
-89.904701
 20
-888.810100
 40
9.448080
  1
LIVING AREA
  7
STANDARD
  0
TEXT
  8
A-NOTE-1
 10
-69.406856
 20
-901.946319
 40
7.152095
  1
1748 sq ft
  7
STANDARD
  0
TEXT
  8
A-NOTE-1
 10
85.641201
 20
-502.810100
 40
9.448080
  1
DINING ROOM
  7
STANDARD
  0
TEXT
  8
A-NOTE-1
 10
112.056073
 20
-515.946319
 40
7.152095
  1
15'4 x 12'
  7
STANDARD
  0
TEXT
  8
A-NOTE-1
 10
43.350545
 20
-403.240469
 40
3.306828
  1
CHASE
  7
STANDARD
  0
TEXT
  8
A-NOTE-1
 10
46.527165
 20
-408.557079
 40
2.682036
  1
1'7 x 2'
  7
STANDARD
  0
TEXT
  8
A-NOTE-1
 10
-227.219853
 20
-532.670206
 40
5.196444
  1
OPEN ABOVE
  7
STANDARD
  0
TEXT
  8
A-NOTE-1
 10
-214.908707
 20
-540.349869
 40
4.023053
  1
8'1 x 10'10
  7
STANDARD
  0
TEXT
  8
A-NOTE-1
 10
-78.458781
 20
-245.155565
 40
9.448080
  1
FAMILY ROOM
  7
STANDARD
  0
TEXT
  8
A-NOTE-1
 10
-48.905951
 20
-258.291784
 40
7.152095
  1
15' x 20'
  7
STANDARD
  0
TEXT
  8
A-NOTE-1
 10
-133.805915
 20
-750.793544
 40
9.448080
  1
PORCH
  7
STANDARD
  0
TEXT
  8
A-NOTE-1
 10
-124.446128
 20
-763.929763
 40
7.152095
  1
11' x 4'
  7
STANDARD
  0
TEXT
  8
A-NOTE-1
 10
-36.038570
 20
-594.228392
 40
3.306828
  1
CLOSET
  7
STANDARD
  0
TEXT
  8
A-NOTE-1
 10
-31.326750
 20
-599.545002
 40
2.682036
  1
2' x 5'8
  7
STANDARD
  0
TEXT
  8
A-NOTE-1
 10
-241.603201
 20
-633.801868
 40
7.086060
  1
ELEVATOR
  7
STANDARD
  0
TEXT
  8
A-NOTE-1
 10
-229.457946
 20
-643.844582
 40
5.364071
  1
5'10 x 4'6
  7
STANDARD
  0
TEXT
  8
A-NOTE-1
 10
3.431050
 20
-396.608332
 40
3.306828
  1
CLOSET
  7
STANDARD
  0
TEXT
  8
A-NOTE-1
 10
7.777137
 20
-401.924942
 40
2.682036
  1
3'5 x 8"
  7
STANDARD
  0
TEXT
  8
A-NOTE-1
 10
95.716301
 20
-227.310100
 40
9.448080
  1
BREAKFAST
  7
STANDARD
  0
TEXT
  8
A-NOTE-1
 10
109.704359
 20
-240.446319
 40
7.152095
  1
10'10 x 6'10
  7
STANDARD
  0
TEXT
  8
A-NOTE-1
 10
-29.360217
 20
-423.971863
 40
8.030868
  1
BATH
  7
STANDARD
  0
TEXT
  8
A-NOTE-1
 10
-27.260703
 20
-435.475481
 40
6.258083
  1
6' x 5'5
  7
STANDARD
  0
TEXT
  8
A-NOTE-1
 10
-274.863413
 20
-740.843664
 40
9.448080
  1
STUDY
  7
STANDARD
  0
TEXT
  8
A-NOTE-1
 10
-275.977998
 20
-753.979883
 40
7.152095
  1
11'8 x 15'5
  7
STANDARD
  0
TEXT
  8
A-NOTE-1
 10
-24.232882
 20
-487.579295
 40
8.030868
  1
HALL
  7
STANDARD
  0
TEXT
  8
A-NOTE-1
 10
-23.405969
 20
-499.082914
 40
6.258083
  1
6' x 5'7
  7
STANDARD
  0
TEXT
  8
A-NOTE-1
 10
-128.151867
 20
-582.956906
 40
9.448080
  1
FOYER
  7
STANDARD
  0
TEXT
  8
A-NOTE-1
 10
-129.054351
 20
-596.093126
 40
7.152095
  1
10'8 x 25'4
  7
STANDARD
  0
ENDSEC
  0
EOF
