  0
SECTION
  2
HEADER
  9
$ACADVER
  1
AC1006
  9
$EXTMIN
 10
-482.430552
 20
-877.396969
  9
$EXTMAX
 10
438.642610
 20
-240.088772
  9
$ANGDIR
 70
   0
  9
$LUNITS
 70
   2
  0
ENDSEC
  0
SECTION
  2
TABLES
  0
TABLE
  2
LTYPE
 70
   3
  0
LTYPE
  2
CONTINUOUS
 70
64
  3
SOLID LINE
 72
65
 73
0
 40
0.
  0
LTYPE
  2
DASHED
 70
64
  3
DASHED LINE
 72
65
 73
2
 40
8.
 49
5.
 49
-3.
  0
LTYPE
  2
DOTTED
 70
64
  3
DOTTED LINE
 72
65
 73
2
 40
4.
 49
2.
 49
-2.
  0
ENDTAB
  0
TABLE
  2
LAYER
 70
   15
  0
LAYER
  2
A-WALL-0
 70
64
 62
   7
  6
CONTINUOUS
  0
LAYER
  2
A-CASE-0
 70
64
 62
   7
  6
CONTINUOUS
  0
LAYER
  2
A-DIMS-0
 70
64
 62
   7
  6
CONTINUOUS
  0
LAYER
  2
A-POWR-0
 70
64
 62
   7
  6
CONTINUOUS
  0
LAYER
  2
A-NOTE-0
 70
64
 62
   7
  6
CONTINUOUS
  0
LAYER
  2
A-TEXT-0
 70
64
 62
   7
  6
CONTINUOUS
  0
LAYER
  2
A-FURN-0
 70
64
 62
   7
  6
CONTINUOUS
  0
LAYER
  2
A-GLAZ-0
 70
64
 62
   7
  6
CONTINUOUS
  0
LAYER
  2
A-STAR-0
 70
64
 62
   7
  6
CONTINUOUS
  0
LAYER
  2
A-ROOF-0
 70
64
 62
   7
  6
CONTINUOUS
  0
LAYER
  2
A-C000-0
 70
64
 62
   7
  6
CONTINUOUS
  0
ENDTAB
  0
ENDSEC
  0
SECTION
  2
BLOCKS
  0
BLOCK
  8
A-CASE-0
  2
FIXT-Toilet
 70
64
 10
0.0
 20
0.0
  0
ARC
  8
A-CASE-0
 10
9.046126
 20
27.780609
 40
1.431891
 50
0.000000
 51
90.000000
  0
LINE
  8
A-CASE-0
 10
9.046126
 20
29.212500
 11
-9.046126
 21
29.212500
  0
ARC
  8
A-CASE-0
 10
-9.046126
 20
27.780609
 40
1.431891
 50
90.000000
 51
180.000000
  0
LINE
  8
A-CASE-0
 10
-10.478017
 20
27.780609
 11
-10.478017
 21
21.731952
  0
ARC
  8
A-CASE-0
 10
-9.046126
 20
21.731952
 40
1.431891
 50
180.000000
 51
270.000000
  0
LINE
  8
A-CASE-0
 10
-9.046126
 20
20.300061
 11
9.046126
 21
20.300061
  0
ARC
  8
A-CASE-0
 10
9.046126
 20
21.731952
 40
1.431891
 50
270.000000
 51
0.000000
  0
LINE
  8
A-CASE-0
 10
10.478017
 20
21.731952
 11
10.478017
 21
27.780609
  0
ARC
  8
A-CASE-0
 10
0.029649
 20
13.174761
 40
6.001594
 50
38.796550
 51
141.203450
  0
ARC
  8
A-CASE-0
 10
0.029649
 20
7.965448
 40
6.001594
 50
218.796550
 51
321.203450
  0
ARC
  8
A-CASE-0
 10
3.269587
 20
10.570105
 40
10.158689
 50
141.203449
 51
218.796551
  0
ARC
  8
A-CASE-0
 10
-3.210289
 20
10.570105
 40
10.158689
 50
321.203449
 51
38.796551
  0
ENDBLK
  0
BLOCK
  8
A-CASE-0
  2
FIXT-WaterHG
 70
64
 10
0.0
 20
0.0
  0
CIRCLE
  8
A-CASE-0
 10
-0.000000
 20
12.479368
 40
12.520632
  0
LINE
  8
A-CASE-0
 10
-6.458884
 20
15.850779
 11
-4.568376
 21
8.795307
  0
LINE
  8
A-CASE-0
 10
-4.568376
 20
8.795307
 11
-3.313710
 21
13.477785
  0
LINE
  8
A-CASE-0
 10
-3.313710
 20
13.477785
 11
-2.055941
 21
8.783728
  0
LINE
  8
A-CASE-0
 10
-2.055941
 20
8.783728
 11
-0.165146
 21
15.840274
  0
LINE
  8
A-CASE-0
 10
1.074278
 20
8.789207
 11
1.074278
 21
15.858361
  0
LINE
  8
A-CASE-0
 10
1.074278
 20
12.090279
 11
5.207015
 21
12.090279
  0
LINE
  8
A-CASE-0
 10
5.246801
 20
8.845993
 11
5.246801
 21
15.896207
  0
ENDBLK
  0
BLOCK
  8
A-CASE-0
  2
FIXT-FrnG2920
 70
64
 10
0.0
 20
0.0
  0
LINE
  8
A-CASE-0
 10
9.947191
 20
39.000000
 11
-9.947191
 21
39.000000
  0
LINE
  8
A-CASE-0
 10
-9.947191
 20
39.000000
 11
-9.947191
 21
11.079557
  0
LINE
  8
A-CASE-0
 10
-9.947191
 20
11.079557
 11
9.947191
 21
11.079557
  0
LINE
  8
A-CASE-0
 10
9.947191
 20
11.079557
 11
9.947191
 21
39.000000
  0
LINE
  8
A-CASE-0
 10
-7.001456
 20
11.079557
 11
-7.001456
 21
10.054955
  0
LINE
  8
A-CASE-0
 10
-7.001456
 20
10.054955
 11
-0.512302
 21
10.054955
  0
LINE
  8
A-CASE-0
 10
-0.512302
 20
10.054955
 11
-0.512302
 21
11.079557
  0
ENDBLK
  0
BLOCK
  8
A-CASE-0
  2
FIXT-OvalBath
 70
64
 10
0.0
 20
0.0
  0
ARC
  8
A-CASE-0
 10
-3.083726
 20
15.991947
 40
6.926340
 50
128.659806
 51
231.340191
  0
ARC
  8
A-CASE-0
 10
3.083726
 20
15.991947
 40
6.926340
 50
308.659809
 51
51.340194
  0
ARC
  8
A-CASE-0
 10
-0.000000
 20
19.846604
 40
11.862710
 50
231.340192
 51
308.659808
  0
ARC
  8
A-CASE-0
 10
-0.000000
 20
12.137290
 40
11.862710
 50
51.340193
 51
128.659807
  0
ARC
  8
A-CASE-0
 10
-3.083726
 20
15.991947
 40
5.029696
 50
128.659805
 51
231.340188
  0
ARC
  8
A-CASE-0
 10
3.083726
 20
15.991947
 40
5.029696
 50
308.659812
 51
51.340195
  0
ARC
  8
A-CASE-0
 10
0.000000
 20
19.846604
 40
9.966065
 50
231.340190
 51
308.659810
  0
ARC
  8
A-CASE-0
 10
0.000000
 20
12.137290
 40
9.966065
 50
51.340193
 51
128.659807
  0
CIRCLE
  8
A-CASE-0
 10
-0.052685
 20
16.966612
 40
0.605872
  0
CIRCLE
  8
A-CASE-0
 10
-0.052685
 20
16.966612
 40
1.027349
  0
ENDBLK
  0
BLOCK
  8
A-CASE-0
  2
FIXT-tubshr02
 70
64
 10
0.0
 20
0.0
  0
ARC
  8
A-CASE-0
 10
21.128384
 20
24.794895
 40
4.812746
 50
0.000000
 51
90.000000
  0
LINE
  8
A-CASE-0
 10
21.128384
 20
29.607641
 11
-22.458626
 21
29.607641
  0
ARC
  8
A-CASE-0
 10
-22.458626
 20
24.794895
 40
4.812746
 50
90.000000
 51
180.000000
  0
LINE
  8
A-CASE-0
 10
-27.271372
 20
24.794895
 11
-27.271372
 21
8.432888
  0
ARC
  8
A-CASE-0
 10
-22.458626
 20
8.432888
 40
4.812746
 50
180.000000
 51
270.000000
  0
LINE
  8
A-CASE-0
 10
-22.458626
 20
3.620142
 11
21.128384
 21
3.620142
  0
ARC
  8
A-CASE-0
 10
21.128384
 20
8.432888
 40
4.812746
 50
270.000000
 51
0.000000
  0
LINE
  8
A-CASE-0
 10
25.941130
 20
8.432888
 11
25.941130
 21
24.794895
  0
CIRCLE
  8
A-CASE-0
 10
-23.952621
 20
16.670141
 40
1.012500
  0
LINE
  8
A-CASE-0
 10
-30.005365
 20
32.000000
 11
-30.005365
 21
-0.013599
  0
LINE
  8
A-CASE-0
 10
-30.005365
 20
-0.013599
 11
30.005365
 21
-0.013599
  0
LINE
  8
A-CASE-0
 10
30.005365
 20
-0.013599
 11
30.005365
 21
32.000000
  0
LINE
  8
A-CASE-0
 10
30.005365
 20
32.000000
 11
-30.005365
 21
32.000000
  0
LINE
  8
A-CASE-0
 10
-30.005365
 20
1.994635
 11
30.005365
 21
1.994635
  0
LINE
  8
A-CASE-0
 10
0.000000
 20
1.994635
 11
0.000000
 21
-0.013599
  0
ENDBLK
  0
BLOCK
  8
A-POWR-0
  2
FIXT-GFI_Out
 70
64
 10
0.0
 20
0.0
  0
CIRCLE
  8
A-POWR-0
 10
-0.006993
 20
-5.734540
 40
3.254864
  0
LINE
  8
A-POWR-0
 10
-1.973961
 20
-8.380580
 11
-1.973961
 21
-0.000000
  0
LINE
  8
A-POWR-0
 10
2.006808
 20
-8.286915
 11
2.006808
 21
-0.000000
  0
TEXT
  8
A-POWR-0
 10
-2.295937
 20
-15.470072
 40
2.198016
  1
GFI
  7
STANDARD
  0
ENDBLK
  0
BLOCK
  8
A-POWR-0
  2
FIXT-WP_Out
 70
64
 10
0.0
 20
0.0
  0
CIRCLE
  8
A-POWR-0
 10
-0.006993
 20
-5.734540
 40
3.254864
  0
LINE
  8
A-POWR-0
 10
-1.973961
 20
-8.380580
 11
-1.973961
 21
-0.000000
  0
LINE
  8
A-POWR-0
 10
2.006808
 20
-8.286915
 11
2.006808
 21
-0.000000
  0
TEXT
  8
A-POWR-0
 10
-2.337954
 20
-15.470072
 40
2.198016
  1
WP
  7
STANDARD
  0
ENDBLK
  0
BLOCK
  8
A-POWR-0
  2
FIXT-3_Way
 70
64
 10
0.0
 20
0.0
  0
LINE
  8
A-POWR-0
 10
1.506088
 20
-2.396511
 11
-2.053707
 21
-2.396511
  0
ARC
  8
A-POWR-0
 10
-2.053707
 20
-4.016987
 40
1.620476
 50
90.000000
 51
181.041633
  0
ARC
  8
A-POWR-0
 10
-1.993710
 20
-4.015897
 40
1.680484
 50
181.041622
 51
270.000000
  0
LINE
  8
A-POWR-0
 10
-1.993710
 20
-5.696380
 11
-0.263288
 21
-5.696380
  0
ARC
  8
A-POWR-0
 10
-0.173292
 20
-7.420123
 40
1.636124
 50
270.000000
 51
1.534338
  0
ARC
  8
A-POWR-0
 10
-0.263288
 20
-7.422534
 40
1.726153
 50
1.534347
 51
90.000000
  0
LINE
  8
A-POWR-0
 10
-0.173292
 20
-9.056247
 11
-3.662938
 21
-9.056247
  0
LINE
  8
A-POWR-0
 10
-1.156680
 20
-0.026605
 11
-1.156680
 21
-11.036168
  0
TEXT
  8
A-POWR-0
 10
0.360759
 20
-14.488985
 40
2.826020
  1
3
  7
STANDARD
  0
ENDBLK
  0
BLOCK
  8
A-POWR-0
  2
FIXT-4_Way
 70
64
 10
0.0
 20
0.0
  0
LINE
  8
A-POWR-0
 10
1.506088
 20
-2.396511
 11
-2.053707
 21
-2.396511
  0
ARC
  8
A-POWR-0
 10
-2.053707
 20
-4.016987
 40
1.620476
 50
90.000000
 51
181.041633
  0
ARC
  8
A-POWR-0
 10
-1.993710
 20
-4.015897
 40
1.680484
 50
181.041622
 51
270.000000
  0
LINE
  8
A-POWR-0
 10
-1.993710
 20
-5.696380
 11
-0.263288
 21
-5.696380
  0
ARC
  8
A-POWR-0
 10
-0.173292
 20
-7.420123
 40
1.636124
 50
270.000000
 51
1.534338
  0
ARC
  8
A-POWR-0
 10
-0.263288
 20
-7.422534
 40
1.726153
 50
1.534347
 51
90.000000
  0
LINE
  8
A-POWR-0
 10
-0.173292
 20
-9.056247
 11
-3.662938
 21
-9.056247
  0
LINE
  8
A-POWR-0
 10
-1.156680
 20
-0.026605
 11
-1.156680
 21
-11.036168
  0
TEXT
  8
A-POWR-0
 10
0.360759
 20
-14.488985
 40
2.826020
  1
4
  7
STANDARD
  0
ENDBLK
  0
BLOCK
  8
A-POWR-0
  2
FIXT-5_Way
 70
64
 10
0.0
 20
0.0
  0
LINE
  8
A-POWR-0
 10
1.506088
 20
-2.396511
 11
-2.053707
 21
-2.396511
  0
ARC
  8
A-POWR-0
 10
-2.053707
 20
-4.016987
 40
1.620476
 50
90.000000
 51
181.041633
  0
ARC
  8
A-POWR-0
 10
-1.993710
 20
-4.015897
 40
1.680484
 50
181.041622
 51
270.000000
  0
LINE
  8
A-POWR-0
 10
-1.993710
 20
-5.696380
 11
-0.263288
 21
-5.696380
  0
ARC
  8
A-POWR-0
 10
-0.173292
 20
-7.420123
 40
1.636124
 50
270.000000
 51
1.534338
  0
ARC
  8
A-POWR-0
 10
-0.263288
 20
-7.422534
 40
1.726153
 50
1.534347
 51
90.000000
  0
LINE
  8
A-POWR-0
 10
-0.173292
 20
-9.056247
 11
-3.662938
 21
-9.056247
  0
LINE
  8
A-POWR-0
 10
-1.156680
 20
-0.026605
 11
-1.156680
 21
-11.036168
  0
TEXT
  8
A-POWR-0
 10
0.360759
 20
-14.488985
 40
2.826020
  1
5
  7
STANDARD
  0
ENDBLK
  0
ENDSEC
  0
SECTION
  2
ENTITIES
  0
LINE
  8
A-WALL-0
 10
-270.000000
 20
-278.000000
 11
-270.000000
 21
-259.000000
  0
LINE
  8
A-WALL-0
 10
-274.000000
 20
-255.000000
 11
-274.000000
 21
-278.000000
  0
LINE
  8
A-WALL-0
 10
-270.000000
 20
-414.000000
 11
-270.000000
 21
-314.000000
  0
LINE
  8
A-WALL-0
 10
-274.000000
 20
-314.000000
 11
-274.000000
 21
-414.000000
  0
LINE
  8
A-WALL-0
 10
-270.000000
 20
-468.000000
 11
-270.000000
 21
-450.000000
  0
LINE
  8
A-WALL-0
 10
-270.000000
 20
-602.000000
 11
-270.000000
 21
-472.000000
  0
LINE
  8
A-WALL-0
 10
-274.000000
 20
-450.000000
 11
-274.000000
 21
-602.000000
  0
LINE
  8
A-GLAZ-0
 10
-274.000000
 20
-278.000000
 11
-270.000000
 21
-278.000000
  0
LINE
  8
A-GLAZ-0
 10
-270.000000
 20
-314.000000
 11
-274.000000
 21
-314.000000
  0
LINE
  8
A-GLAZ-0
 10
-270.000000
 20
-314.000000
 11
-270.000000
 21
-278.000000
  0
LINE
  8
A-GLAZ-0
 10
-274.000000
 20
-278.000000
 11
-274.000000
 21
-314.000000
  0
LINE
  8
A-GLAZ-0
 10
-272.000000
 20
-278.000000
 11
-272.000000
 21
-314.000000
  0
TEXT
  8
A-DIMS-0
 10
-278.532276
 20
-305.723940
 40
5.652040
  1
3020
 50
90.000000
  7
STANDARD
  0
LINE
  8
A-GLAZ-0
 10
-274.000000
 20
-414.000000
 11
-270.000000
 21
-414.000000
  0
LINE
  8
A-GLAZ-0
 10
-270.000000
 20
-450.000000
 11
-274.000000
 21
-450.000000
  0
LINE
  8
A-GLAZ-0
 10
-270.000000
 20
-450.000000
 11
-270.000000
 21
-414.000000
  0
LINE
  8
A-GLAZ-0
 10
-274.000000
 20
-414.000000
 11
-274.000000
 21
-450.000000
  0
LINE
  8
A-GLAZ-0
 10
-272.000000
 20
-414.000000
 11
-272.000000
 21
-450.000000
  0
TEXT
  8
A-DIMS-0
 10
-278.532276
 20
-441.723940
 40
5.652040
  1
3020
 50
90.000000
  7
STANDARD
  0
LINE
  8
A-WALL-0
 10
-274.000000
 20
-602.000000
 11
-286.630371
 21
-602.000000
  0
LINE
  8
A-WALL-0
 10
-286.973511
 20
-608.000000
 11
-252.000000
 21
-608.000000
  0
LINE
  8
A-WALL-0
 10
-174.000000
 20
-602.000000
 11
-270.000000
 21
-602.000000
  0
LINE
  8
A-WALL-0
 10
-248.000000
 20
-608.000000
 11
-178.000000
 21
-608.000000
  0
LINE
  8
A-WALL-0
 10
-252.000000
 20
-666.000000
 11
-176.000000
 21
-666.000000
  0
LINE
  8
A-WALL-0
 10
-178.000000
 20
-662.000000
 11
-248.000000
 21
-662.000000
  0
LINE
  8
A-WALL-0
 10
-42.000000
 20
-839.000000
 11
102.000000
 21
-839.000000
  0
LINE
  8
A-WALL-0
 10
98.000000
 20
-835.000000
 11
-38.000000
 21
-835.000000
  0
LINE
  8
A-WALL-0
 10
98.000000
 20
-805.000000
 11
98.000000
 21
-835.000000
  0
LINE
  8
A-WALL-0
 10
102.000000
 20
-839.000000
 11
102.000000
 21
-809.000000
  0
LINE
  8
A-WALL-0
 10
102.000000
 20
-809.000000
 11
230.000000
 21
-809.000000
  0
LINE
  8
A-WALL-0
 10
226.000000
 20
-805.000000
 11
98.000000
 21
-805.000000
  0
LINE
  8
A-WALL-0
 10
230.000000
 20
-268.000000
 11
230.000000
 21
-255.000000
  0
LINE
  8
A-WALL-0
 10
226.000000
 20
-259.000000
 11
226.000000
 21
-268.000000
  0
LINE
  8
A-WALL-0
 10
226.000000
 20
-304.000000
 11
226.000000
 21
-415.000000
  0
LINE
  8
A-WALL-0
 10
226.000000
 20
-419.000000
 11
226.000000
 21
-515.000000
  0
LINE
  8
A-WALL-0
 10
226.000000
 20
-519.000000
 11
226.000000
 21
-563.000000
  0
LINE
  8
A-WALL-0
 10
230.000000
 20
-809.000000
 11
230.000000
 21
-304.000000
  0
LINE
  8
A-WALL-0
 10
226.000000
 20
-567.000000
 11
226.000000
 21
-805.000000
  0
LINE
  8
A-GLAZ-0
 10
230.000000
 20
-304.000000
 11
226.000000
 21
-304.000000
  0
LINE
  8
A-GLAZ-0
 10
226.000000
 20
-268.000000
 11
230.000000
 21
-268.000000
  0
LINE
  8
A-GLAZ-0
 10
226.000000
 20
-268.000000
 11
226.000000
 21
-304.000000
  0
LINE
  8
A-GLAZ-0
 10
230.000000
 20
-304.000000
 11
230.000000
 21
-268.000000
  0
LINE
  8
A-GLAZ-0
 10
228.000000
 20
-304.000000
 11
228.000000
 21
-268.000000
  0
TEXT
  8
A-DIMS-0
 10
239.934465
 20
-295.723940
 40
5.652040
  1
3020
 50
90.000000
  7
STANDARD
  0
LINE
  8
A-WALL-0
 10
-223.000000
 20
-255.000000
 11
-274.000000
 21
-255.000000
  0
LINE
  8
A-WALL-0
 10
-270.000000
 20
-259.000000
 11
-223.000000
 21
-259.000000
  0
LINE
  8
A-WALL-0
 10
-114.000000
 20
-255.000000
 11
-161.000000
 21
-255.000000
  0
LINE
  8
A-WALL-0
 10
-161.000000
 20
-259.000000
 11
-114.000000
 21
-259.000000
  0
LINE
  8
A-GLAZ-0
 10
-223.000000
 20
-255.000000
 11
-223.000000
 21
-259.000000
  0
LINE
  8
A-GLAZ-0
 10
-161.000000
 20
-255.000000
 11
-161.000000
 21
-259.000000
  0
LINE
  8
A-GLAZ-0
 10
-223.000000
 20
-259.000000
 11
-223.000000
 21
-290.000000
  0
LINE
  8
A-GLAZ-0
 10
-221.250000
 20
-290.000000
 11
-221.250000
 21
-259.000000
  0
LINE
  8
A-GLAZ-0
 10
-221.250000
 20
-259.000000
 11
-223.000000
 21
-259.000000
  0
ARC
  8
A-GLAZ-0
 10
-223.000000
 20
-259.000000
 40
31.000000
 50
270.000000
 51
0.000000
  0
LINE
  8
A-GLAZ-0
 10
-161.000000
 20
-259.000000
 11
-161.000000
 21
-290.000000
  0
LINE
  8
A-GLAZ-0
 10
-162.750000
 20
-290.000000
 11
-162.750000
 21
-259.000000
  0
LINE
  8
A-GLAZ-0
 10
-162.750000
 20
-259.000000
 11
-161.000000
 21
-259.000000
  0
ARC
  8
A-GLAZ-0
 10
-161.000000
 20
-259.000000
 40
31.000000
 50
180.000000
 51
270.000000
  0
LINE
  8
A-GLAZ-0
 10
-223.000000
 20
-255.000000
 11
-161.000000
 21
-255.000000
  0
TEXT
  8
A-DIMS-0
 10
-201.723940
 20
-250.467724
 40
5.652040
  1
5268
  7
STANDARD
  0
LINE
  8
A-WALL-0
 10
-110.000000
 20
-211.000000
 11
-110.000000
 21
-99.000000
  0
LINE
  8
A-WALL-0
 10
-114.000000
 20
-95.000000
 11
-114.000000
 21
-211.000000
  0
LINE
  8
A-WALL-0
 10
-110.000000
 20
-255.000000
 11
-110.000000
 21
-249.000000
  0
LINE
  8
A-WALL-0
 10
-114.000000
 20
-249.000000
 11
-114.000000
 21
-255.000000
  0
LINE
  8
A-WALL-0
 10
-110.000000
 20
-263.000000
 11
-110.000000
 21
-259.000000
  0
LINE
  8
A-WALL-0
 10
-114.000000
 20
-259.000000
 11
-114.000000
 21
-263.000000
  0
LINE
  8
A-WALL-0
 10
-110.000000
 20
-329.000000
 11
-110.000000
 21
-325.000000
  0
LINE
  8
A-WALL-0
 10
-114.000000
 20
-325.000000
 11
-114.000000
 21
-333.000000
  0
LINE
  8
A-GLAZ-0
 10
-110.000000
 20
-211.000000
 11
-114.000000
 21
-211.000000
  0
LINE
  8
A-GLAZ-0
 10
-110.000000
 20
-249.000000
 11
-114.000000
 21
-249.000000
  0
LINE
  8
A-GLAZ-0
 10
-110.000000
 20
-249.000000
 11
-72.000000
 21
-249.000000
  0
LINE
  8
A-GLAZ-0
 10
-72.000000
 20
-247.250000
 11
-110.000000
 21
-247.250000
  0
LINE
  8
A-GLAZ-0
 10
-110.000000
 20
-247.250000
 11
-110.000000
 21
-249.000000
  0
ARC
  8
A-GLAZ-0
 10
-110.000000
 20
-249.000000
 40
38.000000
 50
0.000000
 51
90.000000
  0
LINE
  8
A-GLAZ-0
 10
-114.000000
 20
-211.000000
 11
-114.000000
 21
-249.000000
  0
TEXT
  8
A-DIMS-0
 10
-118.532276
 20
-239.723940
 40
5.652040
  1
3268
 50
90.000000
  7
STANDARD
  0
LINE
  8
A-GLAZ-0
 10
-110.000000
 20
-263.000000
 11
-114.000000
 21
-263.000000
  0
LINE
  8
A-GLAZ-0
 10
-110.000000
 20
-325.000000
 11
-114.000000
 21
-325.000000
  0
LINE
  8
A-GLAZ-0
 10
-114.000000
 20
-325.000000
 11
-145.000000
 21
-325.000000
  0
LINE
  8
A-GLAZ-0
 10
-145.000000
 20
-323.625000
 11
-114.000000
 21
-323.625000
  0
LINE
  8
A-GLAZ-0
 10
-114.000000
 20
-323.625000
 11
-114.000000
 21
-325.000000
  0
ARC
  8
A-GLAZ-0
 10
-114.000000
 20
-325.000000
 40
31.000000
 50
90.000000
 51
180.000000
  0
LINE
  8
A-GLAZ-0
 10
-114.000000
 20
-263.000000
 11
-145.000000
 21
-263.000000
  0
LINE
  8
A-GLAZ-0
 10
-145.000000
 20
-264.375000
 11
-114.000000
 21
-264.375000
  0
LINE
  8
A-GLAZ-0
 10
-114.000000
 20
-264.375000
 11
-114.000000
 21
-263.000000
  0
ARC
  8
A-GLAZ-0
 10
-114.000000
 20
-263.000000
 40
31.000000
 50
180.000000
 51
270.000000
  0
TEXT
  8
A-DIMS-0
 10
-109.298905
 20
-303.723940
 40
5.652040
  1
5268
 50
90.000000
  7
STANDARD
  0
LINE
  8
A-WALL-0
 10
202.000000
 20
-255.000000
 11
74.000000
 21
-255.000000
  0
LINE
  8
A-WALL-0
 10
65.000000
 20
-259.000000
 11
204.000000
 21
-259.000000
  0
LINE
  8
A-WALL-0
 10
-80.000000
 20
-259.000000
 11
61.000000
 21
-259.000000
  0
LINE
  8
A-WALL-0
 10
-110.000000
 20
-259.000000
 11
-84.000000
 21
-259.000000
  0
LINE
  8
A-WALL-0
 10
70.000000
 20
-255.000000
 11
-110.000000
 21
-255.000000
  0
LINE
  8
A-WALL-0
 10
202.000000
 20
-175.000000
 11
202.000000
 21
-255.000000
  0
LINE
  8
A-WALL-0
 10
206.000000
 20
-255.000000
 11
206.000000
 21
-171.000000
  0
LINE
  8
A-WALL-0
 10
74.000000
 20
-175.000000
 11
202.000000
 21
-175.000000
  0
LINE
  8
A-WALL-0
 10
206.000000
 20
-171.000000
 11
74.000000
 21
-171.000000
  0
LINE
  8
A-WALL-0
 10
-84.000000
 20
-329.000000
 11
-110.000000
 21
-329.000000
  0
LINE
  8
A-WALL-0
 10
-42.000000
 20
-329.000000
 11
-80.000000
 21
-329.000000
  0
LINE
  8
A-WALL-0
 10
-114.000000
 20
-333.000000
 11
-42.000000
 21
-333.000000
  0
LINE
  8
A-WALL-0
 10
61.000000
 20
-329.000000
 11
-4.000000
 21
-329.000000
  0
LINE
  8
A-WALL-0
 10
-4.000000
 20
-333.000000
 11
61.000000
 21
-333.000000
  0
LINE
  8
A-GLAZ-0
 10
-42.000000
 20
-329.000000
 11
-42.000000
 21
-333.000000
  0
LINE
  8
A-GLAZ-0
 10
-4.000000
 20
-329.000000
 11
-4.000000
 21
-333.000000
  0
LINE
  8
A-GLAZ-0
 10
-4.000000
 20
-329.000000
 11
-4.000000
 21
-291.000000
  0
LINE
  8
A-GLAZ-0
 10
-5.375000
 20
-291.000000
 11
-5.375000
 21
-329.000000
  0
LINE
  8
A-GLAZ-0
 10
-5.375000
 20
-329.000000
 11
-4.000000
 21
-329.000000
  0
ARC
  8
A-GLAZ-0
 10
-4.000000
 20
-329.000000
 40
38.000000
 50
90.000000
 51
180.000000
  0
TEXT
  8
A-DIMS-0
 10
-32.723940
 20
-333.701095
 40
5.652040
  1
3268
  7
STANDARD
  0
LINE
  8
A-WALL-0
 10
-110.000000
 20
-99.000000
 11
70.000000
 21
-99.000000
  0
LINE
  8
A-WALL-0
 10
74.000000
 20
-95.000000
 11
-114.000000
 21
-95.000000
  0
LINE
  8
A-WALL-0
 10
-270.000000
 20
-472.000000
 11
-173.600937
 21
-472.000000
  0
LINE
  8
A-WALL-0
 10
-139.000000
 20
-468.000000
 11
-270.000000
 21
-468.000000
  0
LINE
  8
A-WALL-0
 10
-169.600937
 20
-472.000000
 11
-139.000000
 21
-472.000000
  0
LINE
  8
A-WALL-0
 10
-101.000000
 20
-472.000000
 11
-42.000000
 21
-472.000000
  0
LINE
  8
A-WALL-0
 10
38.000000
 20
-468.000000
 11
-101.000000
 21
-468.000000
  0
LINE
  8
A-WALL-0
 10
-38.000000
 20
-472.000000
 11
42.000000
 21
-472.000000
  0
LINE
  8
A-GLAZ-0
 10
-139.000000
 20
-468.000000
 11
-139.000000
 21
-472.000000
  0
LINE
  8
A-GLAZ-0
 10
-101.000000
 20
-468.000000
 11
-101.000000
 21
-472.000000
  0
LINE
  8
A-GLAZ-0
 10
-139.000000
 20
-468.000000
 11
-139.000000
 21
-430.000000
  0
LINE
  8
A-GLAZ-0
 10
-137.625000
 20
-430.000000
 11
-137.625000
 21
-468.000000
  0
LINE
  8
A-GLAZ-0
 10
-137.625000
 20
-468.000000
 11
-139.000000
 21
-468.000000
  0
ARC
  8
A-GLAZ-0
 10
-139.000000
 20
-468.000000
 40
38.000000
 50
0.000000
 51
90.000000
  0
TEXT
  8
A-DIMS-0
 10
-129.723940
 20
-472.701095
 40
5.652040
  1
3268
  7
STANDARD
  0
LINE
  8
A-WALL-0
 10
137.000000
 20
-515.000000
 11
137.000000
 21
-419.000000
  0
LINE
  8
A-WALL-0
 10
133.000000
 20
-419.000000
 11
133.000000
 21
-519.000000
  0
LINE
  8
A-WALL-0
 10
178.500000
 20
-419.000000
 11
226.000000
 21
-419.000000
  0
LINE
  8
A-WALL-0
 10
226.000000
 20
-415.000000
 11
178.500000
 21
-415.000000
  0
LINE
  8
A-WALL-0
 10
137.000000
 20
-419.000000
 11
140.500000
 21
-419.000000
  0
LINE
  8
A-WALL-0
 10
61.000000
 20
-419.000000
 11
133.000000
 21
-419.000000
  0
LINE
  8
A-WALL-0
 10
140.500000
 20
-415.000000
 11
65.000000
 21
-415.000000
  0
LINE
  8
A-GLAZ-0
 10
178.500000
 20
-419.000000
 11
178.500000
 21
-415.000000
  0
LINE
  8
A-GLAZ-0
 10
140.500000
 20
-419.000000
 11
140.500000
 21
-415.000000
  0
LINE
  8
A-GLAZ-0
 10
140.500000
 20
-419.000000
 11
140.500000
 21
-457.000000
  0
LINE
  8
A-GLAZ-0
 10
141.875000
 20
-457.000000
 11
141.875000
 21
-419.000000
  0
LINE
  8
A-GLAZ-0
 10
141.875000
 20
-419.000000
 11
140.500000
 21
-419.000000
  0
ARC
  8
A-GLAZ-0
 10
140.500000
 20
-419.000000
 40
38.000000
 50
270.000000
 51
0.000000
  0
TEXT
  8
A-DIMS-0
 10
149.776060
 20
-419.701095
 40
5.652040
  1
3268
  7
STANDARD
  0
LINE
  8
A-WALL-0
 10
42.000000
 20
-472.000000
 11
42.000000
 21
-391.000000
  0
LINE
  8
A-WALL-0
 10
38.000000
 20
-387.000000
 11
38.000000
 21
-468.000000
  0
LINE
  8
A-WALL-0
 10
226.000000
 20
-515.000000
 11
137.000000
 21
-515.000000
  0
LINE
  8
A-WALL-0
 10
133.000000
 20
-519.000000
 11
226.000000
 21
-519.000000
  0
LINE
  8
A-WALL-0
 10
61.000000
 20
-387.000000
 11
38.000000
 21
-387.000000
  0
LINE
  8
A-WALL-0
 10
42.000000
 20
-391.000000
 11
61.000000
 21
-391.000000
  0
LINE
  8
A-WALL-0
 10
65.000000
 20
-288.500000
 11
65.000000
 21
-259.000000
  0
LINE
  8
A-WALL-0
 10
61.000000
 20
-259.000000
 11
61.000000
 21
-288.500000
  0
LINE
  8
A-WALL-0
 10
61.000000
 20
-326.500000
 11
61.000000
 21
-329.000000
  0
LINE
  8
A-WALL-0
 10
65.000000
 20
-345.500000
 11
65.000000
 21
-326.500000
  0
LINE
  8
A-WALL-0
 10
61.000000
 20
-333.000000
 11
61.000000
 21
-345.500000
  0
LINE
  8
A-WALL-0
 10
61.000000
 20
-383.500000
 11
61.000000
 21
-387.000000
  0
LINE
  8
A-WALL-0
 10
65.000000
 20
-415.000000
 11
65.000000
 21
-383.500000
  0
LINE
  8
A-WALL-0
 10
61.000000
 20
-391.000000
 11
61.000000
 21
-419.000000
  0
LINE
  8
A-GLAZ-0
 10
65.000000
 20
-288.500000
 11
61.000000
 21
-288.500000
  0
LINE
  8
A-GLAZ-0
 10
65.000000
 20
-326.500000
 11
61.000000
 21
-326.500000
  0
LINE
  8
A-GLAZ-0
 10
61.000000
 20
-326.500000
 11
23.000000
 21
-326.500000
  0
LINE
  8
A-GLAZ-0
 10
23.000000
 20
-325.125000
 11
61.000000
 21
-325.125000
  0
LINE
  8
A-GLAZ-0
 10
61.000000
 20
-325.125000
 11
61.000000
 21
-326.500000
  0
ARC
  8
A-GLAZ-0
 10
61.000000
 20
-326.500000
 40
38.000000
 50
90.000000
 51
180.000000
  0
TEXT
  8
A-DIMS-0
 10
65.701095
 20
-317.223940
 40
5.652040
  1
3268
 50
90.000000
  7
STANDARD
  0
LINE
  8
A-GLAZ-0
 10
65.000000
 20
-345.500000
 11
61.000000
 21
-345.500000
  0
LINE
  8
A-GLAZ-0
 10
65.000000
 20
-383.500000
 11
61.000000
 21
-383.500000
  0
LINE
  8
A-GLAZ-0
 10
65.000000
 20
-383.500000
 11
103.000000
 21
-383.500000
  0
LINE
  8
A-GLAZ-0
 10
103.000000
 20
-382.125000
 11
65.000000
 21
-382.125000
  0
LINE
  8
A-GLAZ-0
 10
65.000000
 20
-382.125000
 11
65.000000
 21
-383.500000
  0
ARC
  8
A-GLAZ-0
 10
65.000000
 20
-383.500000
 40
38.000000
 50
0.000000
 51
90.000000
  0
TEXT
  8
A-DIMS-0
 10
65.701095
 20
-374.223940
 40
5.652040
  1
3268
 50
90.000000
  7
STANDARD
  0
LINE
  8
A-WALL-0
 10
-80.000000
 20
-329.000000
 11
-80.000000
 21
-259.000000
  0
LINE
  8
A-WALL-0
 10
-84.000000
 20
-259.000000
 11
-84.000000
 21
-329.000000
  0
LINE
  8
A-WALL-0
 10
-170.500000
 20
-662.000000
 11
-174.000000
 21
-662.000000
  0
LINE
  8
A-WALL-0
 10
-176.000000
 20
-666.000000
 11
-170.500000
 21
-666.000000
  0
LINE
  8
A-WALL-0
 10
-42.000000
 20
-662.000000
 11
-132.500000
 21
-662.000000
  0
LINE
  8
A-WALL-0
 10
-132.500000
 20
-666.000000
 11
-42.000000
 21
-666.000000
  0
LINE
  8
A-GLAZ-0
 10
-170.500000
 20
-662.000000
 11
-170.500000
 21
-666.000000
  0
LINE
  8
A-GLAZ-0
 10
-132.500000
 20
-662.000000
 11
-132.500000
 21
-666.000000
  0
LINE
  8
A-GLAZ-0
 10
-170.500000
 20
-666.000000
 11
-170.500000
 21
-704.000000
  0
LINE
  8
A-GLAZ-0
 10
-169.125000
 20
-704.000000
 11
-169.125000
 21
-666.000000
  0
LINE
  8
A-GLAZ-0
 10
-169.125000
 20
-666.000000
 11
-170.500000
 21
-666.000000
  0
ARC
  8
A-GLAZ-0
 10
-170.500000
 20
-666.000000
 40
38.000000
 50
270.000000
 51
0.000000
  0
TEXT
  8
A-DIMS-0
 10
-161.223940
 20
-666.701095
 40
5.652040
  1
3268
  7
STANDARD
  0
LINE
  8
A-WALL-0
 10
-175.000000
 20
-797.000000
 11
-175.000000
 21
-773.000000
  0
LINE
  8
A-WALL-0
 10
-179.000000
 20
-717.000000
 11
-179.000000
 21
-793.000000
  0
LINE
  8
A-WALL-0
 10
-175.000000
 20
-769.000000
 11
-175.000000
 21
-721.000000
  0
LINE
  8
A-WALL-0
  6
DOTTED
 10
-228.000000
 20
-514.000000
 11
-228.000000
 21
-602.000000
  0
LINE
  8
A-WALL-0
  6
DOTTED
 10
-226.000000
 20
-602.000000
 11
-226.000000
 21
-516.000000
  0
LINE
  8
A-WALL-0
 10
-38.000000
 20
-476.000000
 11
-38.000000
 21
-472.000000
  0
LINE
  8
A-WALL-0
 10
-42.000000
 20
-472.000000
 11
-42.000000
 21
-476.000000
  0
LINE
  8
A-WALL-0
 10
-38.000000
 20
-563.000000
 11
-38.000000
 21
-512.000000
  0
LINE
  8
A-WALL-0
 10
-42.000000
 20
-512.000000
 11
-42.000000
 21
-662.000000
  0
LINE
  8
A-WALL-0
 10
-42.000000
 20
-666.000000
 11
-42.000000
 21
-717.000000
  0
LINE
  8
A-WALL-0
 10
-42.000000
 20
-721.000000
 11
-42.000000
 21
-769.000000
  0
LINE
  8
A-WALL-0
 10
-38.000000
 20
-835.000000
 11
-38.000000
 21
-567.000000
  0
LINE
  8
A-WALL-0
 10
-42.000000
 20
-773.000000
 11
-42.000000
 21
-839.000000
  0
LINE
  8
A-GLAZ-0
 10
-38.000000
 20
-476.000000
 11
-42.000000
 21
-476.000000
  0
LINE
  8
A-GLAZ-0
 10
-38.000000
 20
-512.000000
 11
-42.000000
 21
-512.000000
  0
LINE
  8
A-GLAZ-0
 10
-38.000000
 20
-476.000000
 11
-2.000000
 21
-476.000000
  0
LINE
  8
A-GLAZ-0
 10
-2.000000
 20
-477.375000
 11
-38.000000
 21
-477.375000
  0
LINE
  8
A-GLAZ-0
 10
-38.000000
 20
-477.375000
 11
-38.000000
 21
-476.000000
  0
ARC
  8
A-GLAZ-0
 10
-38.000000
 20
-476.000000
 40
36.000000
 50
270.000000
 51
0.000000
  0
TEXT
  8
A-DIMS-0
 10
-37.298905
 20
-503.723940
 40
5.652040
  1
3068
 50
90.000000
  7
STANDARD
  0
LINE
  8
A-WALL-0
  6
DOTTED
 10
-173.600937
 20
-514.000000
 11
-228.000000
 21
-514.000000
  0
LINE
  8
A-WALL-0
  6
DOTTED
 10
-226.000000
 20
-516.000000
 11
-169.600937
 21
-516.000000
  0
LINE
  8
A-WALL-0
 10
-175.000000
 20
-721.000000
 11
-42.000000
 21
-721.000000
  0
LINE
  8
A-WALL-0
 10
-42.000000
 20
-717.000000
 11
-179.000000
 21
-717.000000
  0
LINE
  8
A-WALL-0
 10
-175.000000
 20
-773.000000
 11
-42.000000
 21
-773.000000
  0
LINE
  8
A-WALL-0
 10
-42.000000
 20
-769.000000
 11
-175.000000
 21
-769.000000
  0
LINE
  8
A-WALL-0
 10
-178.000000
 20
-655.000000
 11
-178.000000
 21
-662.000000
  0
LINE
  8
A-WALL-0
 10
-174.000000
 20
-662.000000
 11
-174.000000
 21
-655.000000
  0
LINE
  8
A-WALL-0
 10
-178.000000
 20
-608.000000
 11
-178.000000
 21
-617.000000
  0
LINE
  8
A-WALL-0
 10
-174.000000
 20
-617.000000
 11
-174.000000
 21
-602.000000
  0
LINE
  8
A-GLAZ-0
 10
-178.000000
 20
-655.000000
 11
-174.000000
 21
-655.000000
  0
LINE
  8
A-GLAZ-0
 10
-178.000000
 20
-617.000000
 11
-174.000000
 21
-617.000000
  0
LINE
  8
A-GLAZ-0
 10
-174.000000
 20
-655.000000
 11
-136.000000
 21
-655.000000
  0
LINE
  8
A-GLAZ-0
 10
-136.000000
 20
-653.625000
 11
-174.000000
 21
-653.625000
  0
LINE
  8
A-GLAZ-0
 10
-174.000000
 20
-653.625000
 11
-174.000000
 21
-655.000000
  0
ARC
  8
A-GLAZ-0
 10
-174.000000
 20
-655.000000
 40
38.000000
 50
0.000000
 51
90.000000
  0
TEXT
  8
A-DIMS-0
 10
-173.298905
 20
-645.723940
 40
5.652040
  1
3268
 50
90.000000
  7
STANDARD
  0
LINE
  8
A-WALL-0
 10
-322.000000
 20
-797.000000
 11
-175.000000
 21
-797.000000
  0
LINE
  8
A-WALL-0
 10
-179.000000
 20
-793.000000
 11
-318.000000
 21
-793.000000
  0
LINE
  8
A-WALL-0
 10
-322.000000
 20
-637.369629
 11
-322.000000
 21
-797.000000
  0
LINE
  8
A-WALL-0
 10
-318.000000
 20
-793.000000
 11
-318.000000
 21
-639.026489
  0
LINE
  8
A-WALL-0
 10
-286.630371
 20
-602.000000
 11
-322.000000
 21
-637.369629
  0
LINE
  8
A-WALL-0
 10
-318.000000
 20
-639.026489
 11
-286.973511
 21
-608.000000
  0
LINE
  8
A-WALL-0
 10
230.000000
 20
-255.000000
 11
206.000000
 21
-255.000000
  0
LINE
  8
A-WALL-0
 10
204.000000
 20
-259.000000
 11
226.000000
 21
-259.000000
  0
LINE
  8
A-WALL-0
 10
74.000000
 20
-171.000000
 11
74.000000
 21
-95.000000
  0
LINE
  8
A-WALL-0
 10
74.000000
 20
-255.000000
 11
74.000000
 21
-175.000000
  0
LINE
  8
A-WALL-0
 10
70.000000
 20
-99.000000
 11
70.000000
 21
-255.000000
  0
LINE
  8
A-WALL-0
 10
-173.600937
 20
-515.000000
 11
-169.600937
 21
-515.000000
  0
LINE
  8
A-WALL-0
 10
-169.600937
 20
-477.000000
 11
-169.600937
 21
-472.000000
  0
LINE
  8
A-WALL-0
 10
-173.600937
 20
-472.000000
 11
-173.600937
 21
-477.000000
  0
LINE
  8
A-WALL-0
 10
-169.600937
 20
-515.000000
 11
-169.600937
 21
-507.000000
  0
LINE
  8
A-WALL-0
 10
-173.600937
 20
-507.000000
 11
-173.600937
 21
-515.000000
  0
LINE
  8
A-GLAZ-0
 10
-169.600938
 20
-477.000000
 11
-173.600938
 21
-477.000000
  0
LINE
  8
A-GLAZ-0
 10
-169.600938
 20
-507.000000
 11
-173.600938
 21
-507.000000
  0
LINE
  8
A-GLAZ-0
 10
-169.600938
 20
-477.000000
 11
-139.600938
 21
-477.000000
  0
LINE
  8
A-GLAZ-0
 10
-139.600938
 20
-478.375000
 11
-169.600938
 21
-478.375000
  0
LINE
  8
A-GLAZ-0
 10
-169.600938
 20
-478.375000
 11
-169.600938
 21
-477.000000
  0
ARC
  8
A-GLAZ-0
 10
-169.600938
 20
-477.000000
 40
30.000000
 50
270.000000
 51
0.000000
  0
TEXT
  8
A-DIMS-0
 10
-168.899844
 20
-501.723940
 40
5.652040
  1
2668
 50
90.000000
  7
STANDARD
  0
LINE
  8
A-WALL-0
 10
226.000000
 20
-563.000000
 11
-38.000000
 21
-563.000000
  0
LINE
  8
A-WALL-0
 10
-38.000000
 20
-567.000000
 11
226.000000
 21
-567.000000
  0
LINE
  8
A-WALL-0
 10
-248.000000
 20
-662.000000
 11
-248.000000
 21
-608.000000
  0
LINE
  8
A-WALL-0
 10
-252.000000
 20
-608.000000
 11
-252.000000
 21
-666.000000
  0
LINE
  8
A-STAR-0
 10
-219.000000
 20
-601.500000
 11
-210.000000
 21
-601.500000
  0
LINE
  8
A-STAR-0
 10
-210.000000
 20
-601.500000
 11
-210.000000
 21
-559.500000
  0
LINE
  8
A-STAR-0
 10
-210.000000
 20
-559.500000
 11
-219.000000
 21
-559.500000
  0
LINE
  8
A-STAR-0
 10
-228.000000
 20
-601.500000
 11
-219.000000
 21
-601.500000
  0
LINE
  8
A-STAR-0
 10
-219.000000
 20
-601.500000
 11
-219.000000
 21
-559.500000
  0
LINE
  8
A-STAR-0
 10
-219.000000
 20
-559.500000
 11
-228.000000
 21
-559.500000
  0
LINE
  8
A-STAR-0
 10
-228.000000
 20
-601.500000
 11
-228.000000
 21
-559.500000
  0
TEXT
  8
A-POWR-0
 10
-223.865566
 20
-579.552800
 40
4.396031
  1
UP
  7
STANDARD
  0
LINE
  8
A-STAR-0
 10
-229.000000
 20
-582.500000
 11
-218.000000
 21
-582.500000
  0
LINE
  8
A-STAR-0
 10
-228.000000
 20
-559.000000
 11
-228.000000
 21
-602.000000
  0
LINE
  8
A-STAR-0
 10
-228.000000
 20
-602.000000
 11
-270.000000
 21
-602.000000
  0
LINE
  8
A-STAR-0
 10
-270.000000
 20
-602.000000
 11
-270.000000
 21
-559.000000
  0
LINE
  8
A-STAR-0
 10
-270.000000
 20
-559.000000
 11
-228.000000
 21
-559.000000
  0
LINE
  8
A-STAR-0
 10
-270.000000
 20
-550.000000
 11
-270.000000
 21
-559.000000
  0
LINE
  8
A-STAR-0
 10
-270.000000
 20
-559.000000
 11
-228.000000
 21
-559.000000
  0
LINE
  8
A-STAR-0
 10
-228.000000
 20
-559.000000
 11
-228.000000
 21
-550.000000
  0
LINE
  8
A-STAR-0
 10
-270.000000
 20
-541.000000
 11
-270.000000
 21
-550.000000
  0
LINE
  8
A-STAR-0
 10
-270.000000
 20
-550.000000
 11
-228.000000
 21
-550.000000
  0
LINE
  8
A-STAR-0
 10
-228.000000
 20
-550.000000
 11
-228.000000
 21
-541.000000
  0
LINE
  8
A-STAR-0
 10
-270.000000
 20
-532.000000
 11
-270.000000
 21
-541.000000
  0
LINE
  8
A-STAR-0
 10
-270.000000
 20
-541.000000
 11
-228.000000
 21
-541.000000
  0
LINE
  8
A-STAR-0
 10
-228.000000
 20
-541.000000
 11
-228.000000
 21
-532.000000
  0
LINE
  8
A-STAR-0
 10
-270.000000
 20
-523.000000
 11
-270.000000
 21
-532.000000
  0
LINE
  8
A-STAR-0
 10
-270.000000
 20
-532.000000
 11
-228.000000
 21
-532.000000
  0
LINE
  8
A-STAR-0
 10
-228.000000
 20
-532.000000
 11
-228.000000
 21
-523.000000
  0
LINE
  8
A-STAR-0
 10
-270.000000
 20
-514.000000
 11
-270.000000
 21
-523.000000
  0
LINE
  8
A-STAR-0
 10
-270.000000
 20
-523.000000
 11
-228.000000
 21
-523.000000
  0
LINE
  8
A-STAR-0
 10
-228.000000
 20
-523.000000
 11
-228.000000
 21
-514.000000
  0
LINE
  8
A-STAR-0
 10
-270.000000
 20
-514.000000
 11
-228.000000
 21
-514.000000
  0
LINE
  8
A-STAR-0
 10
-227.500000
 20
-514.000000
 11
-270.000000
 21
-514.000000
  0
LINE
  8
A-STAR-0
 10
-270.000000
 20
-514.000000
 11
-270.000000
 21
-472.000000
  0
LINE
  8
A-STAR-0
 10
-270.000000
 20
-472.000000
 11
-227.500000
 21
-472.000000
  0
LINE
  8
A-STAR-0
 10
-227.500000
 20
-472.000000
 11
-227.500000
 21
-514.000000
  0
LINE
  8
A-STAR-0
 10
-218.500000
 20
-472.000000
 11
-227.500000
 21
-472.000000
  0
LINE
  8
A-STAR-0
 10
-227.500000
 20
-472.000000
 11
-227.500000
 21
-514.000000
  0
LINE
  8
A-STAR-0
 10
-227.500000
 20
-514.000000
 11
-218.500000
 21
-514.000000
  0
LINE
  8
A-STAR-0
 10
-209.500000
 20
-472.000000
 11
-218.500000
 21
-472.000000
  0
LINE
  8
A-STAR-0
 10
-218.500000
 20
-472.000000
 11
-218.500000
 21
-514.000000
  0
LINE
  8
A-STAR-0
 10
-218.500000
 20
-514.000000
 11
-209.500000
 21
-514.000000
  0
LINE
  8
A-STAR-0
 10
-200.500000
 20
-472.000000
 11
-209.500000
 21
-472.000000
  0
LINE
  8
A-STAR-0
 10
-209.500000
 20
-472.000000
 11
-209.500000
 21
-514.000000
  0
LINE
  8
A-STAR-0
 10
-209.500000
 20
-514.000000
 11
-200.500000
 21
-514.000000
  0
LINE
  8
A-STAR-0
 10
-191.500000
 20
-472.000000
 11
-200.500000
 21
-472.000000
  0
LINE
  8
A-STAR-0
 10
-200.500000
 20
-472.000000
 11
-200.500000
 21
-514.000000
  0
LINE
  8
A-STAR-0
 10
-200.500000
 20
-514.000000
 11
-191.500000
 21
-514.000000
  0
LINE
  8
A-STAR-0
 10
-182.500000
 20
-472.000000
 11
-191.500000
 21
-472.000000
  0
LINE
  8
A-STAR-0
 10
-191.500000
 20
-472.000000
 11
-191.500000
 21
-514.000000
  0
LINE
  8
A-STAR-0
 10
-191.500000
 20
-514.000000
 11
-182.500000
 21
-514.000000
  0
LINE
  8
A-STAR-0
 10
-173.500000
 20
-472.000000
 11
-182.500000
 21
-472.000000
  0
LINE
  8
A-STAR-0
 10
-182.500000
 20
-472.000000
 11
-182.500000
 21
-514.000000
  0
LINE
  8
A-STAR-0
 10
-182.500000
 20
-514.000000
 11
-173.500000
 21
-514.000000
  0
LINE
  8
A-STAR-0
 10
-173.500000
 20
-472.000000
 11
-173.500000
 21
-514.000000
  0
INSERT
  8
A-CASE-0
  2
FIXT-Toilet
 10
43.764539
 20
-288.980636
 41
1.000000
 42
1.071429
 43
 1.0
 50
0.000000
  0
INSERT
  8
A-CASE-0
  2
FIXT-WaterHG
 10
111.362316
 20
-455.218057
 41
1.000000
 42
1.000000
 43
 1.0
 50
0.000000
  0
INSERT
  8
A-CASE-0
  2
FIXT-FrnG2920
 10
72.392508
 20
-468.337387
 41
1.318182
 42
1.344828
 43
 1.0
 50
0.000000
  0
LINE
  8
A-CASE-0
 10
1.059827
 20
-259.000000
 11
1.059827
 21
-283.000000
  0
LINE
  8
A-CASE-0
 10
-40.940173
 20
-283.000000
 11
-40.940173
 21
-259.000000
  0
LINE
  8
A-CASE-0
 10
1.059827
 20
-283.000000
 11
-40.940173
 21
-283.000000
  0
INSERT
  8
A-CASE-0
  2
FIXT-OvalBath
 10
-19.940173
 20
-287.983894
 41
1.000000
 42
1.000000
 43
 1.0
 50
0.000000
  0
INSERT
  8
A-CASE-0
  2
FIXT-tubshr02
 10
-48.006800
 20
-294.000000
 41
1.166667
 42
1.000000
 43
 1.0
 50
-270.000000
  0
TEXT
  8
A-NOTE-0
 10
39.811299
 20
-708.136142
 40
9.420066
  1
UNEXCAVATED
  7
STANDARD
  0
TEXT
  8
A-NOTE-0
 10
70.128070
 20
-721.445938
 40
7.262942
  1
22' x 22'4
  7
STANDARD
  0
TEXT
  8
A-NOTE-0
 10
-145.091656
 20
-578.096832
 40
9.420066
  1
LOBBY
  7
STANDARD
  0
TEXT
  8
A-NOTE-0
 10
-150.199192
 20
-591.406628
 40
7.262942
  1
15'4 x 15'10
  7
STANDARD
  0
TEXT
  8
A-NOTE-0
 10
-198.276912
 20
-389.160282
 40
9.420066
  1
RECREATION ROOM
  7
STANDARD
  0
TEXT
  8
A-NOTE-0
 10
-153.539148
 20
-402.470078
 40
7.262942
  1
27'7 x 17'5
  7
STANDARD
  0
TEXT
  8
A-NOTE-0
 10
106.045664
 20
-328.601924
 40
9.420066
  1
BEDROOM
  7
STANDARD
  0
TEXT
  8
A-NOTE-0
 10
120.030736
 20
-341.911720
 40
7.262942
  1
13'5 x 13'
  7
STANDARD
  0
TEXT
  8
A-NOTE-0
 10
4.784720
 20
-302.450568
 40
7.326718
  1
BATH
  7
STANDARD
  0
TEXT
  8
A-NOTE-0
 10
-0.348286
 20
-312.502712
 40
5.612274
  1
11'9 x 5'10
  7
STANDARD
  0
TEXT
  8
A-NOTE-0
 10
153.290701
 20
-478.775083
 40
9.420066
  1
CLOSET
  7
STANDARD
  0
TEXT
  8
A-NOTE-0
 10
165.158379
 20
-492.084879
 40
7.262942
  1
7'5 x 8'
  7
STANDARD
  0
TEXT
  8
A-NOTE-0
 10
-87.872002
 20
-171.079330
 40
9.420066
  1
OUTSIDE STORAGE
  7
STANDARD
  0
TEXT
  8
A-NOTE-0
 10
-39.312824
 20
-184.389126
 40
7.262942
  1
15' x 13'
  7
STANDARD
  0
TEXT
  8
A-NOTE-0
 10
52.018651
 20
-519.028337
 40
9.420066
  1
UTILITY
  7
STANDARD
  0
TEXT
  8
A-NOTE-0
 10
55.822923
 20
-532.338133
 40
7.262942
  1
14'3 x 12'
  7
STANDARD
  0
TEXT
  8
A-NOTE-0
 10
-283.617980
 20
-717.142617
 40
9.420066
  1
STORAGE
  7
STANDARD
  0
TEXT
  8
A-NOTE-0
 10
-271.329708
 20
-730.452413
 40
7.262942
  1
23' x 10'7
  7
STANDARD
  0
TEXT
  8
A-NOTE-0
 10
-163.932120
 20
-742.618481
 40
9.420066
  1
UNEXCAVATED
  7
STANDARD
  0
TEXT
  8
A-NOTE-0
 10
-130.644145
 20
-755.928276
 40
7.262942
  1
11'1 x 4'
  7
STANDARD
  0
TEXT
  8
A-NOTE-0
 10
-241.957116
 20
-634.102691
 40
7.326718
  1
ELEVATOR
  7
STANDARD
  0
TEXT
  8
A-NOTE-0
 10
-230.573391
 20
-644.154835
 40
5.612274
  1
5'10 x 4'6
  7
STANDARD
  0
TEXT
  8
A-NOTE-0
 10
-112.202575
 20
-312.910427
 40
4.535588
  1
CLOSET
  7
STANDARD
  0
TEXT
  8
A-NOTE-0
 10
-108.898679
 20
-318.989614
 40
3.301337
  1
2'2 x 5'10
  7
STANDARD
  0
TEXT
  8
A-NOTE-0
 10
86.814861
 20
-216.157631
 40
9.420066
  1
UNEXCAVATED
  7
STANDARD
  0
TEXT
  8
A-NOTE-0
 10
117.131632
 20
-229.467427
 40
7.262942
  1
10'8 x 6'8
  7
STANDARD
  0
TEXT
  8
A-NOTE-0
 10
-89.904701
 20
-888.775083
 40
9.420066
  1
LIVING AREA
  7
STANDARD
  0
TEXT
  8
A-NOTE-0
 10
-69.769630
 20
-902.084879
 40
7.262942
  1
1785 sq ft
  7
STANDARD
  0
ENDSEC
  0
EOF
