  0
SECTION
  2
HEADER
  9
$ACADVER
  1
AC1006
  9
$EXTMIN
 10
-708.778200
 20
-941.833905
  9
$EXTMAX
 10
632.546961
 20
-13.745283
  9
$ANGDIR
 70
   0
  9
$LUNITS
 70
   2
  0
ENDSEC
  0
SECTION
  2
TABLES
  0
TABLE
  2
LTYPE
 70
   3
  0
LTYPE
  2
CONTINUOUS
 70
64
  3
SOLID LINE
 72
65
 73
0
 40
0.
  0
LTYPE
  2
DASHED
 70
64
  3
DASHED LINE
 72
65
 73
2
 40
8.
 49
5.
 49
-3.
  0
LTYPE
  2
DOTTED
 70
64
  3
DOTTED LINE
 72
65
 73
2
 40
4.
 49
2.
 49
-2.
  0
ENDTAB
  0
TABLE
  2
LAYER
 70
   15
  0
LAYER
  2
A-WALL-2
 70
64
 62
   7
  6
CONTINUOUS
  0
LAYER
  2
A-CASE-2
 70
64
 62
   7
  6
CONTINUOUS
  0
LAYER
  2
A-DIMS-2
 70
64
 62
   7
  6
CONTINUOUS
  0
LAYER
  2
A-POWR-2
 70
64
 62
   7
  6
CONTINUOUS
  0
LAYER
  2
A-NOTE-2
 70
64
 62
   7
  6
CONTINUOUS
  0
LAYER
  2
A-TEXT-2
 70
64
 62
   7
  6
CONTINUOUS
  0
LAYER
  2
A-FURN-2
 70
64
 62
   7
  6
CONTINUOUS
  0
LAYER
  2
A-GLAZ-2
 70
64
 62
   7
  6
CONTINUOUS
  0
LAYER
  2
A-STAR-2
 70
64
 62
   7
  6
CONTINUOUS
  0
LAYER
  2
A-ROOF-2
 70
64
 62
   7
  6
CONTINUOUS
  0
LAYER
  2
A-C000-2
 70
64
 62
   7
  6
CONTINUOUS
  0
ENDTAB
  0
ENDSEC
  0
SECTION
  2
BLOCKS
  0
BLOCK
  8
A-CASE-2
  2
FIXT-Toilet
 70
64
 10
0.0
 20
0.0
  0
ARC
  8
A-CASE-2
 10
9.046126
 20
27.780609
 40
1.431891
 50
0.000000
 51
90.000000
  0
LINE
  8
A-CASE-2
 10
9.046126
 20
29.212500
 11
-9.046126
 21
29.212500
  0
ARC
  8
A-CASE-2
 10
-9.046126
 20
27.780609
 40
1.431891
 50
90.000000
 51
180.000000
  0
LINE
  8
A-CASE-2
 10
-10.478017
 20
27.780609
 11
-10.478017
 21
21.731952
  0
ARC
  8
A-CASE-2
 10
-9.046126
 20
21.731952
 40
1.431891
 50
180.000000
 51
270.000000
  0
LINE
  8
A-CASE-2
 10
-9.046126
 20
20.300061
 11
9.046126
 21
20.300061
  0
ARC
  8
A-CASE-2
 10
9.046126
 20
21.731952
 40
1.431891
 50
270.000000
 51
0.000000
  0
LINE
  8
A-CASE-2
 10
10.478017
 20
21.731952
 11
10.478017
 21
27.780609
  0
ARC
  8
A-CASE-2
 10
0.029649
 20
13.174761
 40
6.001594
 50
38.796550
 51
141.203450
  0
ARC
  8
A-CASE-2
 10
0.029649
 20
7.965448
 40
6.001594
 50
218.796550
 51
321.203450
  0
ARC
  8
A-CASE-2
 10
3.269587
 20
10.570105
 40
10.158689
 50
141.203449
 51
218.796551
  0
ARC
  8
A-CASE-2
 10
-3.210289
 20
10.570105
 40
10.158689
 50
321.203449
 51
38.796551
  0
ENDBLK
  0
BLOCK
  8
A-CASE-2
  2
FIXT-Bidet
 70
64
 10
0.0
 20
0.0
  0
ARC
  8
A-CASE-2
 10
-0.029538
 20
8.781067
 40
8.663759
 50
180.000000
 51
270.195342
  0
ARC
  8
A-CASE-2
 10
-0.029740
 20
8.840345
 40
8.723038
 50
270.195342
 51
0.000000
  0
ARC
  8
A-CASE-2
 10
-6.918017
 20
16.812960
 40
1.775280
 50
164.999991
 51
180.000000
  0
LINE
  8
A-CASE-2
 10
-8.693297
 20
8.781067
 11
-8.693297
 21
16.812960
  0
ARC
  8
A-CASE-2
 10
-5.184232
 20
23.283535
 40
1.775280
 50
90.000000
 51
164.999995
  0
LINE
  8
A-CASE-2
 10
-8.632806
 20
17.272436
 11
-6.899021
 21
23.743012
  0
ARC
  8
A-CASE-2
 10
5.210175
 20
23.283535
 40
1.775280
 50
15.000005
 51
90.000000
  0
LINE
  8
A-CASE-2
 10
-5.184232
 20
25.058816
 11
5.210175
 21
25.058816
  0
ARC
  8
A-CASE-2
 10
6.918017
 20
16.909781
 40
1.775280
 50
0.000000
 51
15.000009
  0
LINE
  8
A-CASE-2
 10
6.924964
 20
23.743012
 11
8.632806
 21
17.369258
  0
LINE
  8
A-CASE-2
 10
8.693297
 20
16.909781
 11
8.693297
 21
8.840345
  0
ARC
  8
A-CASE-2
 10
4.642736
 20
16.610235
 40
1.697231
 50
0.000000
 51
14.999999
  0
LINE
  8
A-CASE-2
 10
6.339967
 20
16.610235
 11
6.339967
 21
8.840345
  0
ARC
  8
A-CASE-2
 10
-0.029538
 20
8.781067
 40
6.310430
 50
180.000000
 51
270.195342
  0
ARC
  8
A-CASE-2
 10
-0.029740
 20
8.840345
 40
6.369707
 50
270.195342
 51
0.000000
  0
ARC
  8
A-CASE-2
 10
-4.642736
 20
16.513412
 40
1.697231
 50
165.000001
 51
180.000000
  0
LINE
  8
A-CASE-2
 10
-6.339967
 20
8.781067
 11
-6.339967
 21
16.513412
  0
ARC
  8
A-CASE-2
 10
-3.858729
 20
19.439368
 40
1.697231
 50
90.000000
 51
165.000001
  0
LINE
  8
A-CASE-2
 10
-6.282135
 20
16.952688
 11
-5.498128
 21
19.878644
  0
ARC
  8
A-CASE-2
 10
3.884672
 20
19.439368
 40
1.697231
 50
15.000001
 51
90.000000
  0
LINE
  8
A-CASE-2
 10
-3.858729
 20
21.136599
 11
3.884672
 21
21.136599
  0
LINE
  8
A-CASE-2
 10
5.524072
 20
19.878644
 11
6.282135
 21
17.049511
  0
ENDBLK
  0
BLOCK
  8
A-CASE-2
  2
FIXT-OSpa7242
 70
64
 10
0.0
 20
0.0
  0
ARC
  8
A-CASE-2
 10
-18.841764
 20
23.088358
 40
13.047711
 50
119.446774
 51
240.553224
  0
ARC
  8
A-CASE-2
 10
18.814346
 20
23.088358
 40
13.047711
 50
299.446783
 51
60.553219
  0
ARC
  8
A-CASE-2
 10
-0.013709
 20
56.439077
 40
51.346092
 50
240.553221
 51
299.446780
  0
ARC
  8
A-CASE-2
 10
-0.013709
 20
-10.262360
 40
51.346092
 50
60.553220
 51
119.446779
  0
CIRCLE
  8
A-CASE-2
 10
0.040618
 20
36.571796
 40
1.012500
  0
ENDBLK
  0
BLOCK
  8
A-CASE-2
  2
FIXT-OvalBath
 70
64
 10
0.0
 20
0.0
  0
ARC
  8
A-CASE-2
 10
-3.083726
 20
15.991947
 40
6.926340
 50
128.659806
 51
231.340191
  0
ARC
  8
A-CASE-2
 10
3.083726
 20
15.991947
 40
6.926340
 50
308.659809
 51
51.340194
  0
ARC
  8
A-CASE-2
 10
-0.000000
 20
19.846604
 40
11.862710
 50
231.340192
 51
308.659808
  0
ARC
  8
A-CASE-2
 10
-0.000000
 20
12.137290
 40
11.862710
 50
51.340193
 51
128.659807
  0
ARC
  8
A-CASE-2
 10
-3.083726
 20
15.991947
 40
5.029696
 50
128.659805
 51
231.340188
  0
ARC
  8
A-CASE-2
 10
3.083726
 20
15.991947
 40
5.029696
 50
308.659812
 51
51.340195
  0
ARC
  8
A-CASE-2
 10
0.000000
 20
19.846604
 40
9.966065
 50
231.340190
 51
308.659810
  0
ARC
  8
A-CASE-2
 10
0.000000
 20
12.137290
 40
9.966065
 50
51.340193
 51
128.659807
  0
CIRCLE
  8
A-CASE-2
 10
-0.052685
 20
16.966612
 40
0.605872
  0
CIRCLE
  8
A-CASE-2
 10
-0.052685
 20
16.966612
 40
1.027349
  0
ENDBLK
  0
BLOCK
  8
A-CASE-2
  2
FIXT-Washer26
 70
64
 10
0.0
 20
0.0
  0
LINE
  8
A-CASE-2
 10
13.014303
 20
27.890013
 11
-13.014303
 21
27.890013
  0
LINE
  8
A-CASE-2
 10
-13.014303
 20
27.890013
 11
-13.014303
 21
0.850586
  0
LINE
  8
A-CASE-2
 10
-13.014303
 20
0.850586
 11
13.014303
 21
0.850586
  0
LINE
  8
A-CASE-2
 10
13.014303
 20
0.850586
 11
13.014303
 21
27.890013
  0
LINE
  8
A-CASE-2
 10
12.424659
 20
27.131898
 11
-12.424659
 21
27.131898
  0
LINE
  8
A-CASE-2
 10
-12.424659
 20
27.131898
 11
-12.424659
 21
24.520614
  0
LINE
  8
A-CASE-2
 10
-12.424659
 20
24.520614
 11
12.424659
 21
24.520614
  0
LINE
  8
A-CASE-2
 10
12.424659
 20
24.520614
 11
12.424659
 21
27.131898
  0
ARC
  8
A-CASE-2
 10
5.528337
 20
19.056286
 40
2.263399
 50
0.000000
 51
90.000000
  0
LINE
  8
A-CASE-2
 10
5.528337
 20
21.319685
 11
-5.528337
 21
21.319685
  0
ARC
  8
A-CASE-2
 10
-5.528337
 20
19.056286
 40
2.263399
 50
90.000000
 51
180.000000
  0
LINE
  8
A-CASE-2
 10
-7.791735
 20
19.056286
 11
-7.791735
 21
7.999614
  0
ARC
  8
A-CASE-2
 10
-5.528337
 20
7.999614
 40
2.263399
 50
180.000000
 51
270.000000
  0
LINE
  8
A-CASE-2
 10
-5.528337
 20
5.736216
 11
5.528337
 21
5.736216
  0
ARC
  8
A-CASE-2
 10
5.528337
 20
7.999614
 40
2.263399
 50
270.000000
 51
0.000000
  0
LINE
  8
A-CASE-2
 10
7.791735
 20
7.999614
 11
7.791735
 21
19.056286
  0
ENDBLK
  0
BLOCK
  8
A-CASE-2
  2
FIXT-DryerG28
 70
64
 10
0.0
 20
0.0
  0
LINE
  8
A-CASE-2
 10
14.038907
 20
27.890013
 11
-14.038907
 21
27.890013
  0
LINE
  8
A-CASE-2
 10
-14.038907
 20
27.890013
 11
-14.038907
 21
0.850586
  0
LINE
  8
A-CASE-2
 10
-14.038907
 20
0.850586
 11
14.038907
 21
0.850586
  0
LINE
  8
A-CASE-2
 10
14.038907
 20
0.850586
 11
14.038907
 21
27.890013
  0
LINE
  8
A-CASE-2
 10
13.620029
 20
27.131898
 11
-13.620029
 21
27.131898
  0
LINE
  8
A-CASE-2
 10
-13.620029
 20
27.131898
 11
-13.620029
 21
24.520614
  0
LINE
  8
A-CASE-2
 10
-13.620029
 20
24.520614
 11
13.620029
 21
24.520614
  0
LINE
  8
A-CASE-2
 10
13.620029
 20
24.520614
 11
13.620029
 21
27.131898
  0
ENDBLK
  0
BLOCK
  8
A-CASE-2
  2
FIXT-tubshr02
 70
64
 10
0.0
 20
0.0
  0
ARC
  8
A-CASE-2
 10
21.128384
 20
24.794895
 40
4.812746
 50
0.000000
 51
90.000000
  0
LINE
  8
A-CASE-2
 10
21.128384
 20
29.607641
 11
-22.458626
 21
29.607641
  0
ARC
  8
A-CASE-2
 10
-22.458626
 20
24.794895
 40
4.812746
 50
90.000000
 51
180.000000
  0
LINE
  8
A-CASE-2
 10
-27.271372
 20
24.794895
 11
-27.271372
 21
8.432888
  0
ARC
  8
A-CASE-2
 10
-22.458626
 20
8.432888
 40
4.812746
 50
180.000000
 51
270.000000
  0
LINE
  8
A-CASE-2
 10
-22.458626
 20
3.620142
 11
21.128384
 21
3.620142
  0
ARC
  8
A-CASE-2
 10
21.128384
 20
8.432888
 40
4.812746
 50
270.000000
 51
0.000000
  0
LINE
  8
A-CASE-2
 10
25.941130
 20
8.432888
 11
25.941130
 21
24.794895
  0
CIRCLE
  8
A-CASE-2
 10
-23.952621
 20
16.670141
 40
1.012500
  0
LINE
  8
A-CASE-2
 10
-30.005365
 20
32.000000
 11
-30.005365
 21
-0.013599
  0
LINE
  8
A-CASE-2
 10
-30.005365
 20
-0.013599
 11
30.005365
 21
-0.013599
  0
LINE
  8
A-CASE-2
 10
30.005365
 20
-0.013599
 11
30.005365
 21
32.000000
  0
LINE
  8
A-CASE-2
 10
30.005365
 20
32.000000
 11
-30.005365
 21
32.000000
  0
LINE
  8
A-CASE-2
 10
-30.005365
 20
1.994635
 11
30.005365
 21
1.994635
  0
LINE
  8
A-CASE-2
 10
0.000000
 20
1.994635
 11
0.000000
 21
-0.013599
  0
ENDBLK
  0
BLOCK
  8
A-FURN-2
  2
FIXT-Bedwat01
 70
64
 10
0.0
 20
0.0
  0
LINE
  8
A-FURN-2
 10
-33.005383
 20
89.000000
 11
-33.005383
 21
-9.078674
  0
LINE
  8
A-FURN-2
 10
-33.005383
 20
89.000000
 11
33.005383
 21
89.000000
  0
LINE
  8
A-FURN-2
 10
33.005383
 20
89.000000
 11
33.005383
 21
-9.078674
  0
LINE
  8
A-FURN-2
 10
33.005383
 20
-9.078674
 11
-32.888485
 21
-9.078674
  0
LINE
  8
A-FURN-2
 10
-32.888485
 20
-9.078674
 11
-29.872314
 21
-6.062508
  0
LINE
  8
A-FURN-2
 10
-32.930199
 20
76.882545
 11
33.005383
 21
76.882545
  0
LINE
  8
A-FURN-2
 10
-29.872314
 20
76.882545
 11
-29.872314
 21
-6.062508
  0
LINE
  8
A-FURN-2
 10
-29.872314
 20
-6.062508
 11
29.947502
 21
-6.062508
  0
LINE
  8
A-FURN-2
 10
29.947502
 20
-6.062508
 11
29.947502
 21
76.882545
  0
LINE
  8
A-FURN-2
 10
29.947502
 20
-6.062508
 11
33.005383
 21
-9.120384
  0
LINE
  8
A-FURN-2
 10
-28.877428
 20
72.922468
 11
-0.867468
 21
72.922468
  0
LINE
  8
A-FURN-2
 10
-0.867468
 20
72.922468
 11
-0.867468
 21
51.937515
  0
LINE
  8
A-FURN-2
 10
-0.867468
 20
51.937515
 11
-28.877428
 21
51.937515
  0
LINE
  8
A-FURN-2
 10
-28.877428
 20
51.937515
 11
-28.877428
 21
72.922468
  0
LINE
  8
A-FURN-2
 10
1.113944
 20
51.937515
 11
1.113944
 21
72.922468
  0
LINE
  8
A-FURN-2
 10
1.113944
 20
72.922468
 11
29.123905
 21
72.922468
  0
LINE
  8
A-FURN-2
 10
29.123905
 20
72.922468
 11
29.123905
 21
51.937515
  0
LINE
  8
A-FURN-2
 10
29.123905
 20
51.937515
 11
1.113944
 21
51.937515
  0
ARC
  8
A-FURN-2
 10
-39.369907
 20
62.429993
 40
14.838604
 50
315.000005
 51
0.000000
  0
ARC
  8
A-FURN-2
 10
-39.369907
 20
62.429993
 40
14.838604
 50
0.000000
 51
44.999990
  0
ARC
  8
A-FURN-2
 10
9.625010
 20
62.429993
 40
14.838604
 50
135.000005
 51
180.000000
  0
ARC
  8
A-FURN-2
 10
9.625010
 20
62.429993
 40
14.838604
 50
180.000000
 51
225.000000
  0
ARC
  8
A-FURN-2
 10
-9.378533
 20
62.429993
 40
14.838604
 50
315.000001
 51
0.000000
  0
ARC
  8
A-FURN-2
 10
-9.378533
 20
62.429993
 40
14.838604
 50
0.000000
 51
44.999994
  0
ARC
  8
A-FURN-2
 10
39.616383
 20
62.429993
 40
14.838604
 50
135.000005
 51
180.000000
  0
ARC
  8
A-FURN-2
 10
39.616383
 20
62.429993
 40
14.838604
 50
180.000000
 51
225.000000
  0
ENDBLK
  0
BLOCK
  8
A-FURN-2
  2
FIXT-nitstn04
 70
64
 10
0.0
 20
0.0
  0
LINE
  8
A-FURN-2
 10
9.965295
 20
17.973040
 11
9.965295
 21
1.050323
  0
LINE
  8
A-FURN-2
 10
9.965295
 20
1.050323
 11
-9.965295
 21
1.050323
  0
LINE
  8
A-FURN-2
 10
-9.965295
 20
1.050323
 11
-9.965295
 21
17.973040
  0
LINE
  8
A-FURN-2
 10
-9.965295
 20
17.973040
 11
9.965295
 21
17.973040
  0
LINE
  8
A-FURN-2
 10
-8.972636
 20
2.042982
 11
8.972636
 21
2.042982
  0
LINE
  8
A-FURN-2
 10
8.972636
 20
2.042982
 11
8.972636
 21
16.980382
  0
LINE
  8
A-FURN-2
 10
8.972636
 20
16.980382
 11
-8.972636
 21
16.980382
  0
LINE
  8
A-FURN-2
 10
-8.972636
 20
16.980382
 11
-8.972636
 21
2.042982
  0
LINE
  8
A-FURN-2
 10
-8.972636
 20
16.980382
 11
-9.992254
 21
18.000000
  0
LINE
  8
A-FURN-2
 10
8.972636
 20
16.980382
 11
9.992254
 21
18.000000
  0
LINE
  8
A-FURN-2
 10
8.972636
 20
2.042982
 11
9.992254
 21
1.023365
  0
LINE
  8
A-FURN-2
 10
-8.972636
 20
2.042982
 11
-9.992254
 21
1.023365
  0
LINE
  8
A-FURN-2
 10
2.024029
 20
1.063622
 11
2.024029
 21
0.057665
  0
LINE
  8
A-FURN-2
 10
2.024029
 20
0.057665
 11
-1.955570
 21
0.057665
  0
LINE
  8
A-FURN-2
 10
-1.955570
 20
0.057665
 11
-1.955570
 21
1.063622
  0
LINE
  8
A-FURN-2
 10
-1.955570
 20
1.063622
 11
2.024029
 21
1.063622
  0
ENDBLK
  0
BLOCK
  8
A-FURN-2
  2
FIXT-Dresng48
 70
64
 10
0.0
 20
0.0
  0
ARC
  8
A-FURN-2
 10
11.600245
 20
2.169289
 40
1.605391
 50
180.000000
 51
270.000000
  0
ARC
  8
A-FURN-2
 10
20.535124
 20
4.006065
 40
3.442167
 50
270.000000
 51
0.000000
  0
LINE
  8
A-FURN-2
 10
11.600245
 20
0.563898
 11
20.535124
 21
0.563898
  0
ARC
  8
A-FURN-2
 10
20.535124
 20
15.143538
 40
3.442167
 50
0.000000
 51
90.000000
  0
LINE
  8
A-FURN-2
 10
23.977291
 20
4.006065
 11
23.977291
 21
15.143538
  0
ARC
  8
A-FURN-2
 10
-20.535124
 20
15.143538
 40
3.442167
 50
90.000000
 51
180.000000
  0
LINE
  8
A-FURN-2
 10
20.535124
 20
18.585706
 11
-20.535124
 21
18.585706
  0
ARC
  8
A-FURN-2
 10
-20.535124
 20
4.006065
 40
3.442167
 50
180.000000
 51
270.000000
  0
LINE
  8
A-FURN-2
 10
-23.977291
 20
15.143538
 11
-23.977291
 21
4.006065
  0
ARC
  8
A-FURN-2
 10
-11.600245
 20
2.169289
 40
1.605391
 50
270.000000
 51
0.000000
  0
LINE
  8
A-FURN-2
 10
-20.535124
 20
0.563898
 11
-11.600245
 21
0.563898
  0
ARC
  8
A-FURN-2
 10
-8.389462
 20
2.169289
 40
1.605391
 50
90.000000
 51
180.000000
  0
LINE
  8
A-FURN-2
 10
-9.994853
 20
2.169289
 11
-9.994853
 21
2.169289
  0
ARC
  8
A-FURN-2
 10
8.389462
 20
2.169289
 40
1.605391
 50
0.000000
 51
90.000000
  0
LINE
  8
A-FURN-2
 10
-8.389462
 20
3.774679
 11
8.389462
 21
3.774679
  0
LINE
  8
A-FURN-2
 10
9.994853
 20
2.169289
 11
9.994853
 21
2.169289
  0
ENDBLK
  0
BLOCK
  8
A-FURN-2
  2
FIXT-cdraw001
 70
64
 10
0.0
 20
0.0
  0
LINE
  8
A-FURN-2
 10
17.996254
 20
20.000000
 11
17.996254
 21
0.984129
  0
LINE
  8
A-FURN-2
 10
17.996254
 20
0.984129
 11
-17.996254
 21
0.984129
  0
LINE
  8
A-FURN-2
 10
-17.996254
 20
0.984129
 11
-17.996254
 21
20.000000
  0
LINE
  8
A-FURN-2
 10
-17.996254
 20
20.000000
 11
17.996254
 21
20.000000
  0
LINE
  8
A-FURN-2
 10
-1.988255
 20
0.984129
 11
-1.988255
 21
-0.035490
  0
LINE
  8
A-FURN-2
 10
-1.988255
 20
-0.035490
 11
1.937274
 21
-0.035490
  0
LINE
  8
A-FURN-2
 10
1.937274
 20
-0.035490
 11
1.937274
 21
0.984129
  0
ENDBLK
  0
BLOCK
  8
A-FURN-2
  2
FIXT-sofareca
 70
64
 10
0.0
 20
0.0
  0
LINE
  8
A-FURN-2
 10
16.997557
 20
-8.884338
 11
16.997557
 21
60.056798
  0
LINE
  8
A-FURN-2
 10
16.997557
 20
60.056798
 11
-16.997557
 21
60.056798
  0
LINE
  8
A-FURN-2
 10
-16.997557
 20
60.056798
 11
-16.997557
 21
-8.884338
  0
LINE
  8
A-FURN-2
 10
-16.997557
 20
-8.884338
 11
16.997557
 21
-8.884338
  0
LINE
  8
A-FURN-2
 10
-16.997557
 20
41.038555
 11
-22.940758
 21
41.038555
  0
LINE
  8
A-FURN-2
 10
-22.940758
 20
41.038555
 11
-22.940758
 21
66.000000
  0
LINE
  8
A-FURN-2
 10
-22.940758
 20
66.000000
 11
22.940758
 21
66.000000
  0
LINE
  8
A-FURN-2
 10
22.940758
 20
66.000000
 11
22.940758
 21
41.038555
  0
LINE
  8
A-FURN-2
 10
22.940758
 20
41.038555
 11
16.997557
 21
41.038555
  0
LINE
  8
A-FURN-2
 10
-16.997557
 20
60.056798
 11
-22.940758
 21
66.000000
  0
LINE
  8
A-FURN-2
 10
16.997557
 20
60.056798
 11
22.940758
 21
66.000000
  0
ENDBLK
  0
BLOCK
  8
A-FURN-2
  2
FIXT-sidechr2
 70
64
 10
0.0
 20
0.0
  0
ARC
  8
A-FURN-2
 10
6.682232
 20
11.682577
 40
2.317423
 50
0.000000
 51
90.000000
  0
LINE
  8
A-FURN-2
 10
6.682232
 20
14.000000
 11
-6.682232
 21
14.000000
  0
ARC
  8
A-FURN-2
 10
-6.682232
 20
11.682577
 40
2.317423
 50
90.000000
 51
180.000000
  0
LINE
  8
A-FURN-2
 10
-8.999656
 20
11.682577
 11
-8.999656
 21
-1.681888
  0
ARC
  8
A-FURN-2
 10
-6.682232
 20
-1.681888
 40
2.317423
 50
180.000000
 51
270.000000
  0
LINE
  8
A-FURN-2
 10
-6.682232
 20
-3.999311
 11
6.682232
 21
-3.999311
  0
ARC
  8
A-FURN-2
 10
6.682232
 20
-1.681888
 40
2.317423
 50
270.000000
 51
0.000000
  0
LINE
  8
A-FURN-2
 10
8.999656
 20
-1.681888
 11
8.999656
 21
11.682577
  0
ARC
  8
A-FURN-2
 10
-7.803170
 20
0.162378
 40
1.144465
 50
270.000000
 51
0.000000
  0
LINE
  8
A-FURN-2
 10
-8.947635
 20
-0.982086
 11
-7.803170
 21
-0.982086
  0
ARC
  8
A-FURN-2
 10
-5.040187
 20
10.092552
 40
1.618518
 50
90.000000
 51
180.000000
  0
LINE
  8
A-FURN-2
 10
-6.658705
 20
0.162378
 11
-6.658705
 21
10.092552
  0
ARC
  8
A-FURN-2
 10
5.040187
 20
10.092552
 40
1.618518
 50
0.000000
 51
90.000000
  0
LINE
  8
A-FURN-2
 10
-5.040187
 20
11.711070
 11
5.040187
 21
11.711070
  0
ARC
  8
A-FURN-2
 10
7.829181
 20
0.188389
 40
1.170475
 50
180.000000
 51
270.000000
  0
LINE
  8
A-FURN-2
 10
6.658705
 20
10.092552
 11
6.658705
 21
0.188389
  0
LINE
  8
A-FURN-2
 10
7.829181
 20
-0.982086
 11
8.999656
 21
-0.982086
  0
ENDBLK
  0
BLOCK
  8
A-FURN-2
  2
FIXT-tvcrt02
 70
64
 10
0.0
 20
0.0
  0
LINE
  8
A-FURN-2
 10
13.895146
 20
9.044383
 11
13.895146
 21
1.076044
  0
LINE
  8
A-FURN-2
 10
13.895146
 20
1.076044
 11
-13.965787
 21
1.076044
  0
LINE
  8
A-FURN-2
 10
-13.965787
 20
1.076044
 11
-13.965787
 21
9.044383
  0
LINE
  8
A-FURN-2
 10
-13.965787
 20
9.044383
 11
13.895146
 21
9.044383
  0
LINE
  8
A-FURN-2
 10
-12.948552
 20
9.100897
 11
-6.520871
 21
20.233967
  0
LINE
  8
A-FURN-2
 10
-6.520871
 20
20.233967
 11
6.435423
 21
20.233967
  0
LINE
  8
A-FURN-2
 10
6.435423
 20
20.233967
 11
12.863105
 21
9.100897
  0
LINE
  8
A-FURN-2
 10
17.999407
 20
22.000000
 11
17.999407
 21
0.044680
  0
LINE
  8
A-FURN-2
 10
17.999407
 20
0.044680
 11
-17.999407
 21
0.044680
  0
LINE
  8
A-FURN-2
 10
-17.999407
 20
0.044680
 11
-17.999407
 21
22.000000
  0
LINE
  8
A-FURN-2
 10
-17.999407
 20
22.000000
 11
17.999407
 21
22.000000
  0
ENDBLK
  0
BLOCK
  8
A-FURN-2
  2
FIXT-bedt3976
 70
64
 10
0.0
 20
0.0
  0
LINE
  8
A-FURN-2
 10
-20.958750
 20
78.020000
 11
20.981251
 21
78.020000
  0
LINE
  8
A-FURN-2
 10
20.981251
 20
78.020000
 11
20.981251
 21
80.000000
  0
LINE
  8
A-FURN-2
 10
20.981251
 20
80.000000
 11
-20.958750
 21
80.000000
  0
LINE
  8
A-FURN-2
 10
-20.958750
 20
80.000000
 11
-20.958750
 21
78.020000
  0
LINE
  8
A-FURN-2
 10
19.987762
 20
2.183807
 11
19.987762
 21
77.958905
  0
LINE
  8
A-FURN-2
 10
19.987762
 20
77.958905
 11
-20.010262
 21
77.958905
  0
LINE
  8
A-FURN-2
 10
-20.010262
 20
77.958905
 11
-20.010262
 21
2.183807
  0
LINE
  8
A-FURN-2
 10
-20.010262
 20
2.183807
 11
19.987762
 21
2.183807
  0
LINE
  8
A-FURN-2
 10
20.958750
 20
2.059998
 11
-20.981251
 21
2.059998
  0
LINE
  8
A-FURN-2
 10
-20.981251
 20
2.059998
 11
-20.981251
 21
0.080002
  0
LINE
  8
A-FURN-2
 10
-20.981251
 20
0.080002
 11
20.958750
 21
0.080002
  0
LINE
  8
A-FURN-2
 10
20.958750
 20
0.080002
 11
20.958750
 21
2.059998
  0
LINE
  8
A-FURN-2
 10
-15.960605
 20
53.059330
 11
-15.960605
 21
74.063914
  0
LINE
  8
A-FURN-2
 10
-15.960605
 20
74.063914
 11
16.046867
 21
74.063914
  0
LINE
  8
A-FURN-2
 10
16.046867
 20
74.063914
 11
16.046867
 21
53.059330
  0
LINE
  8
A-FURN-2
 10
16.046867
 20
53.059330
 11
-15.960605
 21
53.059330
  0
ARC
  8
A-FURN-2
 10
-26.462896
 20
63.561623
 40
14.852484
 50
314.999997
 51
0.000000
  0
ARC
  8
A-FURN-2
 10
-26.462896
 20
63.561623
 40
14.852484
 50
0.000000
 51
44.999999
  0
ARC
  8
A-FURN-2
 10
26.549160
 20
63.561623
 40
14.852484
 50
135.000004
 51
180.000000
  0
ARC
  8
A-FURN-2
 10
26.549160
 20
63.561623
 40
14.852484
 50
180.000000
 51
225.000000
  0
ENDBLK
  0
BLOCK
  8
A-FURN-2
  2
FIXT-Beddub01
 70
64
 10
0.0
 20
0.0
  0
LINE
  8
A-FURN-2
 10
-26.974157
 20
78.014788
 11
-26.974157
 21
1.839394
  0
LINE
  8
A-FURN-2
 10
-26.974157
 20
1.839394
 11
26.986168
 21
1.839394
  0
LINE
  8
A-FURN-2
 10
26.986168
 20
1.839394
 11
26.986168
 21
78.014788
  0
LINE
  8
A-FURN-2
 10
26.986168
 20
78.014788
 11
-29.036011
 21
78.014788
  0
LINE
  8
A-FURN-2
 10
-29.036011
 20
78.014788
 11
-29.036011
 21
80.000000
  0
LINE
  8
A-FURN-2
 10
-29.036011
 20
80.000000
 11
29.036011
 21
80.000000
  0
LINE
  8
A-FURN-2
 10
29.036011
 20
80.000000
 11
29.036011
 21
77.977994
  0
LINE
  8
A-FURN-2
 10
29.036011
 20
77.977994
 11
26.986168
 21
77.977994
  0
ARC
  8
A-FURN-2
 10
-26.436769
 20
63.514618
 40
14.811591
 50
315.000000
 51
0.000000
  0
ARC
  8
A-FURN-2
 10
-26.436769
 20
63.514618
 40
14.811591
 50
0.000000
 51
44.999999
  0
ARC
  8
A-FURN-2
 10
26.537395
 20
63.514618
 40
14.811591
 50
135.000001
 51
180.000000
  0
ARC
  8
A-FURN-2
 10
26.537395
 20
63.514618
 40
14.811591
 50
180.000000
 51
225.000000
  0
LINE
  8
A-FURN-2
 10
28.954601
 20
1.839394
 11
-28.987591
 21
1.839394
  0
LINE
  8
A-FURN-2
 10
-28.987591
 20
1.839394
 11
-28.987591
 21
0.082695
  0
LINE
  8
A-FURN-2
 10
-28.987591
 20
0.082695
 11
28.954601
 21
0.082695
  0
LINE
  8
A-FURN-2
 10
28.954601
 20
0.082695
 11
28.954601
 21
1.839394
  0
LINE
  8
A-FURN-2
 10
16.064018
 20
53.041241
 11
16.064018
 21
73.987995
  0
LINE
  8
A-FURN-2
 10
16.064018
 20
73.987995
 11
-15.963392
 21
73.987995
  0
LINE
  8
A-FURN-2
 10
-15.963392
 20
73.987995
 11
-15.963392
 21
53.041241
  0
LINE
  8
A-FURN-2
 10
-15.963392
 20
53.041241
 11
16.064018
 21
53.041241
  0
ENDBLK
  0
BLOCK
  8
A-FURN-2
  2
FIXT-Chest60
 70
64
 10
0.0
 20
0.0
  0
LINE
  8
A-FURN-2
 10
29.932774
 20
18.585706
 11
-29.932774
 21
18.585706
  0
LINE
  8
A-FURN-2
 10
-29.932774
 20
18.585706
 11
-29.932774
 21
0.563898
  0
LINE
  8
A-FURN-2
 10
-29.932774
 20
0.563898
 11
29.932774
 21
0.563898
  0
LINE
  8
A-FURN-2
 10
29.932774
 20
0.563898
 11
29.932774
 21
18.585706
  0
ENDBLK
  0
BLOCK
  8
A-FURN-2
  2
FIXT-seat3632
 70
64
 10
0.0
 20
0.0
  0
LINE
  8
A-FURN-2
 10
15.906859
 20
36.000000
 11
-15.906859
 21
36.000000
  0
LINE
  8
A-FURN-2
 10
-15.906859
 20
36.000000
 11
-15.906859
 21
-0.026325
  0
LINE
  8
A-FURN-2
 10
-15.906859
 20
-0.026325
 11
15.906859
 21
-0.026325
  0
LINE
  8
A-FURN-2
 10
15.906859
 20
-0.026325
 11
15.906859
 21
36.000000
  0
LINE
  8
A-FURN-2
 10
-16.104507
 20
30.472151
 11
15.895205
 21
30.472151
  0
ARC
  8
A-FURN-2
 10
-0.133503
 20
66.983116
 40
40.760502
 50
255.000000
 51
270.000000
  0
ARC
  8
A-FURN-2
 10
-0.133503
 20
66.983116
 40
40.760502
 50
270.000000
 51
284.999999
  0
LINE
  8
A-FURN-2
 10
-10.546526
 20
30.447630
 11
-10.546526
 21
5.567564
  0
LINE
  8
A-FURN-2
 10
10.546526
 20
30.447630
 11
10.546526
 21
5.567564
  0
LINE
  8
A-FURN-2
 10
-10.546526
 20
5.567564
 11
-15.879167
 21
5.567564
  0
LINE
  8
A-FURN-2
 10
10.546526
 20
5.567564
 11
15.879167
 21
5.567564
  0
ENDBLK
  0
BLOCK
  8
A-CASE-2
  2
FIXT-Shwr60
 70
64
 10
0.0
 20
0.0
  0
LINE
  8
A-CASE-2
 10
-29.963196
 20
2.971920
 11
29.987392
 21
2.971920
  0
LINE
  8
A-CASE-2
 10
-27.265932
 20
6.097593
 11
-5.551453
 21
18.634455
  0
LINE
  8
A-CASE-2
 10
27.385593
 20
33.365020
 11
-27.385593
 21
33.365020
  0
LINE
  8
A-CASE-2
 10
-27.385593
 20
33.365020
 11
-27.385593
 21
5.977932
  0
LINE
  8
A-CASE-2
 10
-27.385593
 20
5.977932
 11
27.385593
 21
5.977932
  0
LINE
  8
A-CASE-2
 10
27.385593
 20
5.977932
 11
27.385593
 21
33.365020
  0
CIRCLE
  8
A-CASE-2
 10
0.082513
 20
19.722193
 40
1.102624
  0
LINE
  8
A-CASE-2
 10
27.146271
 20
33.125696
 11
5.343473
 21
20.537846
  0
LINE
  8
A-CASE-2
 10
27.265932
 20
6.097593
 11
5.557290
 21
18.631084
  0
LINE
  8
A-CASE-2
 10
-27.182060
 20
33.073641
 11
-5.719962
 21
20.682493
  0
ENDBLK
  0
BLOCK
  8
A-POWR-2
  2
FIXT-GFI_Out
 70
64
 10
0.0
 20
0.0
  0
CIRCLE
  8
A-POWR-2
 10
-0.006993
 20
-5.734540
 40
3.254864
  0
LINE
  8
A-POWR-2
 10
-1.973961
 20
-8.380580
 11
-1.973961
 21
-0.000000
  0
LINE
  8
A-POWR-2
 10
2.006808
 20
-8.286915
 11
2.006808
 21
-0.000000
  0
TEXT
  8
A-POWR-2
 10
-2.388809
 20
-15.531415
 40
2.286350
  1
GFI
  7
STANDARD
  0
ENDBLK
  0
BLOCK
  8
A-POWR-2
  2
FIXT-WP_Out
 70
64
 10
0.0
 20
0.0
  0
CIRCLE
  8
A-POWR-2
 10
-0.006993
 20
-5.734540
 40
3.254864
  0
LINE
  8
A-POWR-2
 10
-1.973961
 20
-8.380580
 11
-1.973961
 21
-0.000000
  0
LINE
  8
A-POWR-2
 10
2.006808
 20
-8.286915
 11
2.006808
 21
-0.000000
  0
TEXT
  8
A-POWR-2
 10
-2.432515
 20
-15.531415
 40
2.286350
  1
WP
  7
STANDARD
  0
ENDBLK
  0
BLOCK
  8
A-POWR-2
  2
FIXT-Light
 70
64
 10
0.0
 20
0.0
  0
LINE
  8
A-POWR-2
 10
-0.014999
 20
-9.119638
 11
-0.014999
 21
-11.759534
  0
CIRCLE
  8
A-POWR-2
 10
-0.006993
 20
-5.860310
 40
3.254864
  0
LINE
  8
A-POWR-2
 10
-0.024039
 20
-2.609896
 11
-0.024039
 21
0.000000
  0
LINE
  8
A-POWR-2
 10
3.254871
 20
-5.849768
 11
5.864768
 21
-5.849768
  0
LINE
  8
A-POWR-2
 10
-3.254871
 20
-5.909766
 11
-5.864768
 21
-5.909766
  0
ENDBLK
  0
BLOCK
  8
A-POWR-2
  2
FIXT-RecLight
 70
64
 10
0.0
 20
0.0
  0
CIRCLE
  8
A-POWR-2
 10
-0.000000
 20
-3.524853
 40
3.524853
  0
ENDBLK
  0
BLOCK
  8
A-POWR-2
  2
FIXT-DualSpot
 70
64
 10
0.0
 20
0.0
  0
CIRCLE
  8
A-POWR-2
 10
-0.022810
 20
-0.719971
 40
0.719971
  0
LINE
  8
A-POWR-2
 10
0.937152
 20
-0.959962
 11
9.454506
 21
-3.242180
  0
LINE
  8
A-POWR-2
 10
9.454506
 20
-3.242180
 11
4.472240
 21
-8.224445
  0
LINE
  8
A-POWR-2
 10
4.472240
 20
-8.224445
 11
0.607165
 21
-1.529939
  0
LINE
  8
A-POWR-2
 10
-1.155265
 20
-1.004027
 11
-9.454506
 21
-3.227802
  0
LINE
  8
A-POWR-2
 10
-9.454506
 20
-3.227802
 11
-4.571973
 21
-8.110334
  0
LINE
  8
A-POWR-2
 10
-4.571973
 20
-8.110334
 11
-0.772780
 21
-1.529939
  0
ENDBLK
  0
BLOCK
  8
A-POWR-2
  2
FIXT-RecExFan
 70
64
 10
0.0
 20
0.0
  0
CIRCLE
  8
A-POWR-2
 10
-0.000000
 20
-3.884839
 40
3.884839
  0
ARC
  8
A-POWR-2
 10
2.327786
 20
-1.592827
 40
3.304456
 50
224.999998
 51
264.898271
  0
ARC
  8
A-POWR-2
 10
2.224729
 20
-2.747166
 40
2.145526
 50
264.898272
 51
315.000000
  0
ARC
  8
A-POWR-2
 10
2.374045
 20
-4.546449
 40
1.721091
 50
44.999994
 51
99.462325
  0
ARC
  8
A-POWR-2
 10
2.727214
 20
-6.665462
 40
3.869332
 50
99.462323
 51
134.999999
  0
ARC
  8
A-POWR-2
 10
-2.386747
 20
-3.343154
 40
1.684494
 50
225.000000
 51
279.573780
  0
ARC
  8
A-POWR-2
 10
-2.742678
 20
-1.232889
 40
3.824566
 50
279.573776
 51
314.999999
  0
ARC
  8
A-POWR-2
 10
-2.342464
 20
-6.241427
 40
3.258577
 50
44.999999
 51
84.289404
  0
ARC
  8
A-POWR-2
 10
-2.218059
 20
-4.997380
 40
2.008325
 50
84.289407
 51
135.000000
  0
ENDBLK
  0
BLOCK
  8
A-POWR-2
  2
FIXT-RLiteFan
 70
64
 10
0.0
 20
0.0
  0
LINE
  8
A-POWR-2
 10
-0.014999
 20
-9.749613
 11
-0.014999
 21
-11.759534
  0
CIRCLE
  8
A-POWR-2
 10
-0.006993
 20
-5.860310
 40
3.884839
  0
LINE
  8
A-POWR-2
 10
-0.024039
 20
-1.979921
 11
-0.024039
 21
0.000000
  0
LINE
  8
A-POWR-2
 10
3.884846
 20
-5.849768
 11
5.864768
 21
-5.849768
  0
LINE
  8
A-POWR-2
 10
-3.884846
 20
-5.909766
 11
-5.864768
 21
-5.909766
  0
ARC
  8
A-POWR-2
 10
2.320793
 20
-3.568298
 40
3.304456
 50
225.000001
 51
264.898271
  0
ARC
  8
A-POWR-2
 10
2.217736
 20
-4.722637
 40
2.145526
 50
264.898271
 51
315.000005
  0
ARC
  8
A-POWR-2
 10
2.367052
 20
-6.521920
 40
1.721091
 50
45.000006
 51
99.462325
  0
ARC
  8
A-POWR-2
 10
2.720221
 20
-8.640932
 40
3.869332
 50
99.462323
 51
134.999999
  0
ARC
  8
A-POWR-2
 10
-2.393740
 20
-5.318624
 40
1.684494
 50
225.000000
 51
279.573780
  0
ARC
  8
A-POWR-2
 10
-2.749672
 20
-3.208359
 40
3.824566
 50
279.573779
 51
315.000000
  0
ARC
  8
A-POWR-2
 10
-2.349457
 20
-8.216898
 40
3.258577
 50
45.000000
 51
84.289405
  0
ARC
  8
A-POWR-2
 10
-2.225052
 20
-6.972850
 40
2.008325
 50
84.289407
 51
135.000005
  0
ENDBLK
  0
BLOCK
  8
A-POWR-2
  2
FIXT-CeilFan
 70
64
 10
0.0
 20
0.0
  0
CIRCLE
  8
A-POWR-2
 10
0.059998
 20
-17.043396
 40
1.272742
  0
CIRCLE
  8
A-POWR-2
 10
0.059998
 20
-17.043396
 40
2.924427
  0
ARC
  8
A-POWR-2
 10
13.759789
 20
-3.195919
 40
3.157881
 50
44.999995
 51
68.497820
  0
ARC
  8
A-POWR-2
 10
-13.759789
 20
-3.195919
 40
3.157881
 50
111.502180
 51
135.000005
  0
ARC
  8
A-POWR-2
 10
-13.787480
 20
-30.743187
 40
3.157881
 50
201.502202
 51
225.000012
  0
ARC
  8
A-POWR-2
 10
13.787480
 20
-30.743187
 40
3.157881
 50
314.999988
 51
338.497798
  0
ARC
  8
A-POWR-2
 10
13.787480
 20
-3.223610
 40
3.157881
 50
21.502174
 51
45.000006
  0
ARC
  8
A-POWR-2
 10
-13.787480
 20
-3.223610
 40
3.157881
 50
134.999994
 51
158.497826
  0
ARC
  8
A-POWR-2
 10
-13.759789
 20
-30.770880
 40
3.157881
 50
224.999976
 51
248.497821
  0
ARC
  8
A-POWR-2
 10
13.759789
 20
-30.770880
 40
3.157881
 50
291.502179
 51
315.000024
  0
ARC
  8
A-POWR-2
 10
13.559463
 20
-3.704422
 40
3.704422
 50
68.497835
 51
91.982695
  0
ARC
  8
A-POWR-2
 10
-13.559463
 20
-3.704422
 40
3.704422
 50
88.017305
 51
111.502165
  0
ARC
  8
A-POWR-2
 10
-13.278977
 20
-30.542860
 40
3.704422
 50
178.017334
 51
201.502197
  0
ARC
  8
A-POWR-2
 10
13.278977
 20
-30.542860
 40
3.704422
 50
338.497803
 51
1.982666
  0
ARC
  8
A-POWR-2
 10
13.278977
 20
-3.423937
 40
3.704422
 50
358.017315
 51
21.502173
  0
ARC
  8
A-POWR-2
 10
-13.278977
 20
-3.423937
 40
3.704422
 50
158.497827
 51
181.982685
  0
ARC
  8
A-POWR-2
 10
-13.559463
 20
-30.262377
 40
3.704422
 50
248.497835
 51
271.982695
  0
ARC
  8
A-POWR-2
 10
13.559463
 20
-30.262377
 40
3.704422
 50
268.017305
 51
291.502165
  0
LINE
  8
A-POWR-2
 10
13.431298
 20
-0.002218
 11
2.343979
 21
-11.089537
  0
LINE
  8
A-POWR-2
 10
-13.431298
 20
-0.002218
 11
-2.343979
 21
-11.089537
  0
LINE
  8
A-POWR-2
 10
-16.981180
 20
-30.414698
 11
-5.893862
 21
-19.327377
  0
LINE
  8
A-POWR-2
 10
16.981180
 20
-30.414698
 11
5.893862
 21
-19.327377
  0
LINE
  8
A-POWR-2
 10
16.981180
 20
-3.552100
 11
5.893862
 21
-14.639420
  0
LINE
  8
A-POWR-2
 10
-16.981180
 20
-3.552100
 11
-5.893862
 21
-14.639420
  0
LINE
  8
A-POWR-2
 10
-13.431298
 20
-33.964581
 11
-2.343979
 21
-22.877260
  0
LINE
  8
A-POWR-2
 10
13.431298
 20
-33.964581
 11
2.343979
 21
-22.877260
  0
LINE
  8
A-POWR-2
 10
2.343979
 20
-11.089537
 11
2.343979
 21
-13.427375
  0
LINE
  8
A-POWR-2
 10
-2.343979
 20
-11.089537
 11
-2.343979
 21
-13.427375
  0
LINE
  8
A-POWR-2
 10
-5.893862
 20
-19.327377
 11
-3.556024
 21
-19.327377
  0
LINE
  8
A-POWR-2
 10
5.893862
 20
-19.327377
 11
3.556024
 21
-19.327377
  0
LINE
  8
A-POWR-2
 10
5.893862
 20
-14.639420
 11
3.556024
 21
-14.639420
  0
LINE
  8
A-POWR-2
 10
-5.893862
 20
-14.639420
 11
-3.556024
 21
-14.639420
  0
LINE
  8
A-POWR-2
 10
-2.343979
 20
-22.877260
 11
-2.343979
 21
-20.539423
  0
LINE
  8
A-POWR-2
 10
2.343979
 20
-22.877260
 11
2.343979
 21
-20.539423
  0
LINE
  8
A-POWR-2
 10
2.343979
 20
-13.427375
 11
2.967628
 21
-14.051023
  0
LINE
  8
A-POWR-2
 10
-2.343979
 20
-13.427375
 11
-2.967628
 21
-14.051023
  0
LINE
  8
A-POWR-2
 10
-3.556024
 20
-19.327377
 11
-2.932375
 21
-19.951027
  0
LINE
  8
A-POWR-2
 10
3.556024
 20
-19.327377
 11
2.932375
 21
-19.951027
  0
LINE
  8
A-POWR-2
 10
3.556024
 20
-14.639420
 11
2.932375
 21
-14.015770
  0
LINE
  8
A-POWR-2
 10
-3.556024
 20
-14.639420
 11
-2.932375
 21
-14.015770
  0
LINE
  8
A-POWR-2
 10
-2.343979
 20
-20.539423
 11
-2.967628
 21
-19.915773
  0
LINE
  8
A-POWR-2
 10
2.343979
 20
-20.539423
 11
2.967628
 21
-19.915773
  0
ENDBLK
  0
BLOCK
  8
A-POWR-2
  2
FIXT-3_Way
 70
64
 10
0.0
 20
0.0
  0
LINE
  8
A-POWR-2
 10
1.506088
 20
-2.396511
 11
-2.053707
 21
-2.396511
  0
ARC
  8
A-POWR-2
 10
-2.053707
 20
-4.016987
 40
1.620476
 50
90.000000
 51
181.041633
  0
ARC
  8
A-POWR-2
 10
-1.993710
 20
-4.015897
 40
1.680484
 50
181.041622
 51
270.000000
  0
LINE
  8
A-POWR-2
 10
-1.993710
 20
-5.696380
 11
-0.263288
 21
-5.696380
  0
ARC
  8
A-POWR-2
 10
-0.173292
 20
-7.420123
 40
1.636124
 50
270.000000
 51
1.534338
  0
ARC
  8
A-POWR-2
 10
-0.263288
 20
-7.422534
 40
1.726153
 50
1.534347
 51
90.000000
  0
LINE
  8
A-POWR-2
 10
-0.173292
 20
-9.056247
 11
-3.662938
 21
-9.056247
  0
LINE
  8
A-POWR-2
 10
-1.156680
 20
-0.026605
 11
-1.156680
 21
-11.036168
  0
TEXT
  8
A-POWR-2
 10
0.389112
 20
-14.431763
 40
2.743620
  1
3
  7
STANDARD
  0
ENDBLK
  0
BLOCK
  8
A-POWR-2
  2
FIXT-4_Way
 70
64
 10
0.0
 20
0.0
  0
LINE
  8
A-POWR-2
 10
1.506088
 20
-2.396511
 11
-2.053707
 21
-2.396511
  0
ARC
  8
A-POWR-2
 10
-2.053707
 20
-4.016987
 40
1.620476
 50
90.000000
 51
181.041633
  0
ARC
  8
A-POWR-2
 10
-1.993710
 20
-4.015897
 40
1.680484
 50
181.041622
 51
270.000000
  0
LINE
  8
A-POWR-2
 10
-1.993710
 20
-5.696380
 11
-0.263288
 21
-5.696380
  0
ARC
  8
A-POWR-2
 10
-0.173292
 20
-7.420123
 40
1.636124
 50
270.000000
 51
1.534338
  0
ARC
  8
A-POWR-2
 10
-0.263288
 20
-7.422534
 40
1.726153
 50
1.534347
 51
90.000000
  0
LINE
  8
A-POWR-2
 10
-0.173292
 20
-9.056247
 11
-3.662938
 21
-9.056247
  0
LINE
  8
A-POWR-2
 10
-1.156680
 20
-0.026605
 11
-1.156680
 21
-11.036168
  0
TEXT
  8
A-POWR-2
 10
0.389112
 20
-14.431763
 40
2.743620
  1
4
  7
STANDARD
  0
ENDBLK
  0
BLOCK
  8
A-POWR-2
  2
FIXT-5_Way
 70
64
 10
0.0
 20
0.0
  0
LINE
  8
A-POWR-2
 10
1.506088
 20
-2.396511
 11
-2.053707
 21
-2.396511
  0
ARC
  8
A-POWR-2
 10
-2.053707
 20
-4.016987
 40
1.620476
 50
90.000000
 51
181.041633
  0
ARC
  8
A-POWR-2
 10
-1.993710
 20
-4.015897
 40
1.680484
 50
181.041622
 51
270.000000
  0
LINE
  8
A-POWR-2
 10
-1.993710
 20
-5.696380
 11
-0.263288
 21
-5.696380
  0
ARC
  8
A-POWR-2
 10
-0.173292
 20
-7.420123
 40
1.636124
 50
270.000000
 51
1.534338
  0
ARC
  8
A-POWR-2
 10
-0.263288
 20
-7.422534
 40
1.726153
 50
1.534347
 51
90.000000
  0
LINE
  8
A-POWR-2
 10
-0.173292
 20
-9.056247
 11
-3.662938
 21
-9.056247
  0
LINE
  8
A-POWR-2
 10
-1.156680
 20
-0.026605
 11
-1.156680
 21
-11.036168
  0
TEXT
  8
A-POWR-2
 10
0.389112
 20
-14.431763
 40
2.743620
  1
5
  7
STANDARD
  0
ENDBLK
  0
ENDSEC
  0
SECTION
  2
ENTITIES
  0
LINE
  8
A-STAR-2
 10
-217.000000
 20
-603.000000
 11
-208.000000
 21
-603.000000
  0
LINE
  8
A-STAR-2
 10
-208.000000
 20
-603.000000
 11
-208.000000
 21
-561.000000
  0
LINE
  8
A-STAR-2
 10
-208.000000
 20
-561.000000
 11
-217.000000
 21
-561.000000
  0
LINE
  8
A-STAR-2
 10
-226.000000
 20
-603.000000
 11
-217.000000
 21
-603.000000
  0
LINE
  8
A-STAR-2
 10
-217.000000
 20
-603.000000
 11
-217.000000
 21
-561.000000
  0
LINE
  8
A-STAR-2
 10
-217.000000
 20
-561.000000
 11
-226.000000
 21
-561.000000
  0
LINE
  8
A-STAR-2
 10
-226.000000
 20
-603.000000
 11
-226.000000
 21
-561.000000
  0
LINE
  8
A-STAR-2
 10
-226.000000
 20
-560.500000
 11
-226.000000
 21
-603.500000
  0
LINE
  8
A-STAR-2
 10
-226.000000
 20
-603.500000
 11
-268.000000
 21
-603.500000
  0
LINE
  8
A-STAR-2
 10
-268.000000
 20
-603.500000
 11
-268.000000
 21
-560.500000
  0
LINE
  8
A-STAR-2
 10
-268.000000
 20
-560.500000
 11
-226.000000
 21
-560.500000
  0
LINE
  8
A-STAR-2
 10
-268.000000
 20
-551.200000
 11
-268.000000
 21
-560.500000
  0
LINE
  8
A-STAR-2
 10
-268.000000
 20
-560.500000
 11
-226.000000
 21
-560.500000
  0
LINE
  8
A-STAR-2
 10
-226.000000
 20
-560.500000
 11
-226.000000
 21
-551.200000
  0
LINE
  8
A-STAR-2
 10
-268.000000
 20
-541.900000
 11
-268.000000
 21
-551.200000
  0
LINE
  8
A-STAR-2
 10
-268.000000
 20
-551.200000
 11
-226.000000
 21
-551.200000
  0
LINE
  8
A-STAR-2
 10
-226.000000
 20
-551.200000
 11
-226.000000
 21
-541.900000
  0
LINE
  8
A-STAR-2
 10
-268.000000
 20
-532.600000
 11
-268.000000
 21
-541.900000
  0
LINE
  8
A-STAR-2
 10
-268.000000
 20
-541.900000
 11
-226.000000
 21
-541.900000
  0
LINE
  8
A-STAR-2
 10
-226.000000
 20
-541.900000
 11
-226.000000
 21
-532.600000
  0
LINE
  8
A-STAR-2
 10
-268.000000
 20
-523.300000
 11
-268.000000
 21
-532.600000
  0
LINE
  8
A-STAR-2
 10
-268.000000
 20
-532.600000
 11
-226.000000
 21
-532.600000
  0
LINE
  8
A-STAR-2
 10
-226.000000
 20
-532.600000
 11
-226.000000
 21
-523.300000
  0
LINE
  8
A-STAR-2
 10
-268.000000
 20
-514.000000
 11
-268.000000
 21
-523.300000
  0
LINE
  8
A-STAR-2
 10
-268.000000
 20
-523.300000
 11
-226.000000
 21
-523.300000
  0
LINE
  8
A-STAR-2
 10
-226.000000
 20
-523.300000
 11
-226.000000
 21
-514.000000
  0
LINE
  8
A-STAR-2
 10
-268.000000
 20
-514.000000
 11
-226.000000
 21
-514.000000
  0
LINE
  8
A-STAR-2
 10
-225.500000
 20
-514.000000
 11
-268.000000
 21
-514.000000
  0
LINE
  8
A-STAR-2
 10
-268.000000
 20
-514.000000
 11
-268.000000
 21
-472.000000
  0
LINE
  8
A-STAR-2
 10
-268.000000
 20
-472.000000
 11
-225.500000
 21
-472.000000
  0
LINE
  8
A-STAR-2
 10
-225.500000
 20
-472.000000
 11
-225.500000
 21
-514.000000
  0
LINE
  8
A-STAR-2
 10
-216.500000
 20
-472.000000
 11
-225.500000
 21
-472.000000
  0
LINE
  8
A-STAR-2
 10
-225.500000
 20
-472.000000
 11
-225.500000
 21
-514.000000
  0
LINE
  8
A-STAR-2
 10
-225.500000
 20
-514.000000
 11
-216.500000
 21
-514.000000
  0
LINE
  8
A-STAR-2
 10
-207.500000
 20
-472.000000
 11
-216.500000
 21
-472.000000
  0
LINE
  8
A-STAR-2
 10
-216.500000
 20
-472.000000
 11
-216.500000
 21
-514.000000
  0
LINE
  8
A-STAR-2
 10
-216.500000
 20
-514.000000
 11
-207.500000
 21
-514.000000
  0
LINE
  8
A-STAR-2
 10
-198.500000
 20
-472.000000
 11
-207.500000
 21
-472.000000
  0
LINE
  8
A-STAR-2
 10
-207.500000
 20
-472.000000
 11
-207.500000
 21
-514.000000
  0
LINE
  8
A-STAR-2
 10
-207.500000
 20
-514.000000
 11
-198.500000
 21
-514.000000
  0
LINE
  8
A-STAR-2
 10
-189.500000
 20
-472.000000
 11
-198.500000
 21
-472.000000
  0
LINE
  8
A-STAR-2
 10
-198.500000
 20
-472.000000
 11
-198.500000
 21
-514.000000
  0
LINE
  8
A-STAR-2
 10
-198.500000
 20
-514.000000
 11
-189.500000
 21
-514.000000
  0
LINE
  8
A-STAR-2
 10
-180.500000
 20
-472.000000
 11
-189.500000
 21
-472.000000
  0
LINE
  8
A-STAR-2
 10
-189.500000
 20
-472.000000
 11
-189.500000
 21
-514.000000
  0
LINE
  8
A-STAR-2
 10
-189.500000
 20
-514.000000
 11
-180.500000
 21
-514.000000
  0
LINE
  8
A-STAR-2
 10
-171.500000
 20
-472.000000
 11
-180.500000
 21
-472.000000
  0
LINE
  8
A-STAR-2
 10
-180.500000
 20
-472.000000
 11
-180.500000
 21
-514.000000
  0
LINE
  8
A-STAR-2
 10
-180.500000
 20
-514.000000
 11
-171.500000
 21
-514.000000
  0
LINE
  8
A-STAR-2
 10
-171.500000
 20
-472.000000
 11
-171.500000
 21
-514.000000
  0
TEXT
  8
A-POWR-2
 10
-185.695739
 20
-496.175486
 40
4.572700
  1
DN
  7
STANDARD
  0
LINE
  8
A-STAR-2
 10
-190.500000
 20
-493.000000
 11
-215.500000
 21
-493.000000
  0
LINE
  8
A-STAR-2
 10
-171.500000
 20
-472.000000
 11
-171.500000
 21
-514.000000
  0
LINE
  8
A-WALL-2
 10
-242.000000
 20
-255.000000
 11
-274.000000
 21
-255.000000
  0
LINE
  8
A-WALL-2
 10
-270.000000
 20
-259.000000
 11
-242.000000
 21
-259.000000
  0
LINE
  8
A-WALL-2
 10
-142.000000
 20
-259.000000
 11
-102.000000
 21
-259.000000
  0
LINE
  8
A-WALL-2
 10
-84.000000
 20
-255.000000
 11
-142.000000
 21
-255.000000
  0
LINE
  8
A-WALL-2
 10
-98.000000
 20
-259.000000
 11
-84.000000
 21
-259.000000
  0
LINE
  8
A-WALL-2
 10
16.000000
 20
-255.000000
 11
-56.000000
 21
-255.000000
  0
LINE
  8
A-WALL-2
 10
-56.000000
 20
-259.000000
 11
16.000000
 21
-259.000000
  0
LINE
  8
A-WALL-2
 10
44.000000
 20
-259.000000
 11
54.000000
 21
-259.000000
  0
LINE
  8
A-WALL-2
 10
58.000000
 20
-259.000000
 11
94.000000
 21
-259.000000
  0
LINE
  8
A-WALL-2
 10
188.000000
 20
-255.000000
 11
44.000000
 21
-255.000000
  0
LINE
  8
A-WALL-2
 10
98.000000
 20
-259.000000
 11
188.000000
 21
-259.000000
  0
LINE
  8
A-WALL-2
 10
230.000000
 20
-255.000000
 11
220.000000
 21
-255.000000
  0
LINE
  8
A-WALL-2
 10
220.000000
 20
-259.000000
 11
226.000000
 21
-259.000000
  0
LINE
  8
A-GLAZ-2
 10
-210.000000
 20
-255.000000
 11
-210.000000
 21
-259.000000
  0
LINE
  8
A-GLAZ-2
 10
-242.000000
 20
-259.000000
 11
-242.000000
 21
-255.000000
  0
LINE
  8
A-GLAZ-2
 10
-242.000000
 20
-259.000000
 11
-210.000000
 21
-259.000000
  0
LINE
  8
A-GLAZ-2
 10
-210.000000
 20
-255.000000
 11
-242.000000
 21
-255.000000
  0
LINE
  8
A-GLAZ-2
 10
-210.000000
 20
-257.000000
 11
-242.000000
 21
-257.000000
  0
TEXT
  8
A-DIMS-2
 10
-235.440412
 20
-250.541559
 40
5.487240
  1
2852
  7
STANDARD
  0
LINE
  8
A-GLAZ-2
 10
-176.000000
 20
-255.000000
 11
-176.000000
 21
-259.000000
  0
LINE
  8
A-GLAZ-2
 10
-208.000000
 20
-259.000000
 11
-208.000000
 21
-255.000000
  0
LINE
  8
A-GLAZ-2
 10
-208.000000
 20
-255.000000
 11
-210.000000
 21
-255.000000
  0
LINE
  8
A-GLAZ-2
 10
-208.000000
 20
-259.000000
 11
-210.000000
 21
-259.000000
  0
LINE
  8
A-GLAZ-2
 10
-208.000000
 20
-259.000000
 11
-176.000000
 21
-259.000000
  0
LINE
  8
A-GLAZ-2
 10
-176.000000
 20
-255.000000
 11
-208.000000
 21
-255.000000
  0
LINE
  8
A-GLAZ-2
 10
-176.000000
 20
-257.000000
 11
-208.000000
 21
-257.000000
  0
TEXT
  8
A-DIMS-2
 10
-201.440412
 20
-250.541559
 40
5.487240
  1
2852
  7
STANDARD
  0
LINE
  8
A-GLAZ-2
 10
-142.000000
 20
-255.000000
 11
-142.000000
 21
-259.000000
  0
LINE
  8
A-GLAZ-2
 10
-174.000000
 20
-259.000000
 11
-174.000000
 21
-255.000000
  0
LINE
  8
A-GLAZ-2
 10
-174.000000
 20
-255.000000
 11
-176.000000
 21
-255.000000
  0
LINE
  8
A-GLAZ-2
 10
-174.000000
 20
-259.000000
 11
-176.000000
 21
-259.000000
  0
LINE
  8
A-GLAZ-2
 10
-174.000000
 20
-259.000000
 11
-142.000000
 21
-259.000000
  0
LINE
  8
A-GLAZ-2
 10
-142.000000
 20
-255.000000
 11
-174.000000
 21
-255.000000
  0
LINE
  8
A-GLAZ-2
 10
-142.000000
 20
-257.000000
 11
-174.000000
 21
-257.000000
  0
TEXT
  8
A-DIMS-2
 10
-167.440412
 20
-250.541559
 40
5.487240
  1
2852
  7
STANDARD
  0
LINE
  8
A-GLAZ-2
 10
-56.000000
 20
-255.000000
 11
-56.000000
 21
-259.000000
  0
LINE
  8
A-GLAZ-2
 10
-84.000000
 20
-259.000000
 11
-84.000000
 21
-255.000000
  0
LINE
  8
A-GLAZ-2
 10
-84.000000
 20
-259.000000
 11
-56.000000
 21
-259.000000
  0
LINE
  8
A-GLAZ-2
 10
-56.000000
 20
-255.000000
 11
-84.000000
 21
-255.000000
  0
LINE
  8
A-GLAZ-2
 10
-56.000000
 20
-257.000000
 11
-84.000000
 21
-257.000000
  0
TEXT
  8
A-DIMS-2
 10
-79.440412
 20
-250.541559
 40
5.487240
  1
2424
  7
STANDARD
  0
LINE
  8
A-GLAZ-2
 10
44.000000
 20
-255.000000
 11
44.000000
 21
-259.000000
  0
LINE
  8
A-GLAZ-2
 10
16.000000
 20
-259.000000
 11
16.000000
 21
-255.000000
  0
LINE
  8
A-GLAZ-2
 10
16.000000
 20
-259.000000
 11
44.000000
 21
-259.000000
  0
LINE
  8
A-GLAZ-2
 10
44.000000
 20
-255.000000
 11
16.000000
 21
-255.000000
  0
LINE
  8
A-GLAZ-2
 10
44.000000
 20
-257.000000
 11
16.000000
 21
-257.000000
  0
TEXT
  8
A-DIMS-2
 10
20.559588
 20
-250.541559
 40
5.487240
  1
2424
  7
STANDARD
  0
LINE
  8
A-GLAZ-2
 10
220.000000
 20
-255.000000
 11
220.000000
 21
-259.000000
  0
LINE
  8
A-GLAZ-2
 10
188.000000
 20
-259.000000
 11
188.000000
 21
-255.000000
  0
LINE
  8
A-GLAZ-2
 10
188.000000
 20
-259.000000
 11
220.000000
 21
-259.000000
  0
LINE
  8
A-GLAZ-2
 10
220.000000
 20
-255.000000
 11
188.000000
 21
-255.000000
  0
LINE
  8
A-GLAZ-2
 10
220.000000
 20
-257.000000
 11
188.000000
 21
-257.000000
  0
TEXT
  8
A-DIMS-2
 10
194.559588
 20
-250.541559
 40
5.487240
  1
2842
  7
STANDARD
  0
LINE
  8
A-WALL-2
 10
230.000000
 20
-268.000000
 11
230.000000
 21
-255.000000
  0
LINE
  8
A-WALL-2
 10
226.000000
 20
-259.000000
 11
226.000000
 21
-268.000000
  0
LINE
  8
A-WALL-2
 10
226.000000
 20
-334.000000
 11
226.000000
 21
-349.000000
  0
LINE
  8
A-WALL-2
 10
230.000000
 20
-370.000000
 11
230.000000
 21
-334.000000
  0
LINE
  8
A-WALL-2
 10
226.000000
 20
-353.000000
 11
226.000000
 21
-370.000000
  0
LINE
  8
A-WALL-2
 10
226.000000
 20
-398.000000
 11
226.000000
 21
-416.000000
  0
LINE
  8
A-WALL-2
 10
226.000000
 20
-420.000000
 11
226.000000
 21
-474.000000
  0
LINE
  8
A-WALL-2
 10
230.000000
 20
-511.000000
 11
230.000000
 21
-398.000000
  0
LINE
  8
A-WALL-2
 10
226.000000
 20
-478.000000
 11
226.000000
 21
-511.000000
  0
LINE
  8
A-WALL-2
 10
226.000000
 20
-577.000000
 11
226.000000
 21
-610.000000
  0
LINE
  8
A-WALL-2
 10
230.000000
 20
-692.000000
 11
230.000000
 21
-577.000000
  0
LINE
  8
A-WALL-2
 10
226.000000
 20
-614.000000
 11
226.000000
 21
-692.000000
  0
LINE
  8
A-WALL-2
 10
230.000000
 20
-762.000000
 11
230.000000
 21
-720.000000
  0
LINE
  8
A-WALL-2
 10
226.000000
 20
-720.000000
 11
226.000000
 21
-758.000000
  0
LINE
  8
A-GLAZ-2
 10
230.000000
 20
-300.000000
 11
226.000000
 21
-300.000000
  0
LINE
  8
A-GLAZ-2
 10
226.000000
 20
-268.000000
 11
230.000000
 21
-268.000000
  0
LINE
  8
A-GLAZ-2
 10
226.000000
 20
-268.000000
 11
226.000000
 21
-300.000000
  0
LINE
  8
A-GLAZ-2
 10
230.000000
 20
-300.000000
 11
230.000000
 21
-268.000000
  0
LINE
  8
A-GLAZ-2
 10
228.000000
 20
-300.000000
 11
228.000000
 21
-268.000000
  0
TEXT
  8
A-DIMS-2
 10
239.703114
 20
-293.440412
 40
5.487240
  1
2842
 50
90.000000
  7
STANDARD
  0
LINE
  8
A-GLAZ-2
 10
230.000000
 20
-334.000000
 11
226.000000
 21
-334.000000
  0
LINE
  8
A-GLAZ-2
 10
226.000000
 20
-302.000000
 11
230.000000
 21
-302.000000
  0
LINE
  8
A-GLAZ-2
 10
230.000000
 20
-302.000000
 11
230.000000
 21
-300.000000
  0
LINE
  8
A-GLAZ-2
 10
226.000000
 20
-302.000000
 11
226.000000
 21
-300.000000
  0
LINE
  8
A-GLAZ-2
 10
226.000000
 20
-302.000000
 11
226.000000
 21
-334.000000
  0
LINE
  8
A-GLAZ-2
 10
230.000000
 20
-334.000000
 11
230.000000
 21
-302.000000
  0
LINE
  8
A-GLAZ-2
 10
228.000000
 20
-334.000000
 11
228.000000
 21
-302.000000
  0
TEXT
  8
A-DIMS-2
 10
239.703114
 20
-327.440412
 40
5.487240
  1
2842
 50
90.000000
  7
STANDARD
  0
LINE
  8
A-GLAZ-2
 10
230.000000
 20
-398.000000
 11
226.000000
 21
-398.000000
  0
LINE
  8
A-GLAZ-2
 10
226.000000
 20
-370.000000
 11
230.000000
 21
-370.000000
  0
LINE
  8
A-GLAZ-2
 10
226.000000
 20
-370.000000
 11
226.000000
 21
-398.000000
  0
LINE
  8
A-GLAZ-2
 10
230.000000
 20
-398.000000
 11
230.000000
 21
-370.000000
  0
LINE
  8
A-GLAZ-2
 10
228.000000
 20
-398.000000
 11
228.000000
 21
-370.000000
  0
TEXT
  8
A-DIMS-2
 10
239.703114
 20
-393.440412
 40
5.487240
  1
2432
 50
90.000000
  7
STANDARD
  0
LINE
  8
A-GLAZ-2
 10
230.000000
 20
-543.000000
 11
226.000000
 21
-543.000000
  0
LINE
  8
A-GLAZ-2
 10
226.000000
 20
-511.000000
 11
230.000000
 21
-511.000000
  0
LINE
  8
A-GLAZ-2
 10
226.000000
 20
-511.000000
 11
226.000000
 21
-543.000000
  0
LINE
  8
A-GLAZ-2
 10
230.000000
 20
-543.000000
 11
230.000000
 21
-511.000000
  0
LINE
  8
A-GLAZ-2
 10
228.000000
 20
-543.000000
 11
228.000000
 21
-511.000000
  0
TEXT
  8
A-DIMS-2
 10
239.703114
 20
-536.440412
 40
5.487240
  1
2852
 50
90.000000
  7
STANDARD
  0
LINE
  8
A-GLAZ-2
 10
230.000000
 20
-577.000000
 11
226.000000
 21
-577.000000
  0
LINE
  8
A-GLAZ-2
 10
226.000000
 20
-545.000000
 11
230.000000
 21
-545.000000
  0
LINE
  8
A-GLAZ-2
 10
230.000000
 20
-545.000000
 11
230.000000
 21
-543.000000
  0
LINE
  8
A-GLAZ-2
 10
226.000000
 20
-545.000000
 11
226.000000
 21
-543.000000
  0
LINE
  8
A-GLAZ-2
 10
226.000000
 20
-545.000000
 11
226.000000
 21
-577.000000
  0
LINE
  8
A-GLAZ-2
 10
230.000000
 20
-577.000000
 11
230.000000
 21
-545.000000
  0
LINE
  8
A-GLAZ-2
 10
228.000000
 20
-577.000000
 11
228.000000
 21
-545.000000
  0
TEXT
  8
A-DIMS-2
 10
239.703114
 20
-570.440412
 40
5.487240
  1
2852
 50
90.000000
  7
STANDARD
  0
LINE
  8
A-GLAZ-2
 10
230.000000
 20
-720.000000
 11
226.000000
 21
-720.000000
  0
LINE
  8
A-GLAZ-2
 10
226.000000
 20
-692.000000
 11
230.000000
 21
-692.000000
  0
LINE
  8
A-GLAZ-2
 10
226.000000
 20
-692.000000
 11
226.000000
 21
-720.000000
  0
LINE
  8
A-GLAZ-2
 10
230.000000
 20
-720.000000
 11
230.000000
 21
-692.000000
  0
LINE
  8
A-GLAZ-2
 10
228.000000
 20
-720.000000
 11
228.000000
 21
-692.000000
  0
TEXT
  8
A-DIMS-2
 10
239.703114
 20
-715.440412
 40
5.487240
  1
2432
 50
90.000000
  7
STANDARD
  0
LINE
  8
A-WALL-2
 10
-270.000000
 20
-280.000000
 11
-270.000000
 21
-259.000000
  0
LINE
  8
A-WALL-2
 10
-274.000000
 20
-255.000000
 11
-274.000000
 21
-280.000000
  0
LINE
  8
A-WALL-2
 10
-270.000000
 20
-416.000000
 11
-270.000000
 21
-312.000000
  0
LINE
  8
A-WALL-2
 10
-274.000000
 20
-312.000000
 11
-274.000000
 21
-416.000000
  0
LINE
  8
A-WALL-2
 10
-270.000000
 20
-468.000000
 11
-270.000000
 21
-448.000000
  0
LINE
  8
A-WALL-2
 10
-274.000000
 20
-448.000000
 11
-274.000000
 21
-470.000000
  0
LINE
  8
A-GLAZ-2
 10
-274.000000
 20
-280.000000
 11
-270.000000
 21
-280.000000
  0
LINE
  8
A-GLAZ-2
 10
-270.000000
 20
-312.000000
 11
-274.000000
 21
-312.000000
  0
LINE
  8
A-GLAZ-2
 10
-270.000000
 20
-312.000000
 11
-270.000000
 21
-280.000000
  0
LINE
  8
A-GLAZ-2
 10
-274.000000
 20
-280.000000
 11
-274.000000
 21
-312.000000
  0
LINE
  8
A-GLAZ-2
 10
-272.000000
 20
-280.000000
 11
-272.000000
 21
-312.000000
  0
TEXT
  8
A-DIMS-2
 10
-278.458441
 20
-305.440412
 40
5.487240
  1
2852
 50
90.000000
  7
STANDARD
  0
LINE
  8
A-GLAZ-2
 10
-274.000000
 20
-416.000000
 11
-270.000000
 21
-416.000000
  0
LINE
  8
A-GLAZ-2
 10
-270.000000
 20
-448.000000
 11
-274.000000
 21
-448.000000
  0
LINE
  8
A-GLAZ-2
 10
-270.000000
 20
-448.000000
 11
-270.000000
 21
-416.000000
  0
LINE
  8
A-GLAZ-2
 10
-274.000000
 20
-416.000000
 11
-274.000000
 21
-448.000000
  0
LINE
  8
A-GLAZ-2
 10
-272.000000
 20
-416.000000
 11
-272.000000
 21
-448.000000
  0
TEXT
  8
A-DIMS-2
 10
-278.458441
 20
-441.440412
 40
5.487240
  1
2852
 50
90.000000
  7
STANDARD
  0
LINE
  8
A-WALL-2
 10
-202.000000
 20
-603.000000
 11
-268.000000
 21
-603.000000
  0
LINE
  8
A-WALL-2
 10
-274.000000
 20
-609.000000
 11
-204.000000
 21
-609.000000
  0
LINE
  8
A-WALL-2
 10
38.000000
 20
-406.000000
 11
-32.000000
 21
-406.000000
  0
LINE
  8
A-WALL-2
 10
-32.000000
 20
-410.000000
 11
38.000000
 21
-410.000000
  0
LINE
  8
A-WALL-2
 10
226.000000
 20
-758.000000
 11
162.000000
 21
-758.000000
  0
LINE
  8
A-WALL-2
 10
154.000000
 20
-762.000000
 11
230.000000
 21
-762.000000
  0
LINE
  8
A-WALL-2
 10
158.000000
 20
-758.000000
 11
154.000000
 21
-758.000000
  0
LINE
  8
A-WALL-2
 10
-10.000000
 20
-762.000000
 11
88.000000
 21
-762.000000
  0
LINE
  8
A-WALL-2
 10
88.000000
 20
-758.000000
 11
-10.000000
 21
-758.000000
  0
LINE
  8
A-GLAZ-2
 10
122.000000
 20
-762.000000
 11
122.000000
 21
-758.000000
  0
LINE
  8
A-GLAZ-2
 10
154.000000
 20
-758.000000
 11
154.000000
 21
-762.000000
  0
LINE
  8
A-GLAZ-2
 10
154.000000
 20
-758.000000
 11
122.000000
 21
-758.000000
  0
LINE
  8
A-GLAZ-2
 10
122.000000
 20
-762.000000
 11
154.000000
 21
-762.000000
  0
LINE
  8
A-GLAZ-2
 10
122.000000
 20
-760.000000
 11
154.000000
 21
-760.000000
  0
TEXT
  8
A-DIMS-2
 10
128.559588
 20
-771.703114
 40
5.487240
  1
2852
  7
STANDARD
  0
LINE
  8
A-GLAZ-2
 10
88.000000
 20
-762.000000
 11
88.000000
 21
-758.000000
  0
LINE
  8
A-GLAZ-2
 10
120.000000
 20
-758.000000
 11
120.000000
 21
-762.000000
  0
LINE
  8
A-GLAZ-2
 10
120.000000
 20
-762.000000
 11
122.000000
 21
-762.000000
  0
LINE
  8
A-GLAZ-2
 10
120.000000
 20
-758.000000
 11
122.000000
 21
-758.000000
  0
LINE
  8
A-GLAZ-2
 10
120.000000
 20
-758.000000
 11
88.000000
 21
-758.000000
  0
LINE
  8
A-GLAZ-2
 10
88.000000
 20
-762.000000
 11
120.000000
 21
-762.000000
  0
LINE
  8
A-GLAZ-2
 10
88.000000
 20
-760.000000
 11
120.000000
 21
-760.000000
  0
TEXT
  8
A-DIMS-2
 10
94.559588
 20
-771.703114
 40
5.487240
  1
2852
  7
STANDARD
  0
LINE
  8
A-WALL-2
 10
-158.000000
 20
-771.000000
 11
-200.000000
 21
-771.000000
  0
LINE
  8
A-WALL-2
 10
-204.000000
 20
-775.000000
 11
-158.000000
 21
-775.000000
  0
LINE
  8
A-WALL-2
 10
-42.000000
 20
-771.000000
 11
-58.000000
 21
-771.000000
  0
LINE
  8
A-WALL-2
 10
-14.000000
 20
-771.000000
 11
-38.000000
 21
-771.000000
  0
LINE
  8
A-WALL-2
 10
-58.000000
 20
-775.000000
 11
-10.000000
 21
-775.000000
  0
LINE
  8
A-GLAZ-2
 10
-158.000000
 20
-775.000000
 11
-158.000000
 21
-771.000000
  0
LINE
  8
A-GLAZ-2
 10
-126.000000
 20
-771.000000
 11
-126.000000
 21
-775.000000
  0
LINE
  8
A-GLAZ-2
 10
-126.000000
 20
-775.000000
 11
-124.000000
 21
-775.000000
  0
LINE
  8
A-GLAZ-2
 10
-126.000000
 20
-771.000000
 11
-124.000000
 21
-771.000000
  0
LINE
  8
A-GLAZ-2
 10
-126.000000
 20
-771.000000
 11
-158.000000
 21
-771.000000
  0
LINE
  8
A-GLAZ-2
 10
-158.000000
 20
-775.000000
 11
-126.000000
 21
-775.000000
  0
LINE
  8
A-GLAZ-2
 10
-158.000000
 20
-773.000000
 11
-126.000000
 21
-773.000000
  0
TEXT
  8
A-DIMS-2
 10
-151.440412
 20
-784.703114
 40
5.487240
  1
2852
  7
STANDARD
  0
LINE
  8
A-GLAZ-2
 10
-124.000000
 20
-775.000000
 11
-124.000000
 21
-771.000000
  0
LINE
  8
A-GLAZ-2
 10
-92.000000
 20
-771.000000
 11
-92.000000
 21
-775.000000
  0
LINE
  8
A-GLAZ-2
 10
-92.000000
 20
-775.000000
 11
-90.000000
 21
-775.000000
  0
LINE
  8
A-GLAZ-2
 10
-92.000000
 20
-771.000000
 11
-90.000000
 21
-771.000000
  0
LINE
  8
A-GLAZ-2
 10
-92.000000
 20
-771.000000
 11
-124.000000
 21
-771.000000
  0
LINE
  8
A-GLAZ-2
 10
-124.000000
 20
-775.000000
 11
-92.000000
 21
-775.000000
  0
LINE
  8
A-GLAZ-2
 10
-124.000000
 20
-773.000000
 11
-92.000000
 21
-773.000000
  0
TEXT
  8
A-DIMS-2
 10
-117.440412
 20
-784.703114
 40
5.487240
  1
2852
  7
STANDARD
  0
LINE
  8
A-GLAZ-2
 10
-90.000000
 20
-775.000000
 11
-90.000000
 21
-771.000000
  0
LINE
  8
A-GLAZ-2
 10
-58.000000
 20
-771.000000
 11
-58.000000
 21
-775.000000
  0
LINE
  8
A-GLAZ-2
 10
-58.000000
 20
-771.000000
 11
-90.000000
 21
-771.000000
  0
LINE
  8
A-GLAZ-2
 10
-90.000000
 20
-775.000000
 11
-58.000000
 21
-775.000000
  0
LINE
  8
A-GLAZ-2
 10
-90.000000
 20
-773.000000
 11
-58.000000
 21
-773.000000
  0
TEXT
  8
A-DIMS-2
 10
-83.440412
 20
-784.703114
 40
5.487240
  1
2852
  7
STANDARD
  0
LINE
  8
A-WALL-2
 10
-10.000000
 20
-775.000000
 11
-10.000000
 21
-762.000000
  0
LINE
  8
A-WALL-2
 10
-14.000000
 20
-703.000000
 11
-14.000000
 21
-771.000000
  0
LINE
  8
A-WALL-2
 10
-14.000000
 20
-692.000000
 11
-14.000000
 21
-699.000000
  0
LINE
  8
A-WALL-2
 10
-10.000000
 20
-758.000000
 11
-10.000000
 21
-692.000000
  0
LINE
  8
A-WALL-2
 10
-14.000000
 20
-629.935120
 11
-14.000000
 21
-636.000000
  0
LINE
  8
A-WALL-2
 10
-10.000000
 20
-636.000000
 11
-10.000000
 21
-629.935120
  0
LINE
  8
A-GLAZ-2
 10
-14.000000
 20
-692.000000
 11
-10.000000
 21
-692.000000
  0
LINE
  8
A-GLAZ-2
 10
-14.000000
 20
-636.000000
 11
-10.000000
 21
-636.000000
  0
LINE
  8
A-GLAZ-2
 10
-10.000000
 20
-692.000000
 11
18.000000
 21
-692.000000
  0
LINE
  8
A-GLAZ-2
 10
18.000000
 20
-690.625000
 11
-10.000000
 21
-690.625000
  0
LINE
  8
A-GLAZ-2
 10
-10.000000
 20
-690.625000
 11
-10.000000
 21
-692.000000
  0
ARC
  8
A-GLAZ-2
 10
-10.000000
 20
-692.000000
 40
28.000000
 50
0.000000
 51
90.000000
  0
LINE
  8
A-GLAZ-2
 10
-10.000000
 20
-636.000000
 11
18.000000
 21
-636.000000
  0
LINE
  8
A-GLAZ-2
 10
18.000000
 20
-637.375000
 11
-10.000000
 21
-637.375000
  0
LINE
  8
A-GLAZ-2
 10
-10.000000
 20
-637.375000
 11
-10.000000
 21
-636.000000
  0
ARC
  8
A-GLAZ-2
 10
-10.000000
 20
-636.000000
 40
28.000000
 50
270.000000
 51
0.000000
  0
TEXT
  8
A-DIMS-2
 10
-9.377663
 20
-673.440412
 40
5.487240
  1
4868
 50
90.000000
  7
STANDARD
  0
LINE
  8
A-WALL-2
 10
-54.409515
 20
-625.935120
 11
-118.000000
 21
-625.935120
  0
LINE
  8
A-WALL-2
 10
-122.000000
 20
-629.935120
 11
-42.000000
 21
-629.935120
  0
LINE
  8
A-WALL-2
 10
-38.000000
 20
-629.935120
 11
-14.000000
 21
-629.935120
  0
LINE
  8
A-WALL-2
 10
10.000000
 20
-625.935120
 11
-50.409515
 21
-625.935120
  0
LINE
  8
A-WALL-2
 10
-10.000000
 20
-629.935120
 11
14.000000
 21
-629.935120
  0
LINE
  8
A-WALL-2
 10
162.000000
 20
-695.000000
 11
162.000000
 21
-614.000000
  0
LINE
  8
A-WALL-2
 10
158.000000
 20
-614.000000
 11
158.000000
 21
-695.000000
  0
LINE
  8
A-WALL-2
 10
162.000000
 20
-758.000000
 11
162.000000
 21
-725.000000
  0
LINE
  8
A-WALL-2
 10
158.000000
 20
-725.000000
 11
158.000000
 21
-758.000000
  0
LINE
  8
A-GLAZ-2
 10
162.000000
 20
-695.000000
 11
158.000000
 21
-695.000000
  0
LINE
  8
A-GLAZ-2
 10
162.000000
 20
-725.000000
 11
158.000000
 21
-725.000000
  0
LINE
  8
A-GLAZ-2
 10
162.000000
 20
-725.000000
 11
192.000000
 21
-725.000000
  0
LINE
  8
A-GLAZ-2
 10
192.000000
 20
-723.625000
 11
162.000000
 21
-723.625000
  0
LINE
  8
A-GLAZ-2
 10
162.000000
 20
-723.625000
 11
162.000000
 21
-725.000000
  0
ARC
  8
A-GLAZ-2
 10
162.000000
 20
-725.000000
 40
30.000000
 50
0.000000
 51
90.000000
  0
TEXT
  8
A-DIMS-2
 10
162.622337
 20
-719.440412
 40
5.487240
  1
2668
 50
90.000000
  7
STANDARD
  0
LINE
  8
A-WALL-2
 10
221.000000
 20
-478.000000
 11
226.000000
 21
-478.000000
  0
LINE
  8
A-WALL-2
 10
226.000000
 20
-474.000000
 11
221.000000
 21
-474.000000
  0
LINE
  8
A-WALL-2
 10
191.000000
 20
-474.000000
 11
160.000000
 21
-474.000000
  0
LINE
  8
A-WALL-2
 10
58.000000
 20
-478.000000
 11
191.000000
 21
-478.000000
  0
LINE
  8
A-WALL-2
 10
156.000000
 20
-474.000000
 11
58.000000
 21
-474.000000
  0
LINE
  8
A-GLAZ-2
 10
221.000000
 20
-478.000000
 11
221.000000
 21
-474.000000
  0
LINE
  8
A-GLAZ-2
 10
191.000000
 20
-478.000000
 11
191.000000
 21
-474.000000
  0
LINE
  8
A-GLAZ-2
 10
221.000000
 20
-474.000000
 11
221.000000
 21
-444.000000
  0
LINE
  8
A-GLAZ-2
 10
219.625000
 20
-444.000000
 11
219.625000
 21
-474.000000
  0
LINE
  8
A-GLAZ-2
 10
219.625000
 20
-474.000000
 11
221.000000
 21
-474.000000
  0
ARC
  8
A-GLAZ-2
 10
221.000000
 20
-474.000000
 40
30.000000
 50
90.000000
 51
180.000000
  0
TEXT
  8
A-DIMS-2
 10
196.559588
 20
-478.622337
 40
5.487240
  1
2668
  7
STANDARD
  0
LINE
  8
A-WALL-2
 10
58.000000
 20
-474.000000
 11
58.000000
 21
-468.000000
  0
LINE
  8
A-WALL-2
 10
58.000000
 20
-494.000000
 11
58.000000
 21
-478.000000
  0
LINE
  8
A-WALL-2
 10
54.000000
 20
-472.000000
 11
54.000000
 21
-494.000000
  0
LINE
  8
A-WALL-2
 10
54.000000
 20
-524.000000
 11
54.000000
 21
-591.000000
  0
LINE
  8
A-WALL-2
 10
58.000000
 20
-610.000000
 11
58.000000
 21
-524.000000
  0
LINE
  8
A-WALL-2
 10
54.000000
 20
-595.000000
 11
54.000000
 21
-614.000000
  0
LINE
  8
A-GLAZ-2
 10
58.000000
 20
-494.000000
 11
54.000000
 21
-494.000000
  0
LINE
  8
A-GLAZ-2
 10
58.000000
 20
-524.000000
 11
54.000000
 21
-524.000000
  0
LINE
  8
A-GLAZ-2
 10
58.000000
 20
-494.000000
 11
88.000000
 21
-494.000000
  0
LINE
  8
A-GLAZ-2
 10
88.000000
 20
-495.375000
 11
58.000000
 21
-495.375000
  0
LINE
  8
A-GLAZ-2
 10
58.000000
 20
-495.375000
 11
58.000000
 21
-494.000000
  0
ARC
  8
A-GLAZ-2
 10
58.000000
 20
-494.000000
 40
30.000000
 50
270.000000
 51
0.000000
  0
TEXT
  8
A-DIMS-2
 10
58.622337
 20
-518.440412
 40
5.487240
  1
2668
 50
90.000000
  7
STANDARD
  0
LINE
  8
A-WALL-2
 10
160.000000
 20
-420.000000
 11
226.000000
 21
-420.000000
  0
LINE
  8
A-WALL-2
 10
226.000000
 20
-416.000000
 11
160.000000
 21
-416.000000
  0
LINE
  8
A-WALL-2
 10
160.000000
 20
-355.500000
 11
160.000000
 21
-353.000000
  0
LINE
  8
A-WALL-2
 10
156.000000
 20
-349.000000
 11
156.000000
 21
-355.500000
  0
LINE
  8
A-WALL-2
 10
156.000000
 20
-385.500000
 11
156.000000
 21
-390.075684
  0
LINE
  8
A-WALL-2
 10
160.000000
 20
-416.000000
 11
160.000000
 21
-385.500000
  0
LINE
  8
A-WALL-2
 10
160.000000
 20
-474.000000
 11
160.000000
 21
-420.000000
  0
LINE
  8
A-WALL-2
 10
156.000000
 20
-394.075684
 11
156.000000
 21
-474.000000
  0
LINE
  8
A-GLAZ-2
 10
160.000000
 20
-355.500000
 11
156.000000
 21
-355.500000
  0
LINE
  8
A-GLAZ-2
 10
160.000000
 20
-385.500000
 11
156.000000
 21
-385.500000
  0
LINE
  8
A-GLAZ-2
 10
160.000000
 20
-355.500000
 11
190.000000
 21
-355.500000
  0
LINE
  8
A-GLAZ-2
 10
190.000000
 20
-356.875000
 11
160.000000
 21
-356.875000
  0
LINE
  8
A-GLAZ-2
 10
160.000000
 20
-356.875000
 11
160.000000
 21
-355.500000
  0
ARC
  8
A-GLAZ-2
 10
160.000000
 20
-355.500000
 40
30.000000
 50
270.000000
 51
0.000000
  0
TEXT
  8
A-DIMS-2
 10
160.622337
 20
-379.940412
 40
5.487240
  1
2668
 50
90.000000
  7
STANDARD
  0
LINE
  8
A-WALL-2
 10
-28.000000
 20
-378.000000
 11
-36.000000
 21
-378.000000
  0
LINE
  8
A-WALL-2
 10
-32.000000
 20
-382.000000
 11
-28.000000
 21
-382.000000
  0
LINE
  8
A-WALL-2
 10
42.000000
 20
-378.000000
 11
34.000000
 21
-378.000000
  0
LINE
  8
A-WALL-2
 10
34.000000
 20
-382.000000
 11
38.000000
 21
-382.000000
  0
LINE
  8
A-GLAZ-2
 10
-28.000000
 20
-378.000000
 11
-28.000000
 21
-382.000000
  0
LINE
  8
A-GLAZ-2
 10
34.000000
 20
-378.000000
 11
34.000000
 21
-382.000000
  0
LINE
  8
A-GLAZ-2
 10
-28.000000
 20
-380.000000
 11
-17.039845
 21
-369.039845
  0
LINE
  8
A-GLAZ-2
 10
-17.039845
 20
-369.039845
 11
-16.067573
 21
-370.012117
  0
LINE
  8
A-GLAZ-2
 10
-16.067573
 20
-370.012117
 11
-27.027728
 21
-380.972272
  0
LINE
  8
A-GLAZ-2
 10
-27.027728
 20
-380.972272
 11
-28.000000
 21
-380.000000
  0
LINE
  8
A-GLAZ-2
 10
-16.067573
 20
-370.012117
 11
-5.107418
 21
-380.972272
  0
LINE
  8
A-GLAZ-2
 10
-5.107418
 20
-380.972272
 11
-4.135146
 21
-380.000000
  0
LINE
  8
A-GLAZ-2
 10
-4.135146
 20
-380.000000
 11
-15.095301
 21
-369.039845
  0
LINE
  8
A-GLAZ-2
 10
-15.095301
 20
-369.039845
 11
-16.067573
 21
-370.012117
  0
LINE
  8
A-GLAZ-2
 10
34.000000
 20
-380.000000
 11
23.039845
 21
-369.039845
  0
LINE
  8
A-GLAZ-2
 10
23.039845
 20
-369.039845
 11
22.067573
 21
-370.012117
  0
LINE
  8
A-GLAZ-2
 10
22.067573
 20
-370.012117
 11
33.027728
 21
-380.972272
  0
LINE
  8
A-GLAZ-2
 10
33.027728
 20
-380.972272
 11
34.000000
 21
-380.000000
  0
LINE
  8
A-GLAZ-2
 10
22.067573
 20
-370.012117
 11
11.107418
 21
-380.972272
  0
LINE
  8
A-GLAZ-2
 10
11.107418
 20
-380.972272
 11
10.135146
 21
-380.000000
  0
LINE
  8
A-GLAZ-2
 10
10.135146
 20
-380.000000
 11
21.095301
 21
-369.039845
  0
LINE
  8
A-GLAZ-2
 10
21.095301
 20
-369.039845
 11
22.067573
 21
-370.012117
  0
TEXT
  8
A-DIMS-2
 10
-6.440412
 20
-382.622337
 40
5.487240
  1
5268
  7
STANDARD
  0
LINE
  8
A-WALL-2
 10
98.000000
 20
-293.500000
 11
98.000000
 21
-259.000000
  0
LINE
  8
A-WALL-2
 10
94.000000
 20
-259.000000
 11
94.000000
 21
-293.500000
  0
LINE
  8
A-WALL-2
 10
94.000000
 20
-321.500000
 11
94.000000
 21
-325.000000
  0
LINE
  8
A-WALL-2
 10
94.000000
 20
-329.000000
 11
94.000000
 21
-342.000000
  0
LINE
  8
A-WALL-2
 10
98.000000
 20
-355.575684
 11
98.000000
 21
-321.500000
  0
LINE
  8
A-WALL-2
 10
94.000000
 20
-346.000000
 11
94.000000
 21
-355.575684
  0
LINE
  8
A-WALL-2
 10
98.000000
 20
-390.075684
 11
98.000000
 21
-385.575684
  0
LINE
  8
A-WALL-2
 10
94.000000
 20
-385.575684
 11
94.000000
 21
-390.075684
  0
LINE
  8
A-GLAZ-2
 10
98.000000
 20
-293.500000
 11
94.000000
 21
-293.500000
  0
LINE
  8
A-GLAZ-2
 10
98.000000
 20
-321.500000
 11
94.000000
 21
-321.500000
  0
LINE
  8
A-GLAZ-2
 10
98.000000
 20
-293.500000
 11
126.000000
 21
-293.500000
  0
LINE
  8
A-GLAZ-2
 10
126.000000
 20
-294.875000
 11
98.000000
 21
-294.875000
  0
LINE
  8
A-GLAZ-2
 10
98.000000
 20
-294.875000
 11
98.000000
 21
-293.500000
  0
ARC
  8
A-GLAZ-2
 10
98.000000
 20
-293.500000
 40
28.000000
 50
270.000000
 51
0.000000
  0
TEXT
  8
A-DIMS-2
 10
98.622337
 20
-316.940412
 40
5.487240
  1
2468
 50
90.000000
  7
STANDARD
  0
LINE
  8
A-GLAZ-2
 10
98.000000
 20
-355.575691
 11
94.000000
 21
-355.575691
  0
LINE
  8
A-GLAZ-2
 10
98.000000
 20
-385.575691
 11
94.000000
 21
-385.575691
  0
LINE
  8
A-GLAZ-2
 10
98.000000
 20
-385.575691
 11
128.000000
 21
-385.575691
  0
LINE
  8
A-GLAZ-2
 10
128.000000
 20
-384.200691
 11
98.000000
 21
-384.200691
  0
LINE
  8
A-GLAZ-2
 10
98.000000
 20
-384.200691
 11
98.000000
 21
-385.575691
  0
ARC
  8
A-GLAZ-2
 10
98.000000
 20
-385.575691
 40
30.000000
 50
0.000000
 51
90.000000
  0
TEXT
  8
A-DIMS-2
 10
98.622337
 20
-380.016103
 40
5.487240
  1
2668
 50
90.000000
  7
STANDARD
  0
LINE
  8
A-WALL-2
 10
58.000000
 20
-325.000000
 11
58.000000
 21
-259.000000
  0
LINE
  8
A-WALL-2
 10
58.000000
 20
-342.000000
 11
58.000000
 21
-329.000000
  0
LINE
  8
A-WALL-2
 10
54.000000
 20
-259.000000
 11
54.000000
 21
-346.000000
  0
LINE
  8
A-WALL-2
 10
64.000000
 20
-342.000000
 11
58.000000
 21
-342.000000
  0
LINE
  8
A-WALL-2
 10
54.000000
 20
-346.000000
 11
64.000000
 21
-346.000000
  0
LINE
  8
A-WALL-2
 10
94.000000
 20
-342.000000
 11
88.000000
 21
-342.000000
  0
LINE
  8
A-WALL-2
 10
88.000000
 20
-346.000000
 11
94.000000
 21
-346.000000
  0
LINE
  8
A-GLAZ-2
 10
64.000000
 20
-342.000000
 11
64.000000
 21
-346.000000
  0
LINE
  8
A-GLAZ-2
 10
88.000000
 20
-342.000000
 11
88.000000
 21
-346.000000
  0
LINE
  8
A-GLAZ-2
 10
88.000000
 20
-346.000000
 11
88.000000
 21
-370.000000
  0
LINE
  8
A-GLAZ-2
 10
86.625000
 20
-370.000000
 11
86.625000
 21
-346.000000
  0
LINE
  8
A-GLAZ-2
 10
86.625000
 20
-346.000000
 11
88.000000
 21
-346.000000
  0
ARC
  8
A-GLAZ-2
 10
88.000000
 20
-346.000000
 40
24.000000
 50
180.000000
 51
270.000000
  0
TEXT
  8
A-DIMS-2
 10
66.559588
 20
-346.622337
 40
5.487240
  1
2068
  7
STANDARD
  0
LINE
  8
A-WALL-2
 10
94.000000
 20
-325.000000
 11
58.000000
 21
-325.000000
  0
LINE
  8
A-WALL-2
 10
58.000000
 20
-329.000000
 11
94.000000
 21
-329.000000
  0
LINE
  8
A-WALL-2
 10
-32.000000
 20
-406.000000
 11
-32.000000
 21
-382.000000
  0
LINE
  8
A-WALL-2
 10
-36.000000
 20
-378.000000
 11
-36.000000
 21
-408.000000
  0
LINE
  8
A-WALL-2
 10
-96.984024
 20
-433.000000
 11
-98.000000
 21
-433.000000
  0
LINE
  8
A-WALL-2
 10
-98.000000
 20
-437.000000
 11
-96.984024
 21
-437.000000
  0
LINE
  8
A-WALL-2
 10
-36.000000
 20
-433.000000
 11
-36.984024
 21
-433.000000
  0
LINE
  8
A-WALL-2
 10
-36.984024
 20
-437.000000
 11
-36.000000
 21
-437.000000
  0
LINE
  8
A-GLAZ-2
 10
-96.984026
 20
-433.000000
 11
-96.984026
 21
-437.000000
  0
LINE
  8
A-GLAZ-2
 10
-36.984026
 20
-433.000000
 11
-36.984026
 21
-437.000000
  0
LINE
  8
A-GLAZ-2
 10
-96.984026
 20
-437.000000
 11
-96.984026
 21
-467.000000
  0
LINE
  8
A-GLAZ-2
 10
-95.609026
 20
-467.000000
 11
-95.609026
 21
-437.000000
  0
LINE
  8
A-GLAZ-2
 10
-95.609026
 20
-437.000000
 11
-96.984026
 21
-437.000000
  0
ARC
  8
A-GLAZ-2
 10
-96.984026
 20
-437.000000
 40
30.000000
 50
270.000000
 51
0.000000
  0
LINE
  8
A-GLAZ-2
 10
-36.984026
 20
-437.000000
 11
-36.984026
 21
-467.000000
  0
LINE
  8
A-GLAZ-2
 10
-38.359026
 20
-467.000000
 11
-38.359026
 21
-437.000000
  0
LINE
  8
A-GLAZ-2
 10
-38.359026
 20
-437.000000
 11
-36.984026
 21
-437.000000
  0
ARC
  8
A-GLAZ-2
 10
-36.984026
 20
-437.000000
 40
30.000000
 50
180.000000
 51
270.000000
  0
TEXT
  8
A-DIMS-2
 10
-76.424437
 20
-437.622337
 40
5.487240
  1
5068
  7
STANDARD
  0
LINE
  8
A-WALL-2
 10
-15.000000
 20
-468.000000
 11
-32.000000
 21
-468.000000
  0
LINE
  8
A-WALL-2
 10
-36.000000
 20
-472.000000
 11
-15.000000
 21
-472.000000
  0
LINE
  8
A-WALL-2
 10
38.000000
 20
-468.000000
 11
21.000000
 21
-468.000000
  0
LINE
  8
A-WALL-2
 10
58.000000
 20
-468.000000
 11
42.000000
 21
-468.000000
  0
LINE
  8
A-WALL-2
 10
21.000000
 20
-472.000000
 11
54.000000
 21
-472.000000
  0
LINE
  8
A-GLAZ-2
 10
-15.000000
 20
-468.000000
 11
-15.000000
 21
-472.000000
  0
LINE
  8
A-GLAZ-2
 10
21.000000
 20
-468.000000
 11
21.000000
 21
-472.000000
  0
LINE
  8
A-GLAZ-2
 10
21.000000
 20
-472.000000
 11
21.000000
 21
-508.000000
  0
LINE
  8
A-GLAZ-2
 10
19.625000
 20
-508.000000
 11
19.625000
 21
-472.000000
  0
LINE
  8
A-GLAZ-2
 10
19.625000
 20
-472.000000
 11
21.000000
 21
-472.000000
  0
ARC
  8
A-GLAZ-2
 10
21.000000
 20
-472.000000
 40
36.000000
 50
180.000000
 51
270.000000
  0
TEXT
  8
A-DIMS-2
 10
-6.440412
 20
-472.622337
 40
5.487240
  1
3068
  7
STANDARD
  0
LINE
  8
A-WALL-2
 10
42.000000
 20
-390.075684
 11
42.000000
 21
-378.000000
  0
LINE
  8
A-WALL-2
 10
42.000000
 20
-408.000000
 11
42.000000
 21
-394.075684
  0
LINE
  8
A-WALL-2
 10
38.000000
 20
-382.000000
 11
38.000000
 21
-406.000000
  0
LINE
  8
A-WALL-2
 10
42.000000
 20
-422.241241
 11
58.146046
 21
-422.241241
  0
LINE
  8
A-WALL-2
 10
54.146046
 20
-418.241241
 11
42.000000
 21
-418.241241
  0
LINE
  8
A-WALL-2
 10
-98.000000
 20
-339.000000
 11
-98.000000
 21
-259.000000
  0
LINE
  8
A-WALL-2
 10
-102.000000
 20
-259.000000
 11
-102.000000
 21
-339.000000
  0
LINE
  8
A-WALL-2
 10
-98.000000
 20
-433.000000
 11
-98.000000
 21
-403.000000
  0
LINE
  8
A-WALL-2
 10
-98.000000
 20
-472.000000
 11
-98.000000
 21
-437.000000
  0
LINE
  8
A-WALL-2
 10
-102.000000
 20
-403.000000
 11
-102.000000
 21
-468.000000
  0
LINE
  8
A-GLAZ-2
 10
-98.000000
 20
-339.000000
 11
-102.000000
 21
-339.000000
  0
LINE
  8
A-GLAZ-2
 10
-98.000000
 20
-403.000000
 11
-102.000000
 21
-403.000000
  0
TEXT
  8
A-DIMS-2
 10
-97.377663
 20
-380.440412
 40
5.487240
  1
5476
 50
90.000000
  7
STANDARD
  0
LINE
  8
A-WALL-2
 10
-102.000000
 20
-468.000000
 11
-270.000000
 21
-468.000000
  0
LINE
  8
A-WALL-2
 10
-268.000000
 20
-472.000000
 11
-98.000000
 21
-472.000000
  0
LINE
  8
A-WALL-2
 10
226.000000
 20
-349.000000
 11
156.000000
 21
-349.000000
  0
LINE
  8
A-WALL-2
 10
160.000000
 20
-353.000000
 11
226.000000
 21
-353.000000
  0
LINE
  8
A-WALL-2
 10
-170.000000
 20
-515.000000
 11
-174.000000
 21
-515.000000
  0
LINE
  8
A-WALL-2
 10
-170.000000
 20
-603.000000
 11
-170.000000
 21
-515.000000
  0
LINE
  8
A-WALL-2
 10
-174.000000
 20
-515.000000
 11
-174.000000
 21
-603.000000
  0
LINE
  8
A-WALL-2
 10
14.000000
 20
-629.935120
 11
14.000000
 21
-595.000000
  0
LINE
  8
A-WALL-2
 10
10.000000
 20
-581.935120
 11
10.000000
 21
-625.935120
  0
LINE
  8
A-WALL-2
 10
14.000000
 20
-591.000000
 11
14.000000
 21
-581.935120
  0
LINE
  8
A-WALL-2
 10
10.000000
 20
-546.000000
 11
10.000000
 21
-549.935120
  0
LINE
  8
A-WALL-2
 10
10.000000
 20
-524.045959
 11
10.000000
 21
-542.000000
  0
LINE
  8
A-WALL-2
 10
14.000000
 20
-549.935120
 11
14.000000
 21
-520.045959
  0
LINE
  8
A-GLAZ-2
 10
10.000000
 20
-581.935114
 11
14.000000
 21
-581.935114
  0
LINE
  8
A-GLAZ-2
 10
10.000000
 20
-549.935114
 11
14.000000
 21
-549.935114
  0
LINE
  8
A-GLAZ-2
 10
10.000000
 20
-549.935114
 11
-22.000000
 21
-549.935114
  0
LINE
  8
A-GLAZ-2
 10
-22.000000
 20
-551.310114
 11
10.000000
 21
-551.310114
  0
LINE
  8
A-GLAZ-2
 10
10.000000
 20
-551.310114
 11
10.000000
 21
-549.935114
  0
ARC
  8
A-GLAZ-2
 10
10.000000
 20
-549.935114
 40
32.000000
 50
180.000000
 51
270.000000
  0
TEXT
  8
A-DIMS-2
 10
14.622337
 20
-575.375526
 40
5.487240
  1
2868
 50
90.000000
  7
STANDARD
  0
LINE
  8
A-WALL-2
 10
6.000000
 20
-524.045959
 11
10.000000
 21
-524.045959
  0
LINE
  8
A-WALL-2
 10
14.000000
 20
-520.045959
 11
6.000000
 21
-520.045959
  0
LINE
  8
A-WALL-2
 10
-50.409515
 20
-524.045959
 11
-46.000000
 21
-524.045959
  0
LINE
  8
A-WALL-2
 10
-83.500000
 20
-524.045959
 11
-54.409515
 21
-524.045959
  0
LINE
  8
A-WALL-2
 10
-46.000000
 20
-520.045959
 11
-83.500000
 21
-520.045959
  0
LINE
  8
A-WALL-2
 10
-118.000000
 20
-524.045959
 11
-113.500000
 21
-524.045959
  0
LINE
  8
A-WALL-2
 10
-113.500000
 20
-520.045959
 11
-122.000000
 21
-520.045959
  0
LINE
  8
A-GLAZ-2
 10
6.000000
 20
-524.045982
 11
6.000000
 21
-520.045982
  0
LINE
  8
A-GLAZ-2
 10
-46.000000
 20
-524.045982
 11
-46.000000
 21
-520.045982
  0
LINE
  8
A-GLAZ-2
 10
6.000000
 20
-522.045982
 11
-3.192388
 21
-512.853594
  0
LINE
  8
A-GLAZ-2
 10
-3.192388
 20
-512.853594
 11
-4.164660
 21
-513.825866
  0
LINE
  8
A-GLAZ-2
 10
-4.164660
 20
-513.825866
 11
5.027728
 21
-523.018254
  0
LINE
  8
A-GLAZ-2
 10
5.027728
 20
-523.018254
 11
6.000000
 21
-522.045982
  0
LINE
  8
A-GLAZ-2
 10
-4.164660
 20
-513.825866
 11
-13.357048
 21
-523.018254
  0
LINE
  8
A-GLAZ-2
 10
-13.357048
 20
-523.018254
 11
-14.329320
 21
-522.045982
  0
LINE
  8
A-GLAZ-2
 10
-14.329320
 20
-522.045982
 11
-5.136932
 21
-512.853594
  0
LINE
  8
A-GLAZ-2
 10
-5.136932
 20
-512.853594
 11
-4.164660
 21
-513.825866
  0
LINE
  8
A-GLAZ-2
 10
-46.000000
 20
-522.045982
 11
-36.807612
 21
-512.853594
  0
LINE
  8
A-GLAZ-2
 10
-36.807612
 20
-512.853594
 11
-35.835340
 21
-513.825866
  0
LINE
  8
A-GLAZ-2
 10
-35.835340
 20
-513.825866
 11
-45.027728
 21
-523.018254
  0
LINE
  8
A-GLAZ-2
 10
-45.027728
 20
-523.018254
 11
-46.000000
 21
-522.045982
  0
LINE
  8
A-GLAZ-2
 10
-35.835340
 20
-513.825866
 11
-26.642952
 21
-523.018254
  0
LINE
  8
A-GLAZ-2
 10
-26.642952
 20
-523.018254
 11
-25.670680
 21
-522.045982
  0
LINE
  8
A-GLAZ-2
 10
-25.670680
 20
-522.045982
 11
-34.863068
 21
-512.853594
  0
LINE
  8
A-GLAZ-2
 10
-34.863068
 20
-512.853594
 11
-35.835340
 21
-513.825866
  0
TEXT
  8
A-DIMS-2
 10
-29.440412
 20
-524.668319
 40
5.487240
  1
4468
  7
STANDARD
  0
LINE
  8
A-GLAZ-2
 10
-83.500000
 20
-524.045982
 11
-83.500000
 21
-520.045982
  0
LINE
  8
A-GLAZ-2
 10
-113.500000
 20
-524.045982
 11
-113.500000
 21
-520.045982
  0
LINE
  8
A-GLAZ-2
 10
-113.500000
 20
-524.045982
 11
-113.500000
 21
-554.045982
  0
LINE
  8
A-GLAZ-2
 10
-112.125000
 20
-554.045982
 11
-112.125000
 21
-524.045982
  0
LINE
  8
A-GLAZ-2
 10
-112.125000
 20
-524.045982
 11
-113.500000
 21
-524.045982
  0
ARC
  8
A-GLAZ-2
 10
-113.500000
 20
-524.045982
 40
30.000000
 50
270.000000
 51
0.000000
  0
TEXT
  8
A-DIMS-2
 10
-107.940412
 20
-524.668319
 40
5.487240
  1
2668
  7
STANDARD
  0
LINE
  8
A-WALL-2
 10
-122.000000
 20
-520.045959
 11
-122.000000
 21
-603.000000
  0
LINE
  8
A-WALL-2
 10
-118.000000
 20
-625.935120
 11
-118.000000
 21
-524.045959
  0
LINE
  8
A-WALL-2
 10
-122.000000
 20
-607.000000
 11
-122.000000
 21
-629.935120
  0
LINE
  8
A-WALL-2
 10
54.000000
 20
-614.000000
 11
158.000000
 21
-614.000000
  0
LINE
  8
A-WALL-2
 10
167.000000
 20
-610.000000
 11
58.000000
 21
-610.000000
  0
LINE
  8
A-WALL-2
 10
162.000000
 20
-614.000000
 11
167.000000
 21
-614.000000
  0
LINE
  8
A-WALL-2
 10
226.000000
 20
-610.000000
 11
197.000000
 21
-610.000000
  0
LINE
  8
A-WALL-2
 10
197.000000
 20
-614.000000
 11
226.000000
 21
-614.000000
  0
LINE
  8
A-GLAZ-2
 10
167.000000
 20
-610.000000
 11
167.000000
 21
-614.000000
  0
LINE
  8
A-GLAZ-2
 10
197.000000
 20
-610.000000
 11
197.000000
 21
-614.000000
  0
LINE
  8
A-GLAZ-2
 10
167.000000
 20
-614.000000
 11
167.000000
 21
-644.000000
  0
LINE
  8
A-GLAZ-2
 10
168.375000
 20
-644.000000
 11
168.375000
 21
-614.000000
  0
LINE
  8
A-GLAZ-2
 10
168.375000
 20
-614.000000
 11
167.000000
 21
-614.000000
  0
ARC
  8
A-GLAZ-2
 10
167.000000
 20
-614.000000
 40
30.000000
 50
270.000000
 51
0.000000
  0
TEXT
  8
A-DIMS-2
 10
172.559588
 20
-614.622337
 40
5.487240
  1
2668
  7
STANDARD
  0
LINE
  8
A-WALL-2
 10
-38.000000
 20
-699.000000
 11
-38.000000
 21
-629.935120
  0
LINE
  8
A-WALL-2
 10
-38.000000
 20
-708.935120
 11
-38.000000
 21
-703.000000
  0
LINE
  8
A-WALL-2
 10
-42.000000
 20
-629.935120
 11
-42.000000
 21
-708.935120
  0
LINE
  8
A-WALL-2
 10
-38.000000
 20
-771.000000
 11
-38.000000
 21
-764.935120
  0
LINE
  8
A-WALL-2
 10
-42.000000
 20
-764.935120
 11
-42.000000
 21
-771.000000
  0
LINE
  8
A-GLAZ-2
 10
-38.000000
 20
-708.935114
 11
-42.000000
 21
-708.935114
  0
LINE
  8
A-GLAZ-2
 10
-38.000000
 20
-764.935114
 11
-42.000000
 21
-764.935114
  0
LINE
  8
A-GLAZ-2
 10
-42.000000
 20
-708.935114
 11
-70.000000
 21
-708.935114
  0
LINE
  8
A-GLAZ-2
 10
-70.000000
 20
-710.310114
 11
-42.000000
 21
-710.310114
  0
LINE
  8
A-GLAZ-2
 10
-42.000000
 20
-710.310114
 11
-42.000000
 21
-708.935114
  0
ARC
  8
A-GLAZ-2
 10
-42.000000
 20
-708.935114
 40
28.000000
 50
180.000000
 51
270.000000
  0
LINE
  8
A-GLAZ-2
 10
-42.000000
 20
-764.935114
 11
-70.000000
 21
-764.935114
  0
LINE
  8
A-GLAZ-2
 10
-70.000000
 20
-763.560114
 11
-42.000000
 21
-763.560114
  0
LINE
  8
A-GLAZ-2
 10
-42.000000
 20
-763.560114
 11
-42.000000
 21
-764.935114
  0
ARC
  8
A-GLAZ-2
 10
-42.000000
 20
-764.935114
 40
28.000000
 50
90.000000
 51
180.000000
  0
TEXT
  8
A-DIMS-2
 10
-37.377663
 20
-746.375526
 40
5.487240
  1
4868
 50
90.000000
  7
STANDARD
  0
LINE
  8
A-WALL-2
 10
-14.000000
 20
-699.000000
 11
-38.000000
 21
-699.000000
  0
LINE
  8
A-WALL-2
 10
-38.000000
 20
-703.000000
 11
-14.000000
 21
-703.000000
  0
LINE
  8
A-WALL-2
  6
DOTTED
 10
-174.000000
 20
-515.000000
 11
-170.000000
 21
-515.000000
  0
LINE
  8
A-WALL-2
  6
DOTTED
 10
-170.000000
 20
-515.000000
 11
-170.000000
 21
-472.000000
  0
LINE
  8
A-WALL-2
  6
DOTTED
 10
-174.000000
 20
-472.000000
 11
-174.000000
 21
-515.000000
  0
LINE
  8
A-WALL-2
 10
-200.000000
 20
-771.000000
 11
-200.000000
 21
-607.000000
  0
LINE
  8
A-WALL-2
 10
-204.000000
 20
-609.000000
 11
-204.000000
 21
-775.000000
  0
LINE
  8
A-WALL-2
 10
18.959486
 20
-591.000000
 11
14.000000
 21
-591.000000
  0
LINE
  8
A-WALL-2
 10
14.000000
 20
-595.000000
 11
18.959486
 21
-595.000000
  0
LINE
  8
A-WALL-2
 10
54.000000
 20
-591.000000
 11
48.959484
 21
-591.000000
  0
LINE
  8
A-WALL-2
 10
48.959484
 20
-595.000000
 11
54.000000
 21
-595.000000
  0
LINE
  8
A-GLAZ-2
 10
18.959486
 20
-591.000000
 11
18.959486
 21
-595.000000
  0
LINE
  8
A-GLAZ-2
 10
48.959486
 20
-591.000000
 11
48.959486
 21
-595.000000
  0
LINE
  8
A-GLAZ-2
 10
18.959486
 20
-595.000000
 11
18.959486
 21
-625.000000
  0
LINE
  8
A-GLAZ-2
 10
20.334486
 20
-625.000000
 11
20.334486
 21
-595.000000
  0
LINE
  8
A-GLAZ-2
 10
20.334486
 20
-595.000000
 11
18.959486
 21
-595.000000
  0
ARC
  8
A-GLAZ-2
 10
18.959486
 20
-595.000000
 40
30.000000
 50
270.000000
 51
0.000000
  0
TEXT
  8
A-DIMS-2
 10
24.519074
 20
-595.622337
 40
5.487240
  1
2668
  7
STANDARD
  0
LINE
  8
A-WALL-2
 10
10.000000
 20
-542.000000
 11
-50.409515
 21
-542.000000
  0
LINE
  8
A-WALL-2
 10
-50.409515
 20
-546.000000
 11
10.000000
 21
-546.000000
  0
LINE
  8
A-WALL-2
 10
42.000000
 20
-418.241241
 11
42.000000
 21
-408.000000
  0
LINE
  8
A-WALL-2
 10
42.000000
 20
-468.000000
 11
42.000000
 21
-422.241241
  0
LINE
  8
A-WALL-2
 10
38.000000
 20
-410.000000
 11
38.000000
 21
-468.000000
  0
LINE
  8
A-WALL-2
 10
-36.000000
 20
-437.000000
 11
-36.000000
 21
-472.000000
  0
LINE
  8
A-WALL-2
 10
-36.000000
 20
-408.000000
 11
-36.000000
 21
-433.000000
  0
LINE
  8
A-WALL-2
 10
-32.000000
 20
-468.000000
 11
-32.000000
 21
-410.000000
  0
LINE
  8
A-WALL-2
 10
58.146046
 20
-422.241241
 11
58.146046
 21
-394.075684
  0
LINE
  8
A-WALL-2
 10
54.146046
 20
-394.075684
 11
54.146046
 21
-418.241241
  0
LINE
  8
A-WALL-2
 10
42.000000
 20
-394.075684
 11
54.146046
 21
-394.075684
  0
LINE
  8
A-WALL-2
 10
60.883793
 20
-390.075684
 11
42.000000
 21
-390.075684
  0
LINE
  8
A-WALL-2
 10
58.146046
 20
-394.075684
 11
60.883793
 21
-394.075684
  0
LINE
  8
A-WALL-2
 10
94.000000
 20
-390.075684
 11
90.883797
 21
-390.075684
  0
LINE
  8
A-WALL-2
 10
156.000000
 20
-390.075684
 11
98.000000
 21
-390.075684
  0
LINE
  8
A-WALL-2
 10
90.883797
 20
-394.075684
 11
156.000000
 21
-394.075684
  0
LINE
  8
A-GLAZ-2
 10
60.883794
 20
-390.075691
 11
60.883794
 21
-394.075691
  0
LINE
  8
A-GLAZ-2
 10
90.883794
 20
-390.075691
 11
90.883794
 21
-394.075691
  0
LINE
  8
A-GLAZ-2
 10
60.883794
 20
-394.075691
 11
60.883794
 21
-424.075691
  0
LINE
  8
A-GLAZ-2
 10
62.258794
 20
-424.075691
 11
62.258794
 21
-394.075691
  0
LINE
  8
A-GLAZ-2
 10
62.258794
 20
-394.075691
 11
60.883794
 21
-394.075691
  0
ARC
  8
A-GLAZ-2
 10
60.883794
 20
-394.075691
 40
30.000000
 50
270.000000
 51
0.000000
  0
TEXT
  8
A-DIMS-2
 10
66.443383
 20
-394.698028
 40
5.487240
  1
2668
  7
STANDARD
  0
LINE
  8
A-WALL-2
 10
-268.000000
 20
-603.000000
 11
-268.000000
 21
-472.000000
  0
LINE
  8
A-WALL-2
 10
-274.000000
 20
-470.000000
 11
-274.000000
 21
-609.000000
  0
LINE
  8
A-WALL-2
 10
-159.889130
 20
-603.000000
 11
-202.000000
 21
-603.000000
  0
LINE
  8
A-WALL-2
 10
-200.000000
 20
-607.000000
 11
-159.889130
 21
-607.000000
  0
LINE
  8
A-WALL-2
 10
-122.000000
 20
-603.000000
 11
-129.889130
 21
-603.000000
  0
LINE
  8
A-WALL-2
 10
-129.889130
 20
-607.000000
 11
-122.000000
 21
-607.000000
  0
LINE
  8
A-GLAZ-2
 10
-159.889132
 20
-603.000000
 11
-159.889132
 21
-607.000000
  0
LINE
  8
A-GLAZ-2
 10
-129.889132
 20
-603.000000
 11
-129.889132
 21
-607.000000
  0
LINE
  8
A-GLAZ-2
 10
-129.889132
 20
-607.000000
 11
-129.889132
 21
-637.000000
  0
LINE
  8
A-GLAZ-2
 10
-131.264132
 20
-637.000000
 11
-131.264132
 21
-607.000000
  0
LINE
  8
A-GLAZ-2
 10
-131.264132
 20
-607.000000
 11
-129.889132
 21
-607.000000
  0
ARC
  8
A-GLAZ-2
 10
-129.889132
 20
-607.000000
 40
30.000000
 50
180.000000
 51
270.000000
  0
TEXT
  8
A-DIMS-2
 10
-154.329543
 20
-607.622337
 40
5.487240
  1
2668
  7
STANDARD
  0
LINE
  8
A-WALL-2
 10
-50.409515
 20
-625.935120
 11
-50.409515
 21
-546.000000
  0
LINE
  8
A-WALL-2
 10
-54.409515
 20
-524.045959
 11
-54.409515
 21
-625.935120
  0
LINE
  8
A-WALL-2
 10
-50.409515
 20
-542.000000
 11
-50.409515
 21
-524.045959
  0
LINE
  8
A-WALL-2
  6
DOTTED
 10
-42.000000
 20
-309.000000
 11
-42.000000
 21
-265.000000
  0
LINE
  8
A-WALL-2
  6
DOTTED
 10
-44.000000
 20
-263.000000
 11
-44.000000
 21
-311.000000
  0
LINE
  8
A-WALL-2
  6
DOTTED
 10
-24.000000
 20
-309.000000
 11
-42.000000
 21
-309.000000
  0
LINE
  8
A-WALL-2
  6
DOTTED
 10
-44.000000
 20
-311.000000
 11
-22.000000
 21
-311.000000
  0
LINE
  8
A-WALL-2
  6
DOTTED
 10
-24.000000
 20
-265.000000
 11
-24.000000
 21
-309.000000
  0
LINE
  8
A-WALL-2
  6
DOTTED
 10
-22.000000
 20
-311.000000
 11
-22.000000
 21
-263.000000
  0
LINE
  8
A-WALL-2
  6
DOTTED
 10
-42.000000
 20
-265.000000
 11
-24.000000
 21
-265.000000
  0
LINE
  8
A-WALL-2
  6
DOTTED
 10
-22.000000
 20
-263.000000
 11
-44.000000
 21
-263.000000
  0
LINE
  8
A-WALL-2
  6
DOTTED
 10
-16.000000
 20
-309.000000
 11
-16.000000
 21
-265.000000
  0
LINE
  8
A-WALL-2
  6
DOTTED
 10
-18.000000
 20
-263.000000
 11
-18.000000
 21
-311.000000
  0
LINE
  8
A-WALL-2
  6
DOTTED
 10
2.000000
 20
-309.000000
 11
-16.000000
 21
-309.000000
  0
LINE
  8
A-WALL-2
  6
DOTTED
 10
-18.000000
 20
-311.000000
 11
4.000000
 21
-311.000000
  0
LINE
  8
A-WALL-2
  6
DOTTED
 10
2.000000
 20
-265.000000
 11
2.000000
 21
-309.000000
  0
LINE
  8
A-WALL-2
  6
DOTTED
 10
4.000000
 20
-311.000000
 11
4.000000
 21
-263.000000
  0
LINE
  8
A-WALL-2
  6
DOTTED
 10
-16.000000
 20
-265.000000
 11
2.000000
 21
-265.000000
  0
LINE
  8
A-WALL-2
  6
DOTTED
 10
4.000000
 20
-263.000000
 11
-18.000000
 21
-263.000000
  0
LINE
  8
A-POWR-2
 10
-120.800911
 20
-687.339274
 11
-120.800911
 21
-685.005941
  0
LINE
  8
A-POWR-2
 10
-120.800911
 20
-694.005941
 11
-120.800911
 21
-696.339274
  0
LINE
  8
A-POWR-2
 10
-124.134244
 20
-690.672607
 11
-126.467578
 21
-690.672607
  0
LINE
  8
A-POWR-2
 10
-117.467578
 20
-690.672607
 11
-115.134244
 21
-690.672607
  0
CIRCLE
  8
A-POWR-2
 10
-120.800911
 20
-690.672607
 40
3.333333
  0
INSERT
  8
A-POWR-2
  2
FIXT-RLiteFan
 10
-85.635193
 20
-588.515253
 41
1.000000
 42
1.000000
 43
 1.0
 50
0.000000
  0
INSERT
  8
A-POWR-2
  2
FIXT-RecLight
 10
-98.073776
 20
-508.677936
 41
1.000000
 42
1.000000
 43
 1.0
 50
0.000000
  0
ARC
  8
A-POWR-2
 10
-82.171915
 20
-556.322565
 40
63.154542
 50
110.932868
 51
169.309745
  0
INSERT
  8
A-POWR-2
  2
FIXT-RecLight
 10
-18.808298
 20
-507.946246
 41
1.000000
 42
1.000000
 43
 1.0
 50
0.000000
  0
ARC
  8
A-POWR-2
 10
-57.928855
 20
-550.322779
 40
68.189647
 50
60.840939
 51
120.216811
  0
INSERT
  8
A-POWR-2
  2
FIXT-RecLight
 10
34.360546
 20
-564.041797
 41
1.000000
 42
1.000000
 43
 1.0
 50
0.000000
  0
ARC
  8
A-POWR-2
 10
-31.490761
 20
-559.737066
 40
66.486775
 50
13.937660
 51
72.993677
  0
INSERT
  8
A-POWR-2
  2
FIXT-RecLight
 10
-145.145279
 20
-565.017383
 41
1.000000
 42
1.000000
 43
 1.0
 50
0.000000
  0
INSERT
  8
A-POWR-2
  2
FIXT-RLiteFan
 10
192.647614
 20
-718.022821
 41
1.000000
 42
1.000000
 43
 1.0
 50
0.000000
  0
INSERT
  8
A-POWR-2
  2
FIXT-RecLight
 10
76.554169
 20
-306.733875
 41
1.000000
 42
1.000000
 43
 1.0
 50
0.000000
  0
INSERT
  8
A-POWR-2
  2
FIXT-RecLight
 10
204.110611
 20
-334.049976
 41
1.000000
 42
1.000000
 43
 1.0
 50
0.000000
  0
ARC
  8
A-POWR-2
 10
175.038492
 20
-299.551196
 40
35.877308
 50
335.902861
 51
23.427013
  0
INSERT
  8
A-POWR-2
  2
FIXT-RecLight
 10
204.354507
 20
-292.344165
 41
1.000000
 42
1.000000
 43
 1.0
 50
0.000000
  0
INSERT
  8
A-POWR-2
  2
FIXT-CeilFan
 10
-184.412170
 20
-363.272858
 41
1.000000
 42
1.000000
 43
 1.0
 50
0.000000
  0
INSERT
  8
A-POWR-2
  2
FIXT-RecLight
 10
-67.587051
 20
-431.119708
 41
1.000000
 42
1.000000
 43
 1.0
 50
0.000000
  0
INSERT
  8
A-POWR-2
  2
FIXT-RecLight
 10
-151.730408
 20
-320.635822
 41
1.000000
 42
1.000000
 43
 1.0
 50
0.000000
  0
ARC
  8
A-POWR-2
 10
-186.241371
 20
-357.280858
 40
60.852603
 50
62.057129
 51
119.918414
  0
INSERT
  8
A-POWR-2
  2
FIXT-RecLight
 10
-150.267044
 20
-431.851398
 41
1.000000
 42
1.000000
 43
 1.0
 50
0.000000
  0
ARC
  8
A-POWR-2
 10
-228.849629
 20
-363.792818
 40
95.679537
 50
329.306642
 51
32.201056
  0
INSERT
  8
A-POWR-2
  2
FIXT-RecLight
 10
-224.898544
 20
-432.826984
 41
1.000000
 42
1.000000
 43
 1.0
 50
0.000000
  0
ARC
  8
A-POWR-2
 10
-188.265704
 20
-366.621994
 40
64.205929
 50
241.449295
 51
300.048565
  0
INSERT
  8
A-POWR-2
  2
FIXT-RecLight
 10
-222.459610
 20
-321.855304
 41
1.000000
 42
1.000000
 43
 1.0
 50
0.000000
  0
INSERT
  8
A-POWR-2
  2
FIXT-RecExFan
 10
116.308853
 20
-318.568591
 41
1.000000
 42
1.000000
 43
 1.0
 50
0.000000
  0
INSERT
  8
A-POWR-2
  2
FIXT-RLiteFan
 10
193.379288
 20
-394.619684
 41
1.000000
 42
1.000000
 43
 1.0
 50
0.000000
  0
LINE
  8
A-POWR-2
 10
-220.430939
 20
-533.704447
 11
-220.430939
 21
-531.371114
  0
LINE
  8
A-POWR-2
 10
-220.430939
 20
-540.371114
 11
-220.430939
 21
-542.704447
  0
LINE
  8
A-POWR-2
 10
-223.764272
 20
-537.037781
 11
-226.097605
 21
-537.037781
  0
LINE
  8
A-POWR-2
 10
-217.097605
 20
-537.037781
 11
-214.764272
 21
-537.037781
  0
CIRCLE
  8
A-POWR-2
 10
-220.430939
 20
-537.037781
 40
3.333333
  0
INSERT
  8
A-POWR-2
  2
FIXT-RecLight
 10
15.246532
 20
-335.164569
 41
1.000000
 42
1.000000
 43
 1.0
 50
0.000000
  0
ARC
  8
A-POWR-2
 10
75.070295
 20
-306.313348
 40
61.768165
 50
200.916368
 51
258.987636
  0
INSERT
  8
A-POWR-2
  2
FIXT-RecLight
 10
-56.344749
 20
-334.462695
 41
1.000000
 42
1.000000
 43
 1.0
 50
0.000000
  0
ARC
  8
A-POWR-2
 10
-20.057797
 20
-271.224588
 40
61.588109
 50
240.423047
 51
298.453545
  0
INSERT
  8
A-POWR-2
  2
FIXT-RecLight
 10
70.212929
 20
-381.365375
 41
1.000000
 42
1.000000
 43
 1.0
 50
0.000000
  0
LINE
  8
A-POWR-2
 10
142.106873
 20
-540.786296
 11
142.106873
 21
-538.452962
  0
LINE
  8
A-POWR-2
 10
142.106873
 20
-547.452962
 11
142.106873
 21
-549.786296
  0
LINE
  8
A-POWR-2
 10
138.773539
 20
-544.119629
 11
136.440206
 21
-544.119629
  0
LINE
  8
A-POWR-2
 10
145.440206
 20
-544.119629
 11
147.773539
 21
-544.119629
  0
CIRCLE
  8
A-POWR-2
 10
142.106873
 20
-544.119629
 40
3.333333
  0
LINE
  8
A-POWR-2
 10
74.250412
 20
-682.607646
 11
74.250412
 21
-680.274312
  0
LINE
  8
A-POWR-2
 10
74.250412
 20
-689.274312
 11
74.250412
 21
-691.607646
  0
LINE
  8
A-POWR-2
 10
70.917079
 20
-685.940979
 11
68.583745
 21
-685.940979
  0
LINE
  8
A-POWR-2
 10
77.583745
 20
-685.940979
 11
79.917079
 21
-685.940979
  0
CIRCLE
  8
A-POWR-2
 10
74.250412
 20
-685.940979
 40
3.333333
  0
INSERT
  8
A-POWR-2
  2
FIXT-RecLight
 10
79.216301
 20
-447.706500
 41
1.000000
 42
1.000000
 43
 1.0
 50
0.000000
  0
ARC
  8
A-POWR-2
 10
68.366959
 20
-410.216719
 40
26.351678
 50
311.010157
 51
5.387877
  0
INSERT
  8
A-POWR-2
  2
FIXT-RecLight
 10
129.040527
 20
-447.355640
 41
1.000000
 42
1.000000
 43
 1.0
 50
0.000000
  0
ARC
  8
A-POWR-2
 10
104.374017
 20
-468.932882
 40
42.861483
 50
64.534091
 51
116.272846
  0
LINE
  8
A-POWR-2
 10
-19.783873
 20
-578.207865
 11
-19.783873
 21
-575.874532
  0
LINE
  8
A-POWR-2
 10
-19.783873
 20
-584.874532
 11
-19.783873
 21
-587.207865
  0
LINE
  8
A-POWR-2
 10
-23.117206
 20
-581.541199
 11
-25.450539
 21
-581.541199
  0
LINE
  8
A-POWR-2
 10
-16.450539
 20
-581.541199
 11
-14.117206
 21
-581.541199
  0
CIRCLE
  8
A-POWR-2
 10
-19.783873
 20
-581.541199
 40
3.333333
  0
ARC
  8
A-POWR-2
 10
-8.139971
 20
-572.820082
 40
14.547794
 50
250.165715
 51
287.908044
  0
LINE
  8
A-POWR-2
 10
193.379288
 20
-445.041850
 11
193.379288
 21
-442.708516
  0
LINE
  8
A-POWR-2
 10
193.379288
 20
-451.708516
 11
193.379288
 21
-454.041850
  0
LINE
  8
A-POWR-2
 10
190.045954
 20
-448.375183
 11
187.712621
 21
-448.375183
  0
LINE
  8
A-POWR-2
 10
196.712621
 20
-448.375183
 11
199.045954
 21
-448.375183
  0
CIRCLE
  8
A-POWR-2
 10
193.379288
 20
-448.375183
 40
3.333333
  0
INSERT
  8
A-POWR-2
  2
FIXT-RecLight
 10
128.338776
 20
-356.128162
 41
1.000000
 42
1.000000
 43
 1.0
 50
0.000000
  0
ARC
  8
A-POWR-2
 10
95.405705
 20
-285.179519
 40
66.240395
 50
305.846810
 51
10.888633
  0
INSERT
  8
A-POWR-2
  2
FIXT-DualSpot
 10
225.625885
 20
-238.000000
 41
1.000000
 42
1.000000
 43
 1.0
 50
-180.000000
  0
INSERT
  8
A-POWR-2
  2
FIXT-DualSpot
 10
-257.159166
 20
-238.000000
 41
1.000000
 42
1.000000
 43
 1.0
 50
-180.000000
  0
ARC
  8
A-POWR-2
 10
-15.766641
 20
-579.282869
 40
415.307404
 50
54.462322
 51
125.537678
  0
LINE
  8
A-POWR-2
 10
160.453522
 20
-261.333333
 11
160.453522
 21
-259.000000
  0
LINE
  8
A-POWR-2
 10
160.453522
 20
-268.000000
 11
160.453522
 21
-270.333333
  0
LINE
  8
A-POWR-2
 10
163.786855
 20
-264.666667
 11
166.120188
 21
-264.666667
  0
LINE
  8
A-POWR-2
 10
157.120188
 20
-264.666667
 11
154.786855
 21
-264.666667
  0
CIRCLE
  8
A-POWR-2
 10
160.453522
 20
-264.666667
 40
3.333333
  0
ARC
  8
A-POWR-2
 10
139.844498
 20
-243.814033
 40
35.457106
 50
234.462322
 51
305.537678
  0
LINE
  8
A-POWR-2
 10
119.235474
 20
-261.333333
 11
119.235474
 21
-259.000000
  0
LINE
  8
A-POWR-2
 10
119.235474
 20
-268.000000
 11
119.235474
 21
-270.333333
  0
LINE
  8
A-POWR-2
 10
122.568807
 20
-264.666667
 11
124.902140
 21
-264.666667
  0
LINE
  8
A-POWR-2
 10
115.902140
 20
-264.666667
 11
113.568807
 21
-264.666667
  0
CIRCLE
  8
A-POWR-2
 10
119.235474
 20
-264.666667
 40
3.333333
  0
LINE
  8
A-POWR-2
 10
223.666667
 20
-650.563232
 11
226.000000
 21
-650.563232
  0
LINE
  8
A-POWR-2
 10
217.000000
 20
-650.563232
 11
214.666667
 21
-650.563232
  0
LINE
  8
A-POWR-2
 10
220.333333
 20
-653.896566
 11
220.333333
 21
-656.229899
  0
LINE
  8
A-POWR-2
 10
220.333333
 20
-647.229899
 11
220.333333
 21
-644.896566
  0
CIRCLE
  8
A-POWR-2
 10
220.333333
 20
-650.563232
 40
3.333333
  0
CIRCLE
  8
A-POWR-2
 10
-264.333333
 20
-406.425552
 40
3.333333
  0
LINE
  8
A-POWR-2
 10
-270.000000
 20
-404.425552
 11
-261.900000
 21
-404.425552
  0
LINE
  8
A-POWR-2
 10
-270.000000
 20
-408.425552
 11
-261.900000
 21
-408.425552
  0
CIRCLE
  8
A-POWR-2
 10
-264.333333
 20
-319.843262
 40
3.333333
  0
LINE
  8
A-POWR-2
 10
-270.000000
 20
-317.843262
 11
-261.900000
 21
-317.843262
  0
LINE
  8
A-POWR-2
 10
-270.000000
 20
-321.843262
 11
-261.900000
 21
-321.843262
  0
CIRCLE
  8
A-POWR-2
 10
26.584961
 20
-752.333333
 40
3.333333
  0
LINE
  8
A-POWR-2
 10
28.584961
 20
-758.000000
 11
28.584961
 21
-749.900000
  0
LINE
  8
A-POWR-2
 10
24.584961
 20
-758.000000
 11
24.584961
 21
-749.900000
  0
LINE
  8
A-POWR-2
 10
187.281845
 20
-474.000000
 11
187.281845
 21
-462.666667
  0
LINE
  8
A-POWR-2
 10
186.281845
 20
-468.333333
 11
188.281845
 21
-468.333333
  0
LINE
  8
A-POWR-2
 10
189.948512
 20
-465.000000
 11
186.281845
 21
-465.000000
  0
ARC
  8
A-POWR-2
 10
186.281845
 20
-466.666667
 40
1.666667
 50
90.000000
 51
270.000000
  0
LINE
  8
A-POWR-2
 10
184.615178
 20
-471.666667
 11
188.281845
 21
-471.666667
  0
ARC
  8
A-POWR-2
 10
188.281845
 20
-470.000000
 40
1.666667
 50
270.000000
 51
90.000000
  0
ARC
  8
A-POWR-2
 10
198.701272
 20
-458.622468
 40
11.546877
 50
160.791482
 51
188.520712
  0
CIRCLE
  8
A-POWR-2
 10
63.666667
 20
-573.319649
 40
3.333333
  0
LINE
  8
A-POWR-2
 10
58.000000
 20
-571.319649
 11
66.100000
 21
-571.319649
  0
LINE
  8
A-POWR-2
 10
58.000000
 20
-575.319649
 11
66.100000
 21
-575.319649
  0
CIRCLE
  8
A-POWR-2
 10
48.333333
 20
-303.746269
 40
3.333333
  0
LINE
  8
A-POWR-2
 10
54.000000
 20
-301.746269
 11
45.900000
 21
-301.746269
  0
LINE
  8
A-POWR-2
 10
54.000000
 20
-305.746269
 11
45.900000
 21
-305.746269
  0
LINE
  8
A-POWR-2
 10
10.000000
 20
-586.663054
 11
-1.333333
 21
-586.663054
  0
LINE
  8
A-POWR-2
 10
4.333333
 20
-587.663054
 11
4.333333
 21
-585.663054
  0
LINE
  8
A-POWR-2
 10
1.000000
 20
-583.996387
 11
1.000000
 21
-587.663054
  0
ARC
  8
A-POWR-2
 10
2.666667
 20
-587.663054
 40
1.666667
 50
180.000000
 51
0.000000
  0
LINE
  8
A-POWR-2
 10
7.666667
 20
-589.329720
 11
7.666667
 21
-585.663054
  0
ARC
  8
A-POWR-2
 10
6.000000
 20
-585.663054
 40
1.666667
 50
0.000000
 51
180.000000
  0
CIRCLE
  8
A-POWR-2
 10
-194.333333
 20
-750.315781
 40
3.333333
  0
LINE
  8
A-POWR-2
 10
-200.000000
 20
-748.315781
 11
-191.900000
 21
-748.315781
  0
LINE
  8
A-POWR-2
 10
-200.000000
 20
-752.315781
 11
-191.900000
 21
-752.315781
  0
LINE
  8
A-POWR-2
 10
94.602211
 20
-394.075691
 11
94.602211
 21
-405.409025
  0
LINE
  8
A-POWR-2
 10
95.602211
 20
-399.742358
 11
93.602211
 21
-399.742358
  0
LINE
  8
A-POWR-2
 10
91.935544
 20
-403.075691
 11
95.602211
 21
-403.075691
  0
ARC
  8
A-POWR-2
 10
95.602211
 20
-401.409025
 40
1.666667
 50
270.000000
 51
90.000000
  0
LINE
  8
A-POWR-2
 10
97.268878
 20
-396.409025
 11
93.602211
 21
-396.409025
  0
ARC
  8
A-POWR-2
 10
93.602211
 20
-398.075691
 40
1.666667
 50
90.000000
 51
270.000000
  0
LINE
  8
A-POWR-2
 10
-56.742849
 20
-541.786600
 11
-54.409516
 21
-541.786600
  0
LINE
  8
A-POWR-2
 10
-63.409516
 20
-541.786600
 11
-65.742849
 21
-541.786600
  0
LINE
  8
A-POWR-2
 10
-60.076183
 20
-538.453267
 11
-60.076183
 21
-536.119934
  0
LINE
  8
A-POWR-2
 10
-60.076183
 20
-545.119934
 11
-60.076183
 21
-547.453267
  0
CIRCLE
  8
A-POWR-2
 10
-60.076183
 20
-541.786600
 40
3.333333
  0
INSERT
  8
A-CASE-2
  2
FIXT-Toilet
 10
206.211552
 20
-386.019364
 41
1.000000
 42
1.071429
 43
 1.0
 50
-180.000000
  0
INSERT
  8
A-CASE-2
  2
FIXT-Bidet
 10
177.544432
 20
-389.941346
 41
1.000000
 42
1.000000
 43
 1.0
 50
-180.000000
  0
LINE
  8
A-CASE-2
 10
226.000000
 20
-343.000000
 11
182.000000
 21
-343.000000
  0
LINE
  8
A-CASE-2
 10
182.000000
 20
-343.000000
 11
182.000000
 21
-259.000000
  0
INSERT
  8
A-CASE-2
  2
FIXT-OSpa7242
 10
181.952856
 20
-301.000000
 41
1.166667
 42
1.047619
 43
 1.0
 50
-90.000000
  0
LINE
  8
A-CASE-2
 10
140.000000
 20
-259.000000
 11
140.000000
 21
-262.000000
  0
LINE
  8
A-CASE-2
 10
140.000000
 20
-280.000000
 11
140.000000
 21
-283.000000
  0
LINE
  8
A-CASE-2
 10
140.000000
 20
-283.000000
 11
98.000000
 21
-283.000000
  0
INSERT
  8
A-CASE-2
  2
FIXT-OvalBath
 10
119.000000
 20
-287.983894
 41
1.000000
 42
1.000000
 43
 1.0
 50
0.000000
  0
LINE
  8
A-CASE-2
 10
182.000000
 20
-259.000000
 11
182.000000
 21
-283.000000
  0
LINE
  8
A-CASE-2
 10
140.000000
 20
-283.000000
 11
140.000000
 21
-280.000000
  0
LINE
  8
A-CASE-2
 10
140.000000
 20
-262.000000
 11
140.000000
 21
-259.000000
  0
LINE
  8
A-CASE-2
 10
182.000000
 20
-283.000000
 11
140.000000
 21
-283.000000
  0
INSERT
  8
A-CASE-2
  2
FIXT-OvalBath
 10
161.000000
 20
-287.983894
 41
1.000000
 42
1.000000
 43
 1.0
 50
0.000000
  0
LINE
  8
A-CASE-2
  6
DASHED
 10
182.000000
 20
-259.000000
 11
182.000000
 21
-260.000000
  0
LINE
  8
A-CASE-2
  6
DASHED
 10
182.000000
 20
-260.000000
 11
98.000000
 21
-260.000000
  0
LINE
  8
A-CASE-2
  6
DASHED
 10
100.000000
 20
-286.275119
 11
98.000000
 21
-286.275119
  0
LINE
  8
A-CASE-2
  6
DASHED
 10
98.000000
 20
-262.275119
 11
100.000000
 21
-262.275119
  0
LINE
  8
A-CASE-2
  6
DASHED
 10
100.000000
 20
-262.275119
 11
100.000000
 21
-286.275119
  0
LINE
  8
A-CASE-2
  6
DASHED
 10
98.000000
 20
-286.275119
 11
98.000000
 21
-262.275119
  0
INSERT
  8
A-CASE-2
  2
FIXT-Washer26
 10
-35.704758
 20
-595.201330
 41
1.000000
 42
1.000000
 43
 1.0
 50
-180.000000
  0
INSERT
  8
A-CASE-2
  2
FIXT-DryerG28
 10
-6.743087
 20
-595.201330
 41
1.000000
 42
1.000000
 43
 1.0
 50
-180.000000
  0
LINE
  8
A-CASE-2
 10
-49.848617
 20
-625.935114
 11
-49.848617
 21
-613.935114
  0
LINE
  8
A-CASE-2
 10
10.151383
 20
-613.935114
 11
10.151383
 21
-625.935114
  0
LINE
  8
A-CASE-2
 10
10.151383
 20
-625.935114
 11
10.000000
 21
-625.935114
  0
LINE
  8
A-CASE-2
 10
-49.848617
 20
-613.935114
 11
10.151383
 21
-613.935114
  0
LINE
  8
A-CASE-2
 10
-49.795242
 20
-625.935114
 11
-49.795242
 21
-613.935114
  0
LINE
  8
A-CASE-2
 10
10.204758
 20
-613.935114
 11
10.204758
 21
-625.935114
  0
LINE
  8
A-CASE-2
 10
10.204758
 20
-625.935114
 11
10.000000
 21
-625.935114
  0
LINE
  8
A-CASE-2
 10
-49.795242
 20
-613.935114
 11
10.204758
 21
-613.935114
  0
INSERT
  8
A-CASE-2
  2
FIXT-Toilet
 10
-84.390152
 20
-577.202703
 41
1.000000
 42
1.071429
 43
 1.0
 50
-90.000000
  0
LINE
  8
A-CASE-2
 10
-54.409516
 20
-560.045982
 11
-78.409516
 21
-560.045982
  0
LINE
  8
A-CASE-2
 10
-78.409516
 20
-560.045982
 11
-78.409516
 21
-524.045982
  0
INSERT
  8
A-CASE-2
  2
FIXT-OvalBath
 10
-83.393410
 20
-542.045982
 41
1.000000
 42
1.000000
 43
 1.0
 50
-90.000000
  0
INSERT
  8
A-CASE-2
  2
FIXT-tubshr02
 10
-88.000000
 20
-593.941914
 41
1.000000
 42
1.000000
 43
 1.0
 50
-180.000000
  0
INSERT
  8
A-CASE-2
  2
FIXT-tubshr02
 10
192.000000
 20
-726.006800
 41
1.000000
 42
1.000000
 43
 1.0
 50
-180.000000
  0
INSERT
  8
A-CASE-2
  2
FIXT-Toilet
 10
196.019364
 20
-706.405410
 41
1.000000
 42
1.071429
 43
 1.0
 50
-90.000000
  0
LINE
  8
A-CASE-2
 10
225.184193
 20
-650.652645
 11
222.184193
 21
-650.652645
  0
LINE
  8
A-CASE-2
 10
204.184193
 20
-650.652645
 11
201.184193
 21
-650.652645
  0
LINE
  8
A-CASE-2
 10
201.184193
 20
-650.652645
 11
201.184193
 21
-614.652645
  0
INSERT
  8
A-CASE-2
  2
FIXT-OvalBath
 10
196.200299
 20
-632.652645
 41
1.000000
 42
1.000000
 43
 1.0
 50
-90.000000
  0
LINE
  8
A-CASE-2
 10
225.184193
 20
-686.652645
 11
201.184193
 21
-686.652645
  0
LINE
  8
A-CASE-2
 10
201.184193
 20
-650.652645
 11
204.184193
 21
-650.652645
  0
LINE
  8
A-CASE-2
 10
222.184193
 20
-650.652645
 11
225.184193
 21
-650.652645
  0
LINE
  8
A-CASE-2
 10
201.184193
 20
-686.652645
 11
201.184193
 21
-650.652645
  0
INSERT
  8
A-CASE-2
  2
FIXT-OvalBath
 10
196.200299
 20
-668.652645
 41
1.000000
 42
1.000000
 43
 1.0
 50
-90.000000
  0
LINE
  8
A-CASE-2
  6
DASHED
 10
-105.000000
 20
-409.679711
 11
-102.000000
 21
-409.679711
  0
LINE
  8
A-CASE-2
  6
DASHED
 10
-102.000000
 20
-425.679711
 11
-105.000000
 21
-425.679711
  0
LINE
  8
A-CASE-2
  6
DASHED
 10
-105.000000
 20
-425.679711
 11
-105.000000
 21
-409.679711
  0
LINE
  8
A-CASE-2
  6
DASHED
 10
-102.000000
 20
-409.679711
 11
-102.000000
 21
-425.679711
  0
LINE
  8
A-CASE-2
  6
DASHED
 10
54.000000
 20
-332.868417
 11
53.000000
 21
-332.868417
  0
LINE
  8
A-CASE-2
  6
DASHED
 10
53.000000
 20
-304.868417
 11
54.000000
 21
-304.868417
  0
LINE
  8
A-CASE-2
  6
DASHED
 10
53.000000
 20
-332.868417
 11
53.000000
 21
-304.868417
  0
LINE
  8
A-CASE-2
  6
DASHED
 10
225.347355
 20
-686.000000
 11
224.347355
 21
-686.000000
  0
LINE
  8
A-CASE-2
  6
DASHED
 10
225.347355
 20
-614.000000
 11
225.347355
 21
-686.000000
  0
LINE
  8
A-CASE-2
  6
DASHED
 10
224.347355
 20
-686.000000
 11
224.347355
 21
-614.000000
  0
INSERT
  8
A-CASE-2
  2
FIXT-Shwr60
 10
58.015317
 20
-292.000000
 41
1.100000
 42
1.090909
 43
 1.0
 50
-90.000000
  0
LINE
  8
A-CASE-2
 10
93.000000
 20
-419.075691
 11
93.000000
 21
-394.075691
  0
LINE
  8
A-CASE-2
 10
156.000000
 20
-419.075691
 11
93.000000
 21
-419.075691
  0
LINE
  8
A-CASE-2
 10
58.000000
 20
-474.000000
 11
58.000000
 21
-450.000000
  0
LINE
  8
A-CASE-2
 10
58.000000
 20
-450.000000
 11
156.000000
 21
-450.000000
  0
TEXT
  8
A-NOTE-2
 10
-260.167221
 20
-446.645549
 40
7.113088
  1
MASTER BEDROOM
  7
STANDARD
  0
TEXT
  8
A-NOTE-2
 10
-225.004127
 20
-456.559862
 40
5.288379
  1
14' x 17'5
  7
STANDARD
  0
TEXT
  8
A-NOTE-2
 10
184.601924
 20
-792.069428
 40
9.653477
  1
LIVING AREA
  7
STANDARD
  0
TEXT
  8
A-NOTE-2
 10
204.905596
 20
-805.023065
 40
7.211426
  1
1620 sq ft
  7
STANDARD
  0
TEXT
  8
A-NOTE-2
 10
38.835231
 20
-720.880534
 40
7.113088
  1
BEDROOM #3
  7
STANDARD
  0
TEXT
  8
A-NOTE-2
 10
59.678553
 20
-730.794847
 40
5.288379
  1
14' x 12'
  7
STANDARD
  0
TEXT
  8
A-NOTE-2
 10
-171.801510
 20
-726.439520
 40
7.113088
  1
BEDROOM #2
  7
STANDARD
  0
TEXT
  8
A-NOTE-2
 10
-155.285044
 20
-736.353834
 40
5.288379
  1
13'2 x 13'8
  7
STANDARD
  0
TEXT
  8
A-NOTE-2
 10
-86.633040
 20
-353.767417
 40
7.113088
  1
SITTING ROOM
  7
STANDARD
  0
TEXT
  8
A-NOTE-2
 10
-65.591774
 20
-363.681730
 40
5.288379
  1
12'8 x 9'11
  7
STANDARD
  0
TEXT
  8
A-NOTE-2
 10
-36.569945
 20
-644.592349
 40
4.572699
  1
CLOSET
  7
STANDARD
  0
TEXT
  8
A-NOTE-2
 10
-30.708943
 20
-650.705140
 40
3.365332
  1
2' x 5'9
  7
STANDARD
  0
TEXT
  8
A-NOTE-2
 10
171.507200
 20
-430.763391
 40
7.113088
  1
CLOSET
  7
STANDARD
  0
TEXT
  8
A-NOTE-2
 10
178.937720
 20
-440.677704
 40
5.288379
  1
5'6 x 4'6
  7
STANDARD
  0
TEXT
  8
A-NOTE-2
 10
104.300043
 20
-325.196692
 40
7.113088
  1
MASTER BATH
  7
STANDARD
  0
TEXT
  8
A-NOTE-2
 10
121.885080
 20
-335.111005
 40
5.288379
  1
10'8 x 10'11
  7
STANDARD
  0
TEXT
  8
A-NOTE-2
 10
63.613468
 20
-311.681244
 40
3.556544
  1
SHOWER
  7
STANDARD
  0
TEXT
  8
A-NOTE-2
 10
70.486499
 20
-316.337925
 40
2.403809
  1
3' x 5'6
  7
STANDARD
  0
TEXT
  8
A-NOTE-2
 10
-72.858760
 20
-496.205594
 40
8.129243
  1
HALL
  7
STANDARD
  0
TEXT
  8
A-NOTE-2
 10
-79.683774
 20
-507.576017
 40
6.249902
  1
18'8 x 6'11
  7
STANDARD
  0
TEXT
  8
A-NOTE-2
 10
-24.297708
 20
-438.972862
 40
7.113088
  1
ELEVATOR
  7
STANDARD
  0
TEXT
  8
A-NOTE-2
 10
-14.083642
 20
-448.887176
 40
5.288379
  1
5'10 x 4'10
  7
STANDARD
  0
TEXT
  8
A-NOTE-2
 10
110.305785
 20
-516.503986
 40
7.113088
  1
BEDROOM #4
  7
STANDARD
  0
TEXT
  8
A-NOTE-2
 10
131.149106
 20
-526.418299
 40
5.288379
  1
14' x 11'
  7
STANDARD
  0
TEXT
  8
A-NOTE-2
 10
65.607515
 20
-333.912568
 40
3.556544
  1
CLOSET
  7
STANDARD
  0
TEXT
  8
A-NOTE-2
 10
70.945346
 20
-338.569249
 40
2.403809
  1
3' x 1'1
  7
STANDARD
  0
TEXT
  8
A-NOTE-2
 10
-16.103887
 20
-392.340799
 40
6.096933
  1
CLOSET
  7
STANDARD
  0
TEXT
  8
A-NOTE-2
 10
-10.081577
 20
-401.399955
 40
4.807617
  1
5'10 x 2'
  7
STANDARD
  0
TEXT
  8
A-NOTE-2
 10
60.410289
 20
-459.494196
 40
7.113088
  1
MASTER CLOSET
  7
STANDARD
  0
TEXT
  8
A-NOTE-2
 10
91.596010
 20
-469.408509
 40
5.288379
  1
9'6 x 6'8
  7
STANDARD
  0
TEXT
  8
A-NOTE-2
 10
39.445311
 20
-407.103025
 40
3.556544
  1
CHASE
  7
STANDARD
  0
TEXT
  8
A-NOTE-2
 10
44.231318
 20
-411.759706
 40
2.403809
  1
1' x 2'
  7
STANDARD
  0
TEXT
  8
A-NOTE-2
 10
-47.168996
 20
-562.480211
 40
6.096933
  1
LAUNDRY
  7
STANDARD
  0
TEXT
  8
A-NOTE-2
 10
-35.786334
 20
-571.539367
 40
4.807617
  1
5' x 6'8
  7
STANDARD
  0
TEXT
  8
A-NOTE-2
 10
191.791976
 20
-365.238237
 40
6.096933
  1
TOILET
  7
STANDARD
  0
TEXT
  8
A-NOTE-2
 10
195.551886
 20
-374.297393
 40
4.807617
  1
5'6 x 5'3
  7
STANDARD
  0
TEXT
  8
A-NOTE-2
 10
-40.665410
 20
-755.547960
 40
4.572699
  1
CLOSET
  7
STANDARD
  0
TEXT
  8
A-NOTE-2
 10
-34.804407
 20
-761.660751
 40
3.365332
  1
2' x 5'8
  7
STANDARD
  0
TEXT
  8
A-NOTE-2
 10
-33.056504
 20
-533.222906
 40
4.572699
  1
CLOSET
  7
STANDARD
  0
TEXT
  8
A-NOTE-2
 10
-27.195502
 20
-539.335697
 40
3.365332
  1
5' x 1'6
  7
STANDARD
  0
TEXT
  8
A-NOTE-2
 10
166.494525
 20
-663.781648
 40
6.096933
  1
BATH 3
  7
STANDARD
  0
TEXT
  8
A-NOTE-2
 10
170.113033
 20
-672.840804
 40
4.807617
  1
5'4 x 12'
  7
STANDARD
  0
TEXT
  8
A-NOTE-2
 10
-111.746805
 20
-557.764877
 40
6.096933
  1
BATH 2
  7
STANDARD
  0
TEXT
  8
A-NOTE-2
 10
-108.128297
 20
-566.824033
 40
4.807617
  1
5'3 x 8'6
  7
STANDARD
  0
TEXT
  8
A-NOTE-2
 10
-225.401093
 20
-550.752737
 40
5.080777
  1
OPEN BELOW
  7
STANDARD
  0
TEXT
  8
A-NOTE-2
 10
-215.350912
 20
-557.593582
 40
3.846094
  1
7'10 x 10'11
  7
STANDARD
  0
TEXT
  8
A-TEXT-2
 10
234.574417
 20
-249.060514
 40
3.556544
  1
L224
  7
STANDARD
  0
TEXT
  8
A-TEXT-2
 10
-102.671907
 20
-579.157840
 40
3.556544
  1
L205
  7
STANDARD
  0
TEXT
  8
A-TEXT-2
 10
-80.477573
 20
-578.913946
 40
3.556544
  1
L206
  7
STANDARD
  0
TEXT
  8
A-TEXT-2
 10
-76.575273
 20
-543.549348
 40
3.556544
  1
L204
  7
STANDARD
  0
TEXT
  8
A-TEXT-2
 10
-213.339820
 20
-539.022348
 40
3.556544
  1
L200
  7
STANDARD
  0
TEXT
  8
A-TEXT-2
 10
-140.261481
 20
-553.061206
 40
3.556544
  1
L203
  7
STANDARD
  0
TEXT
  8
A-TEXT-2
 10
-189.664937
 20
-752.429405
 40
3.556544
  1
L201
  7
STANDARD
  0
TEXT
  8
A-TEXT-2
 10
-114.418647
 20
-692.482010
 40
3.556544
  1
L202
  7
STANDARD
  0
TEXT
  8
A-TEXT-2
 10
186.342222
 20
-717.201720
 40
3.556544
  1
L209
  7
STANDARD
  0
TEXT
  8
A-TEXT-2
 10
186.586116
 20
-699.641367
 40
3.556544
  1
L210
  7
STANDARD
  0
TEXT
  8
A-TEXT-2
 10
202.926999
 20
-652.082080
 40
3.556544
  1
L211
  7
STANDARD
  0
TEXT
  8
A-TEXT-2
 10
31.380853
 20
-753.827487
 40
3.556544
  1
L208
  7
STANDARD
  0
TEXT
  8
A-TEXT-2
 10
81.027025
 20
-687.476336
 40
3.556544
  1
L207
  7
STANDARD
  0
TEXT
  8
A-TEXT-2
 10
68.752764
 20
-575.060155
 40
3.556544
  1
L213
  7
STANDARD
  0
TEXT
  8
A-TEXT-2
 10
148.640081
 20
-545.534444
 40
3.556544
  1
L212
  7
STANDARD
  0
TEXT
  8
A-TEXT-2
 10
176.899791
 20
-386.510238
 40
3.556544
  1
L219
  7
STANDARD
  0
TEXT
  8
A-TEXT-2
 10
133.836314
 20
-344.442807
 40
3.556544
  1
L214
  7
STANDARD
  0
TEXT
  8
A-TEXT-2
 10
198.293017
 20
-301.362825
 40
3.556544
  1
L215
  7
STANDARD
  0
TEXT
  8
A-TEXT-2
 10
70.248783
 20
-301.606719
 40
3.556544
  1
L217
  7
STANDARD
  0
TEXT
  8
A-TEXT-2
 10
32.445247
 20
-305.021232
 40
3.556544
  1
L220
  7
STANDARD
  0
TEXT
  8
A-TEXT-2
 10
-51.853625
 20
-322.001088
 40
3.556544
  1
L221
  7
STANDARD
  0
TEXT
  8
A-TEXT-2
 10
-62.917221
 20
-419.163521
 40
3.556544
  1
L225
  7
STANDARD
  0
TEXT
  8
A-TEXT-2
 10
-259.404123
 20
-408.459296
 40
3.556544
  1
L223A
  7
STANDARD
  0
TEXT
  8
A-TEXT-2
 10
-259.590188
 20
-321.780353
 40
3.556544
  1
L223
  7
STANDARD
  0
TEXT
  8
A-TEXT-2
 10
-217.415715
 20
-310.299809
 40
3.556544
  1
L222
  7
STANDARD
  0
TEXT
  8
A-TEXT-2
 10
44.351743
 20
-363.499217
 40
4.572699
  1
2' 9"
  7
STANDARD
  0
LINE
  8
A-TEXT-2
 10
50.714743
 20
-355.783343
 11
52.333977
 21
-350.621735
  0
LINE
  8
A-TEXT-2
 10
52.333977
 20
-350.621735
 11
53.953209
 21
-345.460114
  0
LINE
  8
A-TEXT-2
 10
50.071213
 20
-349.482564
 11
53.953209
 21
-345.460114
  0
LINE
  8
A-TEXT-2
 10
54.841972
 20
-350.979180
 11
53.953209
 21
-345.460114
  0
TEXT
  8
A-TEXT-2
 10
48.830362
 20
-369.977123
 40
6.096933
  1
 
  7
STANDARD
  0
LINE
  8
A-TEXT-2
 10
46.030362
 20
-367.691358
 11
44.105778
 21
-372.724945
  0
LINE
  8
A-TEXT-2
 10
44.105778
 20
-372.724945
 11
42.181194
 21
-377.758545
  0
LINE
  8
A-TEXT-2
 10
47.950312
 20
-372.470135
 11
42.181194
 21
-377.758545
  0
LINE
  8
A-TEXT-2
 10
41.411937
 20
-369.970205
 11
42.181194
 21
-377.758545
  0
TEXT
  8
A-TEXT-2
 10
61.912574
 20
-269.158951
 40
4.572699
  1
Seat Here
  7
STANDARD
  0
TEXT
  8
A-TEXT-2
 10
41.707321
 20
-842.076726
 40
7.113088
  1
Strang / Smith 2/4/2001
  7
STANDARD
  0
TEXT
  8
A-TEXT-2
 10
110.003469
 20
-313.801408
 40
3.556544
  1
L216
  7
STANDARD
  0
TEXT
  8
A-TEXT-2
 10
198.780805
 20
-384.042816
 40
3.556544
  1
L218
  7
STANDARD
  0
LINE
  8
A-DIMS-2
 10
-6.268509
 20
-775.000000
 11
28.731491
 21
-775.000000
  0
LINE
  8
A-DIMS-2
 10
27.231491
 20
-772.000000
 11
25.731491
 21
-775.000000
  0
LINE
  8
A-DIMS-2
 10
24.231491
 20
-765.000000
 11
25.731491
 21
-762.000000
  0
LINE
  8
A-DIMS-2
 10
25.731491
 20
-776.739054
 11
25.731491
 21
-775.000000
  0
LINE
  8
A-DIMS-2
 10
25.731491
 20
-760.260946
 11
25.731491
 21
-762.000000
  0
TEXT
  8
A-DIMS-2
 10
28.353828
 20
-774.006907
 40
5.487240
  1
1'1
 50
90.000000
  7
STANDARD
  0
LINE
  8
A-DIMS-2
 10
30.731491
 20
-775.000000
 11
304.731491
 21
-775.000000
  0
LINE
  8
A-DIMS-2
 10
303.231491
 20
-772.000000
 11
301.731491
 21
-775.000000
  0
LINE
  8
A-DIMS-2
 10
288.731491
 20
-255.000000
 11
304.731491
 21
-255.000000
  0
LINE
  8
A-DIMS-2
 10
300.231491
 20
-258.000000
 11
301.731491
 21
-255.000000
  0
LINE
  8
A-DIMS-2
 10
301.731491
 20
-525.599157
 11
301.731491
 21
-775.000000
  0
LINE
  8
A-DIMS-2
 10
301.731491
 20
-504.400843
 11
301.731491
 21
-255.000000
  0
TEXT
  8
A-DIMS-2
 10
304.353828
 20
-522.867010
 40
5.487240
  1
43'4
 50
90.000000
  7
STANDARD
  0
LINE
  8
A-DIMS-2
 10
270.731491
 20
-762.000000
 11
286.731491
 21
-762.000000
  0
LINE
  8
A-DIMS-2
 10
285.231491
 20
-759.000000
 11
283.731491
 21
-762.000000
  0
LINE
  8
A-DIMS-2
 10
270.731491
 20
-612.000000
 11
286.731491
 21
-612.000000
  0
LINE
  8
A-DIMS-2
 10
285.231491
 20
-609.000000
 11
283.731491
 21
-612.000000
  0
LINE
  8
A-DIMS-2
 10
282.231491
 20
-615.000000
 11
283.731491
 21
-612.000000
  0
LINE
  8
A-DIMS-2
 10
283.731491
 20
-697.599156
 11
283.731491
 21
-762.000000
  0
LINE
  8
A-DIMS-2
 10
283.731491
 20
-676.400843
 11
283.731491
 21
-612.000000
  0
TEXT
  8
A-DIMS-2
 10
286.353828
 20
-694.867009
 40
5.487240
  1
12'6
 50
90.000000
  7
STANDARD
  0
LINE
  8
A-DIMS-2
 10
270.731491
 20
-476.000000
 11
286.731491
 21
-476.000000
  0
LINE
  8
A-DIMS-2
 10
285.231491
 20
-473.000000
 11
283.731491
 21
-476.000000
  0
LINE
  8
A-DIMS-2
 10
282.231491
 20
-479.000000
 11
283.731491
 21
-476.000000
  0
LINE
  8
A-DIMS-2
 10
283.731491
 20
-554.599156
 11
283.731491
 21
-612.000000
  0
LINE
  8
A-DIMS-2
 10
283.731491
 20
-533.400843
 11
283.731491
 21
-476.000000
  0
TEXT
  8
A-DIMS-2
 10
286.353828
 20
-551.867009
 40
5.487240
  1
11'4
 50
90.000000
  7
STANDARD
  0
LINE
  8
A-DIMS-2
 10
270.731491
 20
-418.000000
 11
286.731491
 21
-418.000000
  0
LINE
  8
A-DIMS-2
 10
285.231491
 20
-415.000000
 11
283.731491
 21
-418.000000
  0
LINE
  8
A-DIMS-2
 10
282.231491
 20
-421.000000
 11
283.731491
 21
-418.000000
  0
LINE
  8
A-DIMS-2
 10
283.731491
 20
-457.599156
 11
283.731491
 21
-476.000000
  0
LINE
  8
A-DIMS-2
 10
283.731491
 20
-436.400843
 11
283.731491
 21
-418.000000
  0
TEXT
  8
A-DIMS-2
 10
286.353828
 20
-454.867009
 40
5.487240
  1
4'10
 50
90.000000
  7
STANDARD
  0
LINE
  8
A-DIMS-2
 10
270.731491
 20
-351.000000
 11
286.731491
 21
-351.000000
  0
LINE
  8
A-DIMS-2
 10
285.231491
 20
-348.000000
 11
283.731491
 21
-351.000000
  0
LINE
  8
A-DIMS-2
 10
282.231491
 20
-354.000000
 11
283.731491
 21
-351.000000
  0
LINE
  8
A-DIMS-2
 10
283.731491
 20
-392.739053
 11
283.731491
 21
-418.000000
  0
LINE
  8
A-DIMS-2
 10
283.731491
 20
-376.260946
 11
283.731491
 21
-351.000000
  0
TEXT
  8
A-DIMS-2
 10
286.353828
 20
-390.006906
 40
5.487240
  1
5'7
 50
90.000000
  7
STANDARD
  0
LINE
  8
A-DIMS-2
 10
270.731491
 20
-255.000000
 11
286.731491
 21
-255.000000
  0
LINE
  8
A-DIMS-2
 10
282.231491
 20
-258.000000
 11
283.731491
 21
-255.000000
  0
LINE
  8
A-DIMS-2
 10
283.731491
 20
-308.878950
 11
283.731491
 21
-351.000000
  0
LINE
  8
A-DIMS-2
 10
283.731491
 20
-297.121049
 11
283.731491
 21
-255.000000
  0
TEXT
  8
A-DIMS-2
 10
286.353828
 20
-306.146803
 40
5.487240
  1
8'
 50
90.000000
  7
STANDARD
  0
LINE
  8
A-DIMS-2
 10
233.731491
 20
-418.000000
 11
268.731491
 21
-418.000000
  0
LINE
  8
A-DIMS-2
 10
267.231491
 20
-415.000000
 11
265.731491
 21
-418.000000
  0
LINE
  8
A-DIMS-2
 10
242.731491
 20
-384.000000
 11
268.731491
 21
-384.000000
  0
LINE
  8
A-DIMS-2
 10
267.231491
 20
-381.000000
 11
265.731491
 21
-384.000000
  0
LINE
  8
A-DIMS-2
 10
264.231491
 20
-387.000000
 11
265.731491
 21
-384.000000
  0
LINE
  8
A-DIMS-2
 10
265.731491
 20
-411.599156
 11
265.731491
 21
-418.000000
  0
LINE
  8
A-DIMS-2
 10
265.731491
 20
-390.400843
 11
265.731491
 21
-384.000000
  0
TEXT
  8
A-DIMS-2
 10
268.353828
 20
-408.867009
 40
5.487240
  1
2'10
 50
90.000000
  7
STANDARD
  0
LINE
  8
A-DIMS-2
 10
233.731491
 20
-351.000000
 11
268.731491
 21
-351.000000
  0
LINE
  8
A-DIMS-2
 10
267.231491
 20
-348.000000
 11
265.731491
 21
-351.000000
  0
LINE
  8
A-DIMS-2
 10
264.231491
 20
-354.000000
 11
265.731491
 21
-351.000000
  0
LINE
  8
A-DIMS-2
 10
265.731491
 20
-375.739053
 11
265.731491
 21
-384.000000
  0
LINE
  8
A-DIMS-2
 10
265.731491
 20
-359.260946
 11
265.731491
 21
-351.000000
  0
TEXT
  8
A-DIMS-2
 10
268.353828
 20
-373.006906
 40
5.487240
  1
2'9
 50
90.000000
  7
STANDARD
  0
LINE
  8
A-DIMS-2
 10
242.731491
 20
-318.000000
 11
268.731491
 21
-318.000000
  0
LINE
  8
A-DIMS-2
 10
267.231491
 20
-315.000000
 11
265.731491
 21
-318.000000
  0
LINE
  8
A-DIMS-2
 10
264.231491
 20
-321.000000
 11
265.731491
 21
-318.000000
  0
LINE
  8
A-DIMS-2
 10
265.731491
 20
-342.739053
 11
265.731491
 21
-351.000000
  0
LINE
  8
A-DIMS-2
 10
265.731491
 20
-326.260946
 11
265.731491
 21
-318.000000
  0
TEXT
  8
A-DIMS-2
 10
268.353828
 20
-340.006906
 40
5.487240
  1
2'9
 50
90.000000
  7
STANDARD
  0
LINE
  8
A-DIMS-2
 10
242.731491
 20
-284.000000
 11
268.731491
 21
-284.000000
  0
LINE
  8
A-DIMS-2
 10
267.231491
 20
-281.000000
 11
265.731491
 21
-284.000000
  0
LINE
  8
A-DIMS-2
 10
264.231491
 20
-287.000000
 11
265.731491
 21
-284.000000
  0
LINE
  8
A-DIMS-2
 10
265.731491
 20
-311.599156
 11
265.731491
 21
-318.000000
  0
LINE
  8
A-DIMS-2
 10
265.731491
 20
-290.400843
 11
265.731491
 21
-284.000000
  0
TEXT
  8
A-DIMS-2
 10
268.353828
 20
-308.867009
 40
5.487240
  1
2'10
 50
90.000000
  7
STANDARD
  0
LINE
  8
A-DIMS-2
 10
233.731491
 20
-255.000000
 11
268.731491
 21
-255.000000
  0
LINE
  8
A-DIMS-2
 10
264.231491
 20
-258.000000
 11
265.731491
 21
-255.000000
  0
LINE
  8
A-DIMS-2
 10
265.731491
 20
-277.739053
 11
265.731491
 21
-284.000000
  0
LINE
  8
A-DIMS-2
 10
265.731491
 20
-261.260946
 11
265.731491
 21
-255.000000
  0
TEXT
  8
A-DIMS-2
 10
268.353828
 20
-275.006906
 40
5.487240
  1
2'5
 50
90.000000
  7
STANDARD
  0
LINE
  8
A-DIMS-2
 10
233.731491
 20
-762.000000
 11
268.731491
 21
-762.000000
  0
LINE
  8
A-DIMS-2
 10
267.231491
 20
-759.000000
 11
265.731491
 21
-762.000000
  0
LINE
  8
A-DIMS-2
 10
242.731491
 20
-706.000000
 11
268.731491
 21
-706.000000
  0
LINE
  8
A-DIMS-2
 10
267.231491
 20
-703.000000
 11
265.731491
 21
-706.000000
  0
LINE
  8
A-DIMS-2
 10
264.231491
 20
-709.000000
 11
265.731491
 21
-706.000000
  0
LINE
  8
A-DIMS-2
 10
265.731491
 20
-742.239053
 11
265.731491
 21
-762.000000
  0
LINE
  8
A-DIMS-2
 10
265.731491
 20
-725.760946
 11
265.731491
 21
-706.000000
  0
TEXT
  8
A-DIMS-2
 10
268.353828
 20
-739.506906
 40
5.487240
  1
4'8
 50
90.000000
  7
STANDARD
  0
LINE
  8
A-DIMS-2
 10
233.731491
 20
-612.000000
 11
268.731491
 21
-612.000000
  0
LINE
  8
A-DIMS-2
 10
267.231491
 20
-609.000000
 11
265.731491
 21
-612.000000
  0
LINE
  8
A-DIMS-2
 10
264.231491
 20
-615.000000
 11
265.731491
 21
-612.000000
  0
LINE
  8
A-DIMS-2
 10
265.731491
 20
-669.599156
 11
265.731491
 21
-706.000000
  0
LINE
  8
A-DIMS-2
 10
265.731491
 20
-648.400843
 11
265.731491
 21
-612.000000
  0
TEXT
  8
A-DIMS-2
 10
268.353828
 20
-666.867009
 40
5.487240
  1
7'10
 50
90.000000
  7
STANDARD
  0
LINE
  8
A-DIMS-2
 10
242.731491
 20
-561.000000
 11
268.731491
 21
-561.000000
  0
LINE
  8
A-DIMS-2
 10
267.231491
 20
-558.000000
 11
265.731491
 21
-561.000000
  0
LINE
  8
A-DIMS-2
 10
264.231491
 20
-564.000000
 11
265.731491
 21
-561.000000
  0
LINE
  8
A-DIMS-2
 10
265.731491
 20
-594.739053
 11
265.731491
 21
-612.000000
  0
LINE
  8
A-DIMS-2
 10
265.731491
 20
-578.260946
 11
265.731491
 21
-561.000000
  0
TEXT
  8
A-DIMS-2
 10
268.353828
 20
-592.006906
 40
5.487240
  1
4'3
 50
90.000000
  7
STANDARD
  0
LINE
  8
A-DIMS-2
 10
242.731491
 20
-527.000000
 11
268.731491
 21
-527.000000
  0
LINE
  8
A-DIMS-2
 10
267.231491
 20
-524.000000
 11
265.731491
 21
-527.000000
  0
LINE
  8
A-DIMS-2
 10
264.231491
 20
-530.000000
 11
265.731491
 21
-527.000000
  0
LINE
  8
A-DIMS-2
 10
265.731491
 20
-554.599156
 11
265.731491
 21
-561.000000
  0
LINE
  8
A-DIMS-2
 10
265.731491
 20
-533.400843
 11
265.731491
 21
-527.000000
  0
TEXT
  8
A-DIMS-2
 10
268.353828
 20
-551.867009
 40
5.487240
  1
2'10
 50
90.000000
  7
STANDARD
  0
LINE
  8
A-DIMS-2
 10
233.731491
 20
-476.000000
 11
268.731491
 21
-476.000000
  0
LINE
  8
A-DIMS-2
 10
264.231491
 20
-479.000000
 11
265.731491
 21
-476.000000
  0
LINE
  8
A-DIMS-2
 10
265.731491
 20
-509.739053
 11
265.731491
 21
-527.000000
  0
LINE
  8
A-DIMS-2
 10
265.731491
 20
-493.260946
 11
265.731491
 21
-476.000000
  0
TEXT
  8
A-DIMS-2
 10
268.353828
 20
-507.006906
 40
5.487240
  1
4'3
 50
90.000000
  7
STANDARD
  0
LINE
  8
A-DIMS-2
 10
-274.000000
 20
-833.355874
 11
-274.000000
 21
-849.355874
  0
LINE
  8
A-DIMS-2
 10
-271.000000
 20
-847.855874
 11
-274.000000
 21
-846.355874
  0
LINE
  8
A-DIMS-2
 10
230.000000
 20
-833.355874
 11
230.000000
 21
-849.355874
  0
LINE
  8
A-DIMS-2
 10
227.000000
 20
-844.855874
 11
230.000000
 21
-846.355874
  0
LINE
  8
A-DIMS-2
 10
-30.239054
 20
-846.355874
 11
-274.000000
 21
-846.355874
  0
LINE
  8
A-DIMS-2
 10
-13.760946
 20
-846.355874
 11
230.000000
 21
-846.355874
  0
TEXT
  8
A-DIMS-2
 10
-27.506907
 20
-848.978211
 40
5.487240
  1
42'
  7
STANDARD
  0
LINE
  8
A-DIMS-2
 10
-274.000000
 20
-610.355874
 11
-274.000000
 21
-831.355874
  0
LINE
  8
A-DIMS-2
 10
-271.000000
 20
-829.855874
 11
-274.000000
 21
-828.355874
  0
LINE
  8
A-DIMS-2
 10
-204.000000
 20
-815.355874
 11
-204.000000
 21
-831.355874
  0
LINE
  8
A-DIMS-2
 10
-201.000000
 20
-829.855874
 11
-204.000000
 21
-828.355874
  0
LINE
  8
A-DIMS-2
 10
-207.000000
 20
-826.855874
 11
-204.000000
 21
-828.355874
  0
LINE
  8
A-DIMS-2
 10
-249.599157
 20
-828.355874
 11
-274.000000
 21
-828.355874
  0
LINE
  8
A-DIMS-2
 10
-228.400843
 20
-828.355874
 11
-204.000000
 21
-828.355874
  0
TEXT
  8
A-DIMS-2
 10
-246.867010
 20
-830.978211
 40
5.487240
  1
5'10
  7
STANDARD
  0
LINE
  8
A-DIMS-2
 10
-40.000000
 20
-815.355874
 11
-40.000000
 21
-831.355874
  0
LINE
  8
A-DIMS-2
 10
-37.000000
 20
-829.855874
 11
-40.000000
 21
-828.355874
  0
LINE
  8
A-DIMS-2
 10
-43.000000
 20
-826.855874
 11
-40.000000
 21
-828.355874
  0
LINE
  8
A-DIMS-2
 10
-132.599157
 20
-828.355874
 11
-204.000000
 21
-828.355874
  0
LINE
  8
A-DIMS-2
 10
-111.400843
 20
-828.355874
 11
-40.000000
 21
-828.355874
  0
TEXT
  8
A-DIMS-2
 10
-129.867010
 20
-830.978211
 40
5.487240
  1
13'8
  7
STANDARD
  0
LINE
  8
A-DIMS-2
 10
-10.000000
 20
-815.355874
 11
-10.000000
 21
-831.355874
  0
LINE
  8
A-DIMS-2
 10
-7.000000
 20
-829.855874
 11
-10.000000
 21
-828.355874
  0
LINE
  8
A-DIMS-2
 10
-13.000000
 20
-826.855874
 11
-10.000000
 21
-828.355874
  0
LINE
  8
A-DIMS-2
 10
-33.239054
 20
-828.355874
 11
-40.000000
 21
-828.355874
  0
LINE
  8
A-DIMS-2
 10
-16.760946
 20
-828.355874
 11
-10.000000
 21
-828.355874
  0
TEXT
  8
A-DIMS-2
 10
-30.506907
 20
-830.978211
 40
5.487240
  1
2'6
  7
STANDARD
  0
LINE
  8
A-DIMS-2
 10
160.000000
 20
-815.355874
 11
160.000000
 21
-831.355874
  0
LINE
  8
A-DIMS-2
 10
163.000000
 20
-829.855874
 11
160.000000
 21
-828.355874
  0
LINE
  8
A-DIMS-2
 10
157.000000
 20
-826.855874
 11
160.000000
 21
-828.355874
  0
LINE
  8
A-DIMS-2
 10
64.400843
 20
-828.355874
 11
-10.000000
 21
-828.355874
  0
LINE
  8
A-DIMS-2
 10
85.599157
 20
-828.355874
 11
160.000000
 21
-828.355874
  0
TEXT
  8
A-DIMS-2
 10
67.132990
 20
-830.978211
 40
5.487240
  1
14'2
  7
STANDARD
  0
LINE
  8
A-DIMS-2
 10
230.000000
 20
-765.355874
 11
230.000000
 21
-831.355874
  0
LINE
  8
A-DIMS-2
 10
227.000000
 20
-826.855874
 11
230.000000
 21
-828.355874
  0
LINE
  8
A-DIMS-2
 10
184.400843
 20
-828.355874
 11
160.000000
 21
-828.355874
  0
LINE
  8
A-DIMS-2
 10
205.599157
 20
-828.355874
 11
230.000000
 21
-828.355874
  0
TEXT
  8
A-DIMS-2
 10
187.132990
 20
-830.978211
 40
5.487240
  1
5'10
  7
STANDARD
  0
LINE
  8
A-DIMS-2
 10
-10.000000
 20
-778.355874
 11
-10.000000
 21
-813.355874
  0
LINE
  8
A-DIMS-2
 10
-7.000000
 20
-811.855874
 11
-10.000000
 21
-810.355874
  0
LINE
  8
A-DIMS-2
 10
104.000000
 20
-774.355874
 11
104.000000
 21
-813.355874
  0
LINE
  8
A-DIMS-2
 10
107.000000
 20
-811.855874
 11
104.000000
 21
-810.355874
  0
LINE
  8
A-DIMS-2
 10
101.000000
 20
-808.855874
 11
104.000000
 21
-810.355874
  0
LINE
  8
A-DIMS-2
 10
38.760946
 20
-810.355874
 11
-10.000000
 21
-810.355874
  0
LINE
  8
A-DIMS-2
 10
55.239054
 20
-810.355874
 11
104.000000
 21
-810.355874
  0
TEXT
  8
A-DIMS-2
 10
41.493093
 20
-812.978211
 40
5.487240
  1
9'6
  7
STANDARD
  0
LINE
  8
A-DIMS-2
 10
138.000000
 20
-774.355874
 11
138.000000
 21
-813.355874
  0
LINE
  8
A-DIMS-2
 10
141.000000
 20
-811.855874
 11
138.000000
 21
-810.355874
  0
LINE
  8
A-DIMS-2
 10
135.000000
 20
-808.855874
 11
138.000000
 21
-810.355874
  0
LINE
  8
A-DIMS-2
 10
110.400843
 20
-810.355874
 11
104.000000
 21
-810.355874
  0
LINE
  8
A-DIMS-2
 10
131.599157
 20
-810.355874
 11
138.000000
 21
-810.355874
  0
TEXT
  8
A-DIMS-2
 10
113.132990
 20
-812.978211
 40
5.487240
  1
2'10
  7
STANDARD
  0
LINE
  8
A-DIMS-2
 10
160.000000
 20
-765.355874
 11
160.000000
 21
-813.355874
  0
LINE
  8
A-DIMS-2
 10
157.000000
 20
-808.855874
 11
160.000000
 21
-810.355874
  0
LINE
  8
A-DIMS-2
 10
138.400843
 20
-810.355874
 11
138.000000
 21
-810.355874
  0
LINE
  8
A-DIMS-2
 10
159.599157
 20
-810.355874
 11
160.000000
 21
-810.355874
  0
TEXT
  8
A-DIMS-2
 10
141.132990
 20
-812.978211
 40
5.487240
  1
1'10
  7
STANDARD
  0
LINE
  8
A-DIMS-2
 10
-204.000000
 20
-778.355874
 11
-204.000000
 21
-813.355874
  0
LINE
  8
A-DIMS-2
 10
-201.000000
 20
-811.855874
 11
-204.000000
 21
-810.355874
  0
LINE
  8
A-DIMS-2
 10
-142.000000
 20
-787.355874
 11
-142.000000
 21
-813.355874
  0
LINE
  8
A-DIMS-2
 10
-139.000000
 20
-811.855874
 11
-142.000000
 21
-810.355874
  0
LINE
  8
A-DIMS-2
 10
-145.000000
 20
-808.855874
 11
-142.000000
 21
-810.355874
  0
LINE
  8
A-DIMS-2
 10
-181.239054
 20
-810.355874
 11
-204.000000
 21
-810.355874
  0
LINE
  8
A-DIMS-2
 10
-164.760946
 20
-810.355874
 11
-142.000000
 21
-810.355874
  0
TEXT
  8
A-DIMS-2
 10
-178.506907
 20
-812.978211
 40
5.487240
  1
5'2
  7
STANDARD
  0
LINE
  8
A-DIMS-2
 10
-108.000000
 20
-787.355874
 11
-108.000000
 21
-813.355874
  0
LINE
  8
A-DIMS-2
 10
-105.000000
 20
-811.855874
 11
-108.000000
 21
-810.355874
  0
LINE
  8
A-DIMS-2
 10
-111.000000
 20
-808.855874
 11
-108.000000
 21
-810.355874
  0
LINE
  8
A-DIMS-2
 10
-135.599157
 20
-810.355874
 11
-142.000000
 21
-810.355874
  0
LINE
  8
A-DIMS-2
 10
-114.400843
 20
-810.355874
 11
-108.000000
 21
-810.355874
  0
TEXT
  8
A-DIMS-2
 10
-132.867010
 20
-812.978211
 40
5.487240
  1
2'10
  7
STANDARD
  0
LINE
  8
A-DIMS-2
 10
-74.000000
 20
-787.355874
 11
-74.000000
 21
-813.355874
  0
LINE
  8
A-DIMS-2
 10
-71.000000
 20
-811.855874
 11
-74.000000
 21
-810.355874
  0
LINE
  8
A-DIMS-2
 10
-77.000000
 20
-808.855874
 11
-74.000000
 21
-810.355874
  0
LINE
  8
A-DIMS-2
 10
-101.599157
 20
-810.355874
 11
-108.000000
 21
-810.355874
  0
LINE
  8
A-DIMS-2
 10
-80.400843
 20
-810.355874
 11
-74.000000
 21
-810.355874
  0
TEXT
  8
A-DIMS-2
 10
-98.867010
 20
-812.978211
 40
5.487240
  1
2'10
  7
STANDARD
  0
LINE
  8
A-DIMS-2
 10
-40.000000
 20
-778.355874
 11
-40.000000
 21
-813.355874
  0
LINE
  8
A-DIMS-2
 10
-43.000000
 20
-808.855874
 11
-40.000000
 21
-810.355874
  0
LINE
  8
A-DIMS-2
 10
-67.599157
 20
-810.355874
 11
-74.000000
 21
-810.355874
  0
LINE
  8
A-DIMS-2
 10
-46.400843
 20
-810.355874
 11
-40.000000
 21
-810.355874
  0
TEXT
  8
A-DIMS-2
 10
-64.867010
 20
-812.978211
 40
5.487240
  1
2'10
  7
STANDARD
  0
LINE
  8
A-DIMS-2
 10
230.000000
 20
-196.355874
 11
230.000000
 21
-180.355874
  0
LINE
  8
A-DIMS-2
 10
227.000000
 20
-181.855874
 11
230.000000
 21
-183.355874
  0
LINE
  8
A-DIMS-2
 10
-274.000000
 20
-196.355874
 11
-274.000000
 21
-180.355874
  0
LINE
  8
A-DIMS-2
 10
-271.000000
 20
-184.855874
 11
-274.000000
 21
-183.355874
  0
LINE
  8
A-DIMS-2
 10
-13.760946
 20
-183.355874
 11
230.000000
 21
-183.355874
  0
LINE
  8
A-DIMS-2
 10
-30.239054
 20
-183.355874
 11
-274.000000
 21
-183.355874
  0
TEXT
  8
A-DIMS-2
 10
-27.506907
 20
-185.978211
 40
5.487240
  1
42'
  7
STANDARD
  0
LINE
  8
A-DIMS-2
 10
230.000000
 20
-214.355874
 11
230.000000
 21
-198.355874
  0
LINE
  8
A-DIMS-2
 10
227.000000
 20
-199.855874
 11
230.000000
 21
-201.355874
  0
LINE
  8
A-DIMS-2
 10
96.000000
 20
-214.355874
 11
96.000000
 21
-198.355874
  0
LINE
  8
A-DIMS-2
 10
93.000000
 20
-199.855874
 11
96.000000
 21
-201.355874
  0
LINE
  8
A-DIMS-2
 10
99.000000
 20
-202.855874
 11
96.000000
 21
-201.355874
  0
LINE
  8
A-DIMS-2
 10
173.599157
 20
-201.355874
 11
230.000000
 21
-201.355874
  0
LINE
  8
A-DIMS-2
 10
152.400843
 20
-201.355874
 11
96.000000
 21
-201.355874
  0
TEXT
  8
A-DIMS-2
 10
155.132990
 20
-203.978211
 40
5.487240
  1
11'2
  7
STANDARD
  0
LINE
  8
A-DIMS-2
 10
56.000000
 20
-214.355874
 11
56.000000
 21
-198.355874
  0
LINE
  8
A-DIMS-2
 10
53.000000
 20
-199.855874
 11
56.000000
 21
-201.355874
  0
LINE
  8
A-DIMS-2
 10
59.000000
 20
-202.855874
 11
56.000000
 21
-201.355874
  0
LINE
  8
A-DIMS-2
 10
84.239054
 20
-201.355874
 11
96.000000
 21
-201.355874
  0
LINE
  8
A-DIMS-2
 10
67.760946
 20
-201.355874
 11
56.000000
 21
-201.355874
  0
TEXT
  8
A-DIMS-2
 10
70.493093
 20
-203.978211
 40
5.487240
  1
3'4
  7
STANDARD
  0
LINE
  8
A-DIMS-2
 10
-100.000000
 20
-214.355874
 11
-100.000000
 21
-198.355874
  0
LINE
  8
A-DIMS-2
 10
-103.000000
 20
-199.855874
 11
-100.000000
 21
-201.355874
  0
LINE
  8
A-DIMS-2
 10
-97.000000
 20
-202.855874
 11
-100.000000
 21
-201.355874
  0
LINE
  8
A-DIMS-2
 10
-13.760946
 20
-201.355874
 11
56.000000
 21
-201.355874
  0
LINE
  8
A-DIMS-2
 10
-30.239054
 20
-201.355874
 11
-100.000000
 21
-201.355874
  0
TEXT
  8
A-DIMS-2
 10
-27.506907
 20
-203.978211
 40
5.487240
  1
13'
  7
STANDARD
  0
LINE
  8
A-DIMS-2
 10
-274.000000
 20
-214.355874
 11
-274.000000
 21
-198.355874
  0
LINE
  8
A-DIMS-2
 10
-271.000000
 20
-202.855874
 11
-274.000000
 21
-201.355874
  0
LINE
  8
A-DIMS-2
 10
-176.400843
 20
-201.355874
 11
-100.000000
 21
-201.355874
  0
LINE
  8
A-DIMS-2
 10
-197.599157
 20
-201.355874
 11
-274.000000
 21
-201.355874
  0
TEXT
  8
A-DIMS-2
 10
-194.867010
 20
-203.978211
 40
5.487240
  1
14'6
  7
STANDARD
  0
LINE
  8
A-DIMS-2
 10
56.000000
 20
-251.355874
 11
56.000000
 21
-216.355874
  0
LINE
  8
A-DIMS-2
 10
53.000000
 20
-217.855874
 11
56.000000
 21
-219.355874
  0
LINE
  8
A-DIMS-2
 10
30.000000
 20
-242.355874
 11
30.000000
 21
-216.355874
  0
LINE
  8
A-DIMS-2
 10
27.000000
 20
-217.855874
 11
30.000000
 21
-219.355874
  0
LINE
  8
A-DIMS-2
 10
33.000000
 20
-220.855874
 11
30.000000
 21
-219.355874
  0
LINE
  8
A-DIMS-2
 10
51.239054
 20
-219.355874
 11
56.000000
 21
-219.355874
  0
LINE
  8
A-DIMS-2
 10
34.760946
 20
-219.355874
 11
30.000000
 21
-219.355874
  0
TEXT
  8
A-DIMS-2
 10
37.493093
 20
-221.978211
 40
5.487240
  1
2'2
  7
STANDARD
  0
LINE
  8
A-DIMS-2
 10
-70.000000
 20
-242.355874
 11
-70.000000
 21
-216.355874
  0
LINE
  8
A-DIMS-2
 10
-73.000000
 20
-217.855874
 11
-70.000000
 21
-219.355874
  0
LINE
  8
A-DIMS-2
 10
-67.000000
 20
-220.855874
 11
-70.000000
 21
-219.355874
  0
LINE
  8
A-DIMS-2
 10
-11.760946
 20
-219.355874
 11
30.000000
 21
-219.355874
  0
LINE
  8
A-DIMS-2
 10
-28.239054
 20
-219.355874
 11
-70.000000
 21
-219.355874
  0
TEXT
  8
A-DIMS-2
 10
-25.506907
 20
-221.978211
 40
5.487240
  1
8'4
  7
STANDARD
  0
LINE
  8
A-DIMS-2
 10
-100.000000
 20
-251.355874
 11
-100.000000
 21
-216.355874
  0
LINE
  8
A-DIMS-2
 10
-103.000000
 20
-217.855874
 11
-100.000000
 21
-219.355874
  0
LINE
  8
A-DIMS-2
 10
-97.000000
 20
-220.855874
 11
-100.000000
 21
-219.355874
  0
LINE
  8
A-DIMS-2
 10
-76.760946
 20
-219.355874
 11
-70.000000
 21
-219.355874
  0
LINE
  8
A-DIMS-2
 10
-93.239054
 20
-219.355874
 11
-100.000000
 21
-219.355874
  0
TEXT
  8
A-DIMS-2
 10
-90.506907
 20
-221.978211
 40
5.487240
  1
2'6
  7
STANDARD
  0
LINE
  8
A-DIMS-2
 10
-158.000000
 20
-242.355874
 11
-158.000000
 21
-216.355874
  0
LINE
  8
A-DIMS-2
 10
-161.000000
 20
-217.855874
 11
-158.000000
 21
-219.355874
  0
LINE
  8
A-DIMS-2
 10
-155.000000
 20
-220.855874
 11
-158.000000
 21
-219.355874
  0
LINE
  8
A-DIMS-2
 10
-118.400843
 20
-219.355874
 11
-100.000000
 21
-219.355874
  0
LINE
  8
A-DIMS-2
 10
-139.599157
 20
-219.355874
 11
-158.000000
 21
-219.355874
  0
TEXT
  8
A-DIMS-2
 10
-136.867010
 20
-221.978211
 40
5.487240
  1
4'10
  7
STANDARD
  0
LINE
  8
A-DIMS-2
 10
-192.000000
 20
-242.355874
 11
-192.000000
 21
-216.355874
  0
LINE
  8
A-DIMS-2
 10
-195.000000
 20
-217.855874
 11
-192.000000
 21
-219.355874
  0
LINE
  8
A-DIMS-2
 10
-189.000000
 20
-220.855874
 11
-192.000000
 21
-219.355874
  0
LINE
  8
A-DIMS-2
 10
-164.400843
 20
-219.355874
 11
-158.000000
 21
-219.355874
  0
LINE
  8
A-DIMS-2
 10
-185.599157
 20
-219.355874
 11
-192.000000
 21
-219.355874
  0
TEXT
  8
A-DIMS-2
 10
-182.867010
 20
-221.978211
 40
5.487240
  1
2'10
  7
STANDARD
  0
LINE
  8
A-DIMS-2
 10
-226.000000
 20
-242.355874
 11
-226.000000
 21
-216.355874
  0
LINE
  8
A-DIMS-2
 10
-229.000000
 20
-217.855874
 11
-226.000000
 21
-219.355874
  0
LINE
  8
A-DIMS-2
 10
-223.000000
 20
-220.855874
 11
-226.000000
 21
-219.355874
  0
LINE
  8
A-DIMS-2
 10
-198.400843
 20
-219.355874
 11
-192.000000
 21
-219.355874
  0
LINE
  8
A-DIMS-2
 10
-219.599157
 20
-219.355874
 11
-226.000000
 21
-219.355874
  0
TEXT
  8
A-DIMS-2
 10
-216.867010
 20
-221.978211
 40
5.487240
  1
2'10
  7
STANDARD
  0
LINE
  8
A-DIMS-2
 10
-274.000000
 20
-251.355874
 11
-274.000000
 21
-216.355874
  0
LINE
  8
A-DIMS-2
 10
-271.000000
 20
-220.855874
 11
-274.000000
 21
-219.355874
  0
LINE
  8
A-DIMS-2
 10
-244.121049
 20
-219.355874
 11
-226.000000
 21
-219.355874
  0
LINE
  8
A-DIMS-2
 10
-255.878951
 20
-219.355874
 11
-274.000000
 21
-219.355874
  0
TEXT
  8
A-DIMS-2
 10
-253.146804
 20
-221.978211
 40
5.487240
  1
4'
  7
STANDARD
  0
LINE
  8
A-DIMS-2
 10
230.000000
 20
-251.355874
 11
230.000000
 21
-216.355874
  0
LINE
  8
A-DIMS-2
 10
227.000000
 20
-217.855874
 11
230.000000
 21
-219.355874
  0
LINE
  8
A-DIMS-2
 10
204.000000
 20
-242.355874
 11
204.000000
 21
-216.355874
  0
LINE
  8
A-DIMS-2
 10
201.000000
 20
-217.855874
 11
204.000000
 21
-219.355874
  0
LINE
  8
A-DIMS-2
 10
207.000000
 20
-220.855874
 11
204.000000
 21
-219.355874
  0
LINE
  8
A-DIMS-2
 10
225.239054
 20
-219.355874
 11
230.000000
 21
-219.355874
  0
LINE
  8
A-DIMS-2
 10
208.760946
 20
-219.355874
 11
204.000000
 21
-219.355874
  0
TEXT
  8
A-DIMS-2
 10
211.493093
 20
-221.978211
 40
5.487240
  1
2'2
  7
STANDARD
  0
LINE
  8
A-DIMS-2
 10
96.000000
 20
-251.355874
 11
96.000000
 21
-216.355874
  0
LINE
  8
A-DIMS-2
 10
99.000000
 20
-220.855874
 11
96.000000
 21
-219.355874
  0
LINE
  8
A-DIMS-2
 10
155.878951
 20
-219.355874
 11
204.000000
 21
-219.355874
  0
LINE
  8
A-DIMS-2
 10
144.121049
 20
-219.355874
 11
96.000000
 21
-219.355874
  0
TEXT
  8
A-DIMS-2
 10
146.853196
 20
-221.978211
 40
5.487240
  1
9'
  7
STANDARD
  0
LINE
  8
A-DIMS-2
 10
-332.268509
 20
-255.000000
 11
-348.268509
 21
-255.000000
  0
LINE
  8
A-DIMS-2
 10
-346.768509
 20
-258.000000
 11
-345.268509
 21
-255.000000
  0
LINE
  8
A-DIMS-2
 10
-332.268509
 20
-775.000000
 11
-348.268509
 21
-775.000000
  0
LINE
  8
A-DIMS-2
 10
-343.768509
 20
-772.000000
 11
-345.268509
 21
-775.000000
  0
LINE
  8
A-DIMS-2
 10
-345.268509
 20
-504.400843
 11
-345.268509
 21
-255.000000
  0
LINE
  8
A-DIMS-2
 10
-345.268509
 20
-525.599157
 11
-345.268509
 21
-775.000000
  0
TEXT
  8
A-DIMS-2
 10
-342.646172
 20
-522.867010
 40
5.487240
  1
43'4
 50
90.000000
  7
STANDARD
  0
LINE
  8
A-DIMS-2
 10
-314.268509
 20
-255.000000
 11
-330.268509
 21
-255.000000
  0
LINE
  8
A-DIMS-2
 10
-328.768509
 20
-258.000000
 11
-327.268509
 21
-255.000000
  0
LINE
  8
A-DIMS-2
 10
-314.268509
 20
-470.000000
 11
-330.268509
 21
-470.000000
  0
LINE
  8
A-DIMS-2
 10
-328.768509
 20
-473.000000
 11
-327.268509
 21
-470.000000
  0
LINE
  8
A-DIMS-2
 10
-325.768509
 20
-467.000000
 11
-327.268509
 21
-470.000000
  0
LINE
  8
A-DIMS-2
 10
-327.268509
 20
-349.540740
 11
-327.268509
 21
-255.000000
  0
LINE
  8
A-DIMS-2
 10
-327.268509
 20
-375.459260
 11
-327.268509
 21
-470.000000
  0
TEXT
  8
A-DIMS-2
 10
-324.646172
 20
-372.727113
 40
5.487240
  1
17'11
 50
90.000000
  7
STANDARD
  0
LINE
  8
A-DIMS-2
 10
-277.268509
 20
-609.000000
 11
-330.268509
 21
-609.000000
  0
LINE
  8
A-DIMS-2
 10
-328.768509
 20
-612.000000
 11
-327.268509
 21
-609.000000
  0
LINE
  8
A-DIMS-2
 10
-325.768509
 20
-606.000000
 11
-327.268509
 21
-609.000000
  0
LINE
  8
A-DIMS-2
 10
-327.268509
 20
-528.900843
 11
-327.268509
 21
-470.000000
  0
LINE
  8
A-DIMS-2
 10
-327.268509
 20
-550.099157
 11
-327.268509
 21
-609.000000
  0
TEXT
  8
A-DIMS-2
 10
-324.646172
 20
-547.367010
 40
5.487240
  1
11'7
 50
90.000000
  7
STANDARD
  0
LINE
  8
A-DIMS-2
 10
-207.268509
 20
-775.000000
 11
-330.268509
 21
-775.000000
  0
LINE
  8
A-DIMS-2
 10
-325.768509
 20
-772.000000
 11
-327.268509
 21
-775.000000
  0
LINE
  8
A-DIMS-2
 10
-327.268509
 20
-679.040740
 11
-327.268509
 21
-609.000000
  0
LINE
  8
A-DIMS-2
 10
-327.268509
 20
-704.959260
 11
-327.268509
 21
-775.000000
  0
TEXT
  8
A-DIMS-2
 10
-324.646172
 20
-702.227113
 40
5.487240
  1
13'10
 50
90.000000
  7
STANDARD
  0
LINE
  8
A-DIMS-2
 10
-277.268509
 20
-255.000000
 11
-312.268509
 21
-255.000000
  0
LINE
  8
A-DIMS-2
 10
-310.768509
 20
-258.000000
 11
-309.268509
 21
-255.000000
  0
LINE
  8
A-DIMS-2
 10
-286.268509
 20
-296.000000
 11
-312.268509
 21
-296.000000
  0
LINE
  8
A-DIMS-2
 10
-310.768509
 20
-299.000000
 11
-309.268509
 21
-296.000000
  0
LINE
  8
A-DIMS-2
 10
-307.768509
 20
-293.000000
 11
-309.268509
 21
-296.000000
  0
LINE
  8
A-DIMS-2
 10
-309.268509
 20
-267.260946
 11
-309.268509
 21
-255.000000
  0
LINE
  8
A-DIMS-2
 10
-309.268509
 20
-283.739054
 11
-309.268509
 21
-296.000000
  0
TEXT
  8
A-DIMS-2
 10
-306.646172
 20
-281.006907
 40
5.487240
  1
3'5
 50
90.000000
  7
STANDARD
  0
LINE
  8
A-DIMS-2
 10
-286.268509
 20
-432.000000
 11
-312.268509
 21
-432.000000
  0
LINE
  8
A-DIMS-2
 10
-310.768509
 20
-435.000000
 11
-309.268509
 21
-432.000000
  0
LINE
  8
A-DIMS-2
 10
-307.768509
 20
-429.000000
 11
-309.268509
 21
-432.000000
  0
LINE
  8
A-DIMS-2
 10
-309.268509
 20
-353.400843
 11
-309.268509
 21
-296.000000
  0
LINE
  8
A-DIMS-2
 10
-309.268509
 20
-374.599157
 11
-309.268509
 21
-432.000000
  0
TEXT
  8
A-DIMS-2
 10
-306.646172
 20
-371.867010
 40
5.487240
  1
11'4
 50
90.000000
  7
STANDARD
  0
LINE
  8
A-DIMS-2
 10
-277.268509
 20
-470.000000
 11
-312.268509
 21
-470.000000
  0
LINE
  8
A-DIMS-2
 10
-307.768509
 20
-467.000000
 11
-309.268509
 21
-470.000000
  0
LINE
  8
A-DIMS-2
 10
-309.268509
 20
-442.760946
 11
-309.268509
 21
-432.000000
  0
LINE
  8
A-DIMS-2
 10
-309.268509
 20
-459.239054
 11
-309.268509
 21
-470.000000
  0
TEXT
  8
A-DIMS-2
 10
-306.646172
 20
-456.506907
 40
5.487240
  1
3'2
 50
90.000000
  7
STANDARD
  0
LINE
  8
A-DIMS-2
 10
-95.000000
 20
-470.752275
 11
-98.000000
 21
-469.252275
  0
LINE
  8
A-DIMS-2
 10
-39.000000
 20
-467.752275
 11
-36.000000
 21
-469.252275
  0
LINE
  8
A-DIMS-2
 10
-75.239054
 20
-469.252275
 11
-98.000000
 21
-469.252275
  0
LINE
  8
A-DIMS-2
 10
-58.760946
 20
-469.252275
 11
-36.000000
 21
-469.252275
  0
TEXT
  8
A-DIMS-2
 10
-72.506907
 20
-471.874612
 40
5.487240
  1
5'2
  7
STANDARD
  0
LINE
  8
A-DIMS-2
 10
-122.093997
 20
-475.000000
 11
-120.593997
 21
-472.000000
  0
LINE
  8
A-DIMS-2
 10
-119.093997
 20
-517.045982
 11
-120.593997
 21
-520.045982
  0
LINE
  8
A-DIMS-2
 10
-120.593997
 20
-490.144040
 11
-120.593997
 21
-472.000000
  0
LINE
  8
A-DIMS-2
 10
-120.593997
 20
-501.901942
 11
-120.593997
 21
-520.045982
  0
TEXT
  8
A-DIMS-2
 10
-117.971660
 20
-499.169795
 40
5.487240
  1
4'
 50
90.000000
  7
STANDARD
  0
LINE
  8
A-DIMS-2
 10
17.000000
 20
-531.725220
 11
14.000000
 21
-530.225220
  0
LINE
  8
A-DIMS-2
 10
51.000000
 20
-528.725220
 11
54.000000
 21
-530.225220
  0
LINE
  8
A-DIMS-2
 10
25.760946
 20
-530.225220
 11
14.000000
 21
-530.225220
  0
LINE
  8
A-DIMS-2
 10
42.239054
 20
-530.225220
 11
54.000000
 21
-530.225220
  0
TEXT
  8
A-DIMS-2
 10
28.493093
 20
-532.847557
 40
5.487240
  1
3'4
  7
STANDARD
  0
LINE
  8
A-DIMS-2
 10
-125.000000
 20
-524.076345
 11
-122.000000
 21
-525.576345
  0
LINE
  8
A-DIMS-2
 10
-167.000000
 20
-527.076345
 11
-170.000000
 21
-525.576345
  0
LINE
  8
A-DIMS-2
 10
-140.121049
 20
-525.576345
 11
-122.000000
 21
-525.576345
  0
LINE
  8
A-DIMS-2
 10
-151.878951
 20
-525.576345
 11
-170.000000
 21
-525.576345
  0
TEXT
  8
A-DIMS-2
 10
-149.146804
 20
-528.198681
 40
5.487240
  1
4'
  7
STANDARD
  0
ENDSEC
  0
EOF
