  0
SECTION
  2
HEADER
  9
$ACADVER
  1
AC1006
  9
$EXTMIN
 10
-708.778200
 20
-941.833905
  9
$EXTMAX
 10
632.546961
 20
-13.745283
  9
$ANGDIR
 70
   0
  9
$LUNITS
 70
   2
  0
ENDSEC
  0
SECTION
  2
TABLES
  0
TABLE
  2
LTYPE
 70
   3
  0
LTYPE
  2
CONTINUOUS
 70
64
  3
SOLID LINE
 72
65
 73
0
 40
0.
  0
LTYPE
  2
DASHED
 70
64
  3
DASHED LINE
 72
65
 73
2
 40
8.
 49
5.
 49
-3.
  0
LTYPE
  2
DOTTED
 70
64
  3
DOTTED LINE
 72
65
 73
2
 40
4.
 49
2.
 49
-2.
  0
ENDTAB
  0
TABLE
  2
LAYER
 70
   15
  0
LAYER
  2
A-WALL-1
 70
64
 62
   7
  6
CONTINUOUS
  0
LAYER
  2
A-CASE-1
 70
64
 62
   7
  6
CONTINUOUS
  0
LAYER
  2
A-DIMS-1
 70
64
 62
   7
  6
CONTINUOUS
  0
LAYER
  2
A-POWR-1
 70
64
 62
   7
  6
CONTINUOUS
  0
LAYER
  2
A-NOTE-1
 70
64
 62
   7
  6
CONTINUOUS
  0
LAYER
  2
A-TEXT-1
 70
64
 62
   7
  6
CONTINUOUS
  0
LAYER
  2
A-FURN-1
 70
64
 62
   7
  6
CONTINUOUS
  0
LAYER
  2
A-GLAZ-1
 70
64
 62
   7
  6
CONTINUOUS
  0
LAYER
  2
A-STAR-1
 70
64
 62
   7
  6
CONTINUOUS
  0
LAYER
  2
A-ROOF-1
 70
64
 62
   7
  6
CONTINUOUS
  0
LAYER
  2
A-C000-1
 70
64
 62
   7
  6
CONTINUOUS
  0
ENDTAB
  0
ENDSEC
  0
SECTION
  2
BLOCKS
  0
BLOCK
  8
A-CASE-1
  2
FIXT-Toilet
 70
64
 10
0.0
 20
0.0
  0
ARC
  8
A-CASE-1
 10
9.046126
 20
27.780609
 40
1.431891
 50
0.000000
 51
90.000000
  0
LINE
  8
A-CASE-1
 10
9.046126
 20
29.212500
 11
-9.046126
 21
29.212500
  0
ARC
  8
A-CASE-1
 10
-9.046126
 20
27.780609
 40
1.431891
 50
90.000000
 51
180.000000
  0
LINE
  8
A-CASE-1
 10
-10.478017
 20
27.780609
 11
-10.478017
 21
21.731952
  0
ARC
  8
A-CASE-1
 10
-9.046126
 20
21.731952
 40
1.431891
 50
180.000000
 51
270.000000
  0
LINE
  8
A-CASE-1
 10
-9.046126
 20
20.300061
 11
9.046126
 21
20.300061
  0
ARC
  8
A-CASE-1
 10
9.046126
 20
21.731952
 40
1.431891
 50
270.000000
 51
0.000000
  0
LINE
  8
A-CASE-1
 10
10.478017
 20
21.731952
 11
10.478017
 21
27.780609
  0
ARC
  8
A-CASE-1
 10
0.029649
 20
13.174761
 40
6.001594
 50
38.796550
 51
141.203450
  0
ARC
  8
A-CASE-1
 10
0.029649
 20
7.965448
 40
6.001594
 50
218.796550
 51
321.203450
  0
ARC
  8
A-CASE-1
 10
3.269587
 20
10.570105
 40
10.158689
 50
141.203449
 51
218.796551
  0
ARC
  8
A-CASE-1
 10
-3.210289
 20
10.570105
 40
10.158689
 50
321.203449
 51
38.796551
  0
ENDBLK
  0
BLOCK
  8
A-CASE-1
  2
FIXT-OvalFree
 70
64
 10
0.0
 20
0.0
  0
ARC
  8
A-CASE-1
 10
11.460326
 20
0.470522
 40
3.539272
 50
270.000000
 51
14.999997
  0
ARC
  8
A-CASE-1
 10
-11.460326
 20
0.470522
 40
3.539272
 50
165.000003
 51
270.000000
  0
LINE
  8
A-CASE-1
 10
11.460326
 20
-3.068750
 11
-11.460326
 21
-3.068750
  0
ARC
  8
A-CASE-1
 10
-8.247561
 20
12.460728
 40
3.539272
 50
90.000000
 51
165.000003
  0
LINE
  8
A-CASE-1
 10
-14.879001
 20
1.386553
 11
-11.666235
 21
13.376759
  0
ARC
  8
A-CASE-1
 10
8.247561
 20
12.460728
 40
3.539272
 50
14.999997
 51
90.000000
  0
LINE
  8
A-CASE-1
 10
-8.247561
 20
16.000000
 11
8.247561
 21
16.000000
  0
LINE
  8
A-CASE-1
 10
11.666235
 20
13.376759
 11
14.879001
 21
1.386553
  0
ARC
  8
A-CASE-1
 10
-3.168259
 20
6.212500
 40
5.846813
 50
127.551279
 51
232.448716
  0
ARC
  8
A-CASE-1
 10
3.138114
 20
6.212500
 40
5.846813
 50
307.551284
 51
52.448721
  0
ARC
  8
A-CASE-1
 10
-0.015072
 20
10.314206
 40
11.020456
 50
232.448718
 51
307.551282
  0
ARC
  8
A-CASE-1
 10
-0.015072
 20
2.110794
 40
11.020456
 50
52.448718
 51
127.551282
  0
CIRCLE
  8
A-CASE-1
 10
-0.015072
 20
8.659375
 40
0.646875
  0
CIRCLE
  8
A-CASE-1
 10
-0.015072
 20
8.659375
 40
1.040625
  0
ARC
  8
A-CASE-1
 10
2.271533
 20
14.545980
 40
0.835270
 50
0.000000
 51
90.000000
  0
LINE
  8
A-CASE-1
 10
2.271533
 20
15.381250
 11
-2.414177
 21
15.381250
  0
ARC
  8
A-CASE-1
 10
-2.414177
 20
14.545980
 40
0.835270
 50
90.000000
 51
180.000000
  0
LINE
  8
A-CASE-1
 10
-3.249447
 20
14.545980
 11
-3.249447
 21
14.585270
  0
ARC
  8
A-CASE-1
 10
-2.414177
 20
14.585270
 40
0.835270
 50
180.000000
 51
270.000000
  0
LINE
  8
A-CASE-1
 10
-2.414177
 20
13.750000
 11
2.271533
 21
13.750000
  0
ARC
  8
A-CASE-1
 10
2.271533
 20
14.585270
 40
0.835270
 50
270.000000
 51
0.000000
  0
LINE
  8
A-CASE-1
 10
3.106803
 20
14.585270
 11
3.106803
 21
14.545980
  0
ENDBLK
  0
BLOCK
  8
A-CASE-1
  2
FIXT-fire3618
 70
64
 10
0.0
 20
0.0
  0
LINE
  8
A-CASE-1
 10
29.948162
 20
-6.079029
 11
29.948162
 21
-24.979031
  0
LINE
  8
A-CASE-1
 10
29.948162
 20
-24.979031
 11
-29.948162
 21
-24.979031
  0
LINE
  8
A-CASE-1
 10
-29.948162
 20
-24.979031
 11
-29.948162
 21
-6.079029
  0
LINE
  8
A-CASE-1
 10
6.591125
 20
11.525184
 11
-6.587155
 21
11.525184
  0
LINE
  8
A-CASE-1
 10
-6.587155
 20
11.525184
 11
-6.587155
 21
-1.653096
  0
LINE
  8
A-CASE-1
 10
-6.587155
 20
-1.653096
 11
6.591125
 21
-1.653096
  0
LINE
  8
A-CASE-1
 10
6.591125
 20
-1.653096
 11
6.591125
 21
11.525184
  0
LINE
  8
A-CASE-1
 10
-17.736944
 20
-5.384176
 11
17.843761
 21
-5.384176
  0
CIRCLE
  8
A-CASE-1
 10
0.001985
 20
5.075015
 40
5.945351
  0
LINE
  8
A-CASE-1
 10
18.029947
 20
-6.079029
 11
13.185582
 21
12.000382
  0
LINE
  8
A-CASE-1
 10
13.185582
 20
12.000382
 11
-13.078766
 21
12.000382
  0
LINE
  8
A-CASE-1
 10
-13.078766
 20
12.000382
 11
-17.923130
 21
-6.079029
  0
LINE
  8
A-CASE-1
 10
-17.923130
 20
-6.079029
 11
18.029947
 21
-6.079029
  0
ENDBLK
  0
BLOCK
  8
A-FURN-1
  2
FIXT-rndc42
 70
64
 10
0.0
 20
0.0
  0
CIRCLE
  8
A-FURN-1
 10
-0.009039
 20
28.824127
 40
21.104097
  0
CIRCLE
  8
A-FURN-1
 10
-0.009039
 20
28.824127
 40
19.946480
  0
LINE
  8
A-FURN-1
 10
9.089798
 20
47.923764
 11
9.089798
 21
56.815706
  0
LINE
  8
A-FURN-1
 10
-18.933153
 20
19.900810
 11
-27.825096
 21
19.900810
  0
LINE
  8
A-FURN-1
 10
18.933153
 20
38.080408
 11
27.825096
 21
38.080408
  0
LINE
  8
A-FURN-1
 10
-9.089798
 20
10.057457
 11
-9.089798
 21
1.165512
  0
ARC
  8
A-FURN-1
 10
0.094195
 20
23.243660
 40
34.756340
 50
74.999999
 51
90.000000
  0
ARC
  8
A-FURN-1
 10
5.746951
 20
28.896416
 40
34.756340
 50
180.000000
 51
195.000004
  0
ARC
  8
A-FURN-1
 10
-5.746951
 20
29.084805
 40
34.756340
 50
0.000000
 51
15.000001
  0
ARC
  8
A-FURN-1
 10
-0.094195
 20
34.737560
 40
34.756340
 50
255.000000
 51
270.000000
  0
ARC
  8
A-FURN-1
 10
0.094195
 20
23.243660
 40
34.756340
 50
90.000000
 51
105.000000
  0
ARC
  8
A-FURN-1
 10
5.746951
 20
28.896416
 40
34.756340
 50
165.000002
 51
180.000000
  0
ARC
  8
A-FURN-1
 10
-5.746951
 20
29.084805
 40
34.756340
 50
345.000002
 51
0.000000
  0
ARC
  8
A-FURN-1
 10
-0.094195
 20
34.737560
 40
34.756340
 50
270.000000
 51
285.000000
  0
LINE
  8
A-FURN-1
 10
-8.901408
 20
56.815706
 11
-8.901408
 21
48.300543
  0
LINE
  8
A-FURN-1
 10
-27.825096
 20
37.892017
 11
-19.309933
 21
37.892017
  0
LINE
  8
A-FURN-1
 10
27.825096
 20
20.089203
 11
19.309933
 21
20.089203
  0
LINE
  8
A-FURN-1
 10
8.901408
 20
1.165512
 11
8.901408
 21
9.680676
  0
LINE
  8
A-FURN-1
 10
-8.844481
 20
55.839813
 11
9.146725
 21
55.839813
  0
LINE
  8
A-FURN-1
 10
-26.849203
 20
37.835093
 11
-26.849203
 21
19.843887
  0
LINE
  8
A-FURN-1
 10
26.849203
 20
20.146130
 11
26.849203
 21
38.137335
  0
LINE
  8
A-FURN-1
 10
8.844481
 20
2.141407
 11
-9.146725
 21
2.141407
  0
ENDBLK
  0
BLOCK
  8
A-CASE-1
  2
FIXT-Rng30G
 70
64
 10
0.0
 20
0.0
  0
CIRCLE
  8
A-CASE-1
 10
-1.386597
 20
4.287418
 40
0.658514
  0
CIRCLE
  8
A-CASE-1
 10
1.386597
 20
4.287418
 40
0.658514
  0
CIRCLE
  8
A-CASE-1
 10
-1.386597
 20
6.740335
 40
0.658514
  0
CIRCLE
  8
A-CASE-1
 10
1.386597
 20
6.740335
 40
0.658514
  0
LINE
  8
A-CASE-1
 10
15.020404
 20
22.978688
 11
-14.973826
 21
22.978688
  0
LINE
  8
A-CASE-1
 10
-14.973826
 20
22.978688
 11
-14.973826
 21
1.788042
  0
LINE
  8
A-CASE-1
 10
-14.973826
 20
1.788042
 11
15.020404
 21
1.788042
  0
LINE
  8
A-CASE-1
 10
15.020404
 20
1.788042
 11
15.020404
 21
22.978688
  0
LINE
  8
A-CASE-1
 10
2.729433
 20
8.282631
 11
-2.729433
 21
8.282631
  0
LINE
  8
A-CASE-1
 10
-2.729433
 20
8.282631
 11
-2.729433
 21
2.896271
  0
LINE
  8
A-CASE-1
 10
-2.729433
 20
2.896271
 11
2.729433
 21
2.896271
  0
LINE
  8
A-CASE-1
 10
2.729433
 20
2.896271
 11
2.729433
 21
8.282631
  0
ARC
  8
A-CASE-1
 10
-6.053693
 20
19.843595
 40
1.372175
 50
0.000000
 51
90.000000
  0
LINE
  8
A-CASE-1
 10
-6.053693
 20
21.215769
 11
-11.491113
 21
21.215769
  0
ARC
  8
A-CASE-1
 10
-11.491113
 20
19.843595
 40
1.372175
 50
90.000000
 51
180.000000
  0
LINE
  8
A-CASE-1
 10
-12.863287
 20
19.843595
 11
-12.863287
 21
5.764959
  0
ARC
  8
A-CASE-1
 10
-11.491113
 20
5.764959
 40
1.372175
 50
180.000000
 51
270.000000
  0
LINE
  8
A-CASE-1
 10
-11.491113
 20
4.392784
 11
-6.053693
 21
4.392784
  0
ARC
  8
A-CASE-1
 10
-6.053693
 20
5.764959
 40
1.372175
 50
270.000000
 51
0.000000
  0
LINE
  8
A-CASE-1
 10
-4.681518
 20
5.764959
 11
-4.681518
 21
19.843595
  0
ARC
  8
A-CASE-1
 10
11.491113
 20
19.843595
 40
1.372175
 50
0.000000
 51
90.000000
  0
LINE
  8
A-CASE-1
 10
11.491113
 20
21.215769
 11
6.053693
 21
21.215769
  0
ARC
  8
A-CASE-1
 10
6.053693
 20
19.843595
 40
1.372175
 50
90.000000
 51
180.000000
  0
LINE
  8
A-CASE-1
 10
4.681518
 20
19.843595
 11
4.681518
 21
5.764959
  0
ARC
  8
A-CASE-1
 10
6.053693
 20
5.764959
 40
1.372175
 50
180.000000
 51
270.000000
  0
LINE
  8
A-CASE-1
 10
6.053693
 20
4.392784
 11
11.491113
 21
4.392784
  0
ARC
  8
A-CASE-1
 10
11.491113
 20
5.764959
 40
1.372175
 50
270.000000
 51
0.000000
  0
LINE
  8
A-CASE-1
 10
12.863287
 20
5.764959
 11
12.863287
 21
19.843595
  0
LINE
  8
A-CASE-1
 10
-12.790816
 20
13.361172
 11
-4.617591
 21
13.361172
  0
LINE
  8
A-CASE-1
 10
12.790816
 20
13.361172
 11
4.617591
 21
13.361172
  0
LINE
  8
A-CASE-1
 10
-12.863288
 20
12.255005
 11
-4.694096
 21
12.255005
  0
LINE
  8
A-CASE-1
 10
12.863288
 20
12.255005
 11
4.694096
 21
12.255005
  0
CIRCLE
  8
A-CASE-1
 10
-8.805153
 20
17.171340
 40
1.101392
  0
CIRCLE
  8
A-CASE-1
 10
8.805153
 20
17.171340
 40
1.101392
  0
CIRCLE
  8
A-CASE-1
 10
-8.805153
 20
8.582155
 40
1.101392
  0
CIRCLE
  8
A-CASE-1
 10
8.805153
 20
8.582155
 40
1.101392
  0
LINE
  8
A-CASE-1
 10
15.006241
 20
25.411114
 11
-14.996781
 21
25.411114
  0
LINE
  8
A-CASE-1
 10
-14.996781
 20
25.411114
 11
-14.996781
 21
22.947097
  0
LINE
  8
A-CASE-1
 10
-14.996781
 20
22.947097
 11
15.006241
 21
22.947097
  0
LINE
  8
A-CASE-1
 10
15.006241
 20
22.947097
 11
15.006241
 21
25.411114
  0
LINE
  8
A-CASE-1
 10
9.136084
 20
1.133307
 11
-9.126624
 21
1.133307
  0
LINE
  8
A-CASE-1
 10
-9.126624
 20
1.133307
 11
-9.126624
 21
0.553539
  0
LINE
  8
A-CASE-1
 10
-9.126624
 20
0.553539
 11
9.136084
 21
0.553539
  0
LINE
  8
A-CASE-1
 10
9.136084
 20
0.553539
 11
9.136084
 21
1.133307
  0
ENDBLK
  0
BLOCK
  8
A-FURN-1
  2
FIXT-shelf4
 70
64
 10
0.0
 20
0.0
  0
LINE
  8
A-FURN-1
 10
23.873684
 20
12.000000
 11
23.873684
 21
0.063158
  0
LINE
  8
A-FURN-1
 10
23.873684
 20
0.063158
 11
-23.873684
 21
0.063158
  0
LINE
  8
A-FURN-1
 10
-23.873684
 20
0.063158
 11
-23.873684
 21
12.000000
  0
LINE
  8
A-FURN-1
 10
-23.873684
 20
12.000000
 11
23.873684
 21
12.000000
  0
ENDBLK
  0
BLOCK
  8
A-FURN-1
  2
FIXT-book1230
 70
64
 10
0.0
 20
0.0
  0
LINE
  8
A-FURN-1
 10
14.997981
 20
5.987784
 11
-14.997981
 21
5.987784
  0
LINE
  8
A-FURN-1
 10
-14.997981
 20
5.987784
 11
-14.997981
 21
-5.987784
  0
LINE
  8
A-FURN-1
 10
-14.997981
 20
-5.987784
 11
14.997981
 21
-5.987784
  0
LINE
  8
A-FURN-1
 10
14.997981
 20
-5.987784
 11
14.997981
 21
5.987784
  0
ENDBLK
  0
BLOCK
  8
A-CASE-1
  2
FIXT-DishWash
 70
64
 10
0.0
 20
0.0
  0
LINE
  8
A-CASE-1
 10
12.019889
 20
10.345085
 11
-12.019889
 21
10.345085
  0
LINE
  8
A-CASE-1
 10
-12.019889
 20
10.345085
 11
-12.019889
 21
9.229315
  0
LINE
  8
A-CASE-1
 10
-12.019889
 20
9.229315
 11
12.019889
 21
9.229315
  0
LINE
  8
A-CASE-1
 10
12.019889
 20
9.229315
 11
12.019889
 21
10.345085
  0
LINE
  8
A-CASE-1
 10
4.361647
 20
9.229315
 11
4.361647
 21
8.519279
  0
LINE
  8
A-CASE-1
 10
4.361647
 20
8.519279
 11
-4.260214
 21
8.519279
  0
LINE
  8
A-CASE-1
 10
-4.260214
 20
8.519279
 11
-4.260214
 21
9.229315
  0
ARC
  8
A-CASE-1
 10
-7.282481
 20
21.323973
 40
5.269653
 50
270.000000
 51
0.000000
  0
ARC
  8
A-CASE-1
 10
-7.282481
 20
21.323973
 40
5.269653
 50
0.000000
 51
90.000000
  0
LINE
  8
A-CASE-1
 10
-7.282481
 20
26.593626
 11
-7.282481
 21
16.054319
  0
LINE
  8
A-CASE-1
 10
8.012980
 20
26.475399
 11
5.227346
 21
16.079269
  0
LINE
  8
A-CASE-1
 10
5.227346
 20
16.079269
 11
3.365992
 21
23.025938
  0
LINE
  8
A-CASE-1
 10
3.365992
 20
23.025938
 11
1.504146
 21
16.077431
  0
LINE
  8
A-CASE-1
 10
1.504146
 20
16.077431
 11
-1.276819
 21
26.456131
  0
ENDBLK
  0
BLOCK
  8
A-CASE-1
  2
FIXT-ref002
 70
64
 10
0.0
 20
0.0
  0
LINE
  8
A-CASE-1
 10
14.968905
 20
6.038666
 11
14.968905
 21
34.000000
  0
LINE
  8
A-CASE-1
 10
14.968905
 20
34.000000
 11
-15.027038
 21
34.000000
  0
LINE
  8
A-CASE-1
 10
-15.027038
 20
34.000000
 11
-15.027038
 21
6.038666
  0
LINE
  8
A-CASE-1
 10
-15.027038
 20
6.038666
 11
14.968905
 21
6.038666
  0
LINE
  8
A-CASE-1
 10
-11.074083
 20
6.038666
 11
-11.074083
 21
4.004057
  0
LINE
  8
A-CASE-1
 10
-11.074083
 20
4.004057
 11
-13.050561
 21
4.004057
  0
LINE
  8
A-CASE-1
 10
-13.050561
 20
4.004057
 11
-13.050561
 21
6.038666
  0
LINE
  8
A-CASE-1
 10
-15.027038
 20
7.026903
 11
14.968905
 21
7.026903
  0
LINE
  8
A-CASE-1
 10
-13.050561
 20
4.934164
 11
-11.074083
 21
4.934164
  0
ENDBLK
  0
BLOCK
  8
A-CASE-1
  2
FIXT-OffKit32
 70
64
 10
0.0
 20
0.0
  0
ARC
  8
A-CASE-1
 10
13.994499
 20
31.991375
 40
2.008625
 50
0.000000
 51
90.000000
  0
LINE
  8
A-CASE-1
 10
13.994499
 20
34.000000
 11
-13.994499
 21
34.000000
  0
ARC
  8
A-CASE-1
 10
-13.994499
 20
31.991375
 40
2.008625
 50
90.000000
 51
180.000000
  0
LINE
  8
A-CASE-1
 10
-16.003124
 20
31.991375
 11
-16.003124
 21
15.027375
  0
ARC
  8
A-CASE-1
 10
-13.994499
 20
15.027375
 40
2.008625
 50
180.000000
 51
270.000000
  0
LINE
  8
A-CASE-1
 10
-13.994499
 20
13.018749
 11
13.994499
 21
13.018749
  0
ARC
  8
A-CASE-1
 10
13.994499
 20
15.027375
 40
2.008625
 50
270.000000
 51
0.000000
  0
LINE
  8
A-CASE-1
 10
16.003124
 20
15.027375
 11
16.003124
 21
31.991375
  0
CIRCLE
  8
A-CASE-1
 10
6.018750
 20
22.581250
 40
1.631250
  0
ARC
  8
A-CASE-1
 10
5.028379
 20
32.615879
 40
0.596621
 50
0.000000
 51
90.000000
  0
LINE
  8
A-CASE-1
 10
5.028379
 20
33.212500
 11
-5.028379
 21
33.212500
  0
ARC
  8
A-CASE-1
 10
-5.028379
 20
32.615879
 40
0.596621
 50
90.000000
 51
180.000000
  0
LINE
  8
A-CASE-1
 10
-5.625000
 20
32.615879
 11
-5.625000
 21
31.671621
  0
ARC
  8
A-CASE-1
 10
-5.028379
 20
31.671621
 40
0.596621
 50
180.000000
 51
270.000000
  0
LINE
  8
A-CASE-1
 10
-5.028379
 20
31.075000
 11
5.028379
 21
31.075000
  0
ARC
  8
A-CASE-1
 10
5.028379
 20
31.671621
 40
0.596621
 50
270.000000
 51
0.000000
  0
LINE
  8
A-CASE-1
 10
5.625000
 20
31.671621
 11
5.625000
 21
32.615879
  0
CIRCLE
  8
A-CASE-1
 10
-9.281250
 20
22.693750
 40
1.631250
  0
CIRCLE
  8
A-CASE-1
 10
-9.281250
 20
22.693750
 40
1.068750
  0
ARC
  8
A-CASE-1
 10
12.660733
 20
28.941983
 40
1.233017
 50
0.000000
 51
90.000000
  0
LINE
  8
A-CASE-1
 10
12.660733
 20
30.175000
 11
-0.623232
 21
30.175000
  0
ARC
  8
A-CASE-1
 10
-0.623232
 20
28.941983
 40
1.233017
 50
90.000000
 51
180.000000
  0
LINE
  8
A-CASE-1
 10
-1.856250
 20
28.941983
 11
-1.856250
 21
16.333018
  0
ARC
  8
A-CASE-1
 10
-0.623232
 20
16.333018
 40
1.233017
 50
180.000000
 51
270.000000
  0
LINE
  8
A-CASE-1
 10
-0.623232
 20
15.100000
 11
12.660733
 21
15.100000
  0
ARC
  8
A-CASE-1
 10
12.660733
 20
16.333018
 40
1.233017
 50
270.000000
 51
0.000000
  0
LINE
  8
A-CASE-1
 10
13.893750
 20
16.333018
 11
13.893750
 21
28.941983
  0
ARC
  8
A-CASE-1
 10
-5.676768
 20
28.941983
 40
1.233017
 50
0.000000
 51
90.000000
  0
LINE
  8
A-CASE-1
 10
-5.676768
 20
30.175000
 11
-12.773233
 21
30.175000
  0
ARC
  8
A-CASE-1
 10
-12.773233
 20
28.941983
 40
1.233017
 50
90.000000
 51
180.000000
  0
LINE
  8
A-CASE-1
 10
-14.006250
 20
28.941983
 11
-14.006250
 21
16.333018
  0
ARC
  8
A-CASE-1
 10
-12.773233
 20
16.333018
 40
1.233017
 50
180.000000
 51
270.000000
  0
LINE
  8
A-CASE-1
 10
-12.773233
 20
15.100000
 11
-5.676768
 21
15.100000
  0
ARC
  8
A-CASE-1
 10
-5.676768
 20
16.333018
 40
1.233017
 50
270.000000
 51
0.000000
  0
LINE
  8
A-CASE-1
 10
-4.443750
 20
16.333018
 11
-4.443750
 21
28.941983
  0
CIRCLE
  8
A-CASE-1
 10
6.018750
 20
22.581250
 40
1.068750
  0
ENDBLK
  0
BLOCK
  8
A-FURN-1
  2
FIXT-sofa9
 70
64
 10
0.0
 20
0.0
  0
LINE
  8
A-FURN-1
 10
-31.492083
 20
25.951424
 11
31.492083
 21
25.951424
  0
LINE
  8
A-FURN-1
 10
31.492083
 20
-0.000111
 11
31.492083
 21
35.000000
  0
LINE
  8
A-FURN-1
 10
31.492083
 20
35.000000
 11
-31.492083
 21
35.000000
  0
LINE
  8
A-FURN-1
 10
-31.492083
 20
35.000000
 11
-31.492083
 21
-0.000111
  0
LINE
  8
A-FURN-1
 10
-31.492083
 20
34.025538
 11
-36.503601
 21
34.025538
  0
LINE
  8
A-FURN-1
 10
-36.503601
 20
34.025538
 11
-36.503601
 21
0.069420
  0
LINE
  8
A-FURN-1
 10
-36.503601
 20
0.069420
 11
-36.362141
 21
0.069420
  0
LINE
  8
A-FURN-1
 10
-10.433709
 20
-0.000111
 11
-10.433709
 21
33.313622
  0
LINE
  8
A-FURN-1
 10
31.492083
 20
34.025538
 11
36.503601
 21
34.025538
  0
LINE
  8
A-FURN-1
 10
36.503601
 20
34.025538
 11
36.503601
 21
0.013851
  0
LINE
  8
A-FURN-1
 10
36.503601
 20
0.013851
 11
-36.208988
 21
0.013851
  0
LINE
  8
A-FURN-1
 10
-31.481930
 20
33.313622
 11
31.511307
 21
33.313622
  0
LINE
  8
A-FURN-1
 10
-31.481930
 20
28.013710
 11
31.511307
 21
28.013710
  0
LINE
  8
A-FURN-1
 10
10.463085
 20
-0.000111
 11
10.463085
 21
33.313622
  0
ENDBLK
  0
BLOCK
  8
A-FURN-1
  2
FIXT-Sofa12
 70
64
 10
0.0
 20
0.0
  0
LINE
  8
A-FURN-1
 10
-0.061025
 20
-0.000111
 11
-0.061025
 21
33.313622
  0
LINE
  8
A-FURN-1
 10
-22.482233
 20
25.951424
 11
22.482233
 21
25.951424
  0
LINE
  8
A-FURN-1
 10
22.482233
 20
-0.000111
 11
22.482233
 21
35.000000
  0
LINE
  8
A-FURN-1
 10
22.482233
 20
35.000000
 11
-22.482233
 21
35.000000
  0
LINE
  8
A-FURN-1
 10
-22.482233
 20
35.000000
 11
-22.482233
 21
-0.000111
  0
LINE
  8
A-FURN-1
 10
-22.482233
 20
34.025538
 11
-27.493752
 21
34.025538
  0
LINE
  8
A-FURN-1
 10
-27.493752
 20
34.025538
 11
-27.493752
 21
0.069420
  0
LINE
  8
A-FURN-1
 10
-27.493752
 20
0.069420
 11
-27.352289
 21
0.069420
  0
LINE
  8
A-FURN-1
 10
22.482233
 20
34.025538
 11
27.493752
 21
34.025538
  0
LINE
  8
A-FURN-1
 10
27.493752
 20
34.025538
 11
27.493752
 21
0.013851
  0
LINE
  8
A-FURN-1
 10
27.493752
 20
0.013851
 11
-27.199137
 21
0.013851
  0
LINE
  8
A-FURN-1
 10
-22.472080
 20
33.313622
 11
22.501457
 21
33.313622
  0
LINE
  8
A-FURN-1
 10
-22.472080
 20
28.013710
 11
22.501457
 21
28.013710
  0
ENDBLK
  0
BLOCK
  8
A-FURN-1
  2
FIXT-armcnt1
 70
64
 10
0.0
 20
0.0
  0
LINE
  8
A-FURN-1
 10
-10.440000
 20
33.762500
 11
10.620000
 21
33.762500
  0
LINE
  8
A-FURN-1
 10
-10.440000
 20
26.472500
 11
10.530000
 21
26.472500
  0
LINE
  8
A-FURN-1
 10
10.597500
 20
25.010000
 11
-10.417500
 21
25.010000
  0
LINE
  8
A-FURN-1
 10
-10.417500
 20
25.010000
 11
-10.417500
 21
35.000000
  0
LINE
  8
A-FURN-1
 10
-10.417500
 20
35.000000
 11
10.597500
 21
35.000000
  0
LINE
  8
A-FURN-1
 10
10.597500
 20
35.000000
 11
10.597500
 21
25.010000
  0
LINE
  8
A-FURN-1
 10
-10.440000
 20
34.032500
 11
-15.480000
 21
34.032500
  0
LINE
  8
A-FURN-1
 10
-15.480000
 20
34.032500
 11
-15.480000
 21
0.012501
  0
LINE
  8
A-FURN-1
 10
-15.480000
 20
0.012501
 11
15.480000
 21
0.012501
  0
LINE
  8
A-FURN-1
 10
15.480000
 20
0.012501
 11
15.480000
 21
34.032500
  0
LINE
  8
A-FURN-1
 10
15.480000
 20
34.032500
 11
10.620000
 21
34.032500
  0
LINE
  8
A-FURN-1
 10
-9.540000
 20
25.032500
 11
-9.540000
 21
0.012501
  0
ARC
  8
A-FURN-1
 10
-12.510000
 20
-5.131691
 40
5.940000
 50
60.000002
 51
90.000000
  0
ARC
  8
A-FURN-1
 10
-12.510000
 20
-5.131691
 40
5.940000
 50
90.000000
 51
119.999990
  0
LINE
  8
A-FURN-1
 10
9.720000
 20
25.032500
 11
9.720000
 21
0.012501
  0
ARC
  8
A-FURN-1
 10
12.600000
 20
-4.975807
 40
5.760000
 50
60.000015
 51
90.000000
  0
ARC
  8
A-FURN-1
 10
12.600000
 20
-4.975807
 40
5.760000
 50
90.000000
 51
119.999993
  0
ENDBLK
  0
BLOCK
  8
A-FURN-1
  2
FIXT-cof43636
 70
64
 10
0.0
 20
0.0
  0
ARC
  8
A-FURN-1
 10
14.295259
 20
-14.535706
 40
3.695187
 50
270.000000
 51
0.000000
  0
ARC
  8
A-FURN-1
 10
-14.295259
 20
-14.535706
 40
3.695187
 50
180.000000
 51
270.000000
  0
LINE
  8
A-FURN-1
 10
14.295259
 20
-18.230892
 11
-14.295259
 21
-18.230892
  0
ARC
  8
A-FURN-1
 10
-14.295259
 20
14.054813
 40
3.695187
 50
90.000000
 51
180.000000
  0
LINE
  8
A-FURN-1
 10
-17.990446
 20
-14.535706
 11
-17.990446
 21
14.054813
  0
ARC
  8
A-FURN-1
 10
14.295259
 20
14.054813
 40
3.695187
 50
0.000000
 51
90.000000
  0
LINE
  8
A-FURN-1
 10
-14.295259
 20
17.750000
 11
14.295259
 21
17.750000
  0
LINE
  8
A-FURN-1
 10
17.990446
 20
14.054813
 11
17.990446
 21
-14.535706
  0
LINE
  8
A-FURN-1
 10
15.004284
 20
14.763838
 11
15.004284
 21
-15.244728
  0
LINE
  8
A-FURN-1
 10
15.004284
 20
-15.244728
 11
-15.004284
 21
-15.244728
  0
LINE
  8
A-FURN-1
 10
-15.004284
 20
-15.244728
 11
-15.004284
 21
14.763838
  0
LINE
  8
A-FURN-1
 10
-15.004284
 20
14.763838
 11
15.004284
 21
14.763838
  0
ENDBLK
  0
BLOCK
  8
A-FURN-1
  2
FIXT-cof32048
 70
64
 10
0.0
 20
0.0
  0
LINE
  8
A-FURN-1
 10
21.035700
 20
10.433300
 11
21.035700
 21
24.523250
  0
LINE
  8
A-FURN-1
 10
21.035700
 20
24.523250
 11
-21.035700
 21
24.523250
  0
LINE
  8
A-FURN-1
 10
-21.035700
 20
24.523250
 11
-21.035700
 21
10.433300
  0
LINE
  8
A-FURN-1
 10
-21.035700
 20
10.433300
 11
21.035700
 21
10.433300
  0
ARC
  8
A-FURN-1
 10
20.878517
 20
24.366067
 40
3.133933
 50
0.000000
 51
90.000000
  0
ARC
  8
A-FURN-1
 10
20.878517
 20
10.590483
 40
3.133933
 50
270.000000
 51
0.000000
  0
LINE
  8
A-FURN-1
 10
24.012449
 20
24.366067
 11
24.012449
 21
10.590483
  0
ARC
  8
A-FURN-1
 10
-20.878517
 20
10.590483
 40
3.133933
 50
180.000000
 51
270.000000
  0
LINE
  8
A-FURN-1
 10
20.878517
 20
7.456551
 11
-20.878517
 21
7.456551
  0
ARC
  8
A-FURN-1
 10
-20.878517
 20
24.366067
 40
3.133933
 50
90.000000
 51
180.000000
  0
LINE
  8
A-FURN-1
 10
-24.012449
 20
10.590483
 11
-24.012449
 21
24.366067
  0
LINE
  8
A-FURN-1
 10
-20.878517
 20
27.500000
 11
20.878517
 21
27.500000
  0
ENDBLK
  0
BLOCK
  8
A-FURN-1
  2
FIXT-armhb1
 70
64
 10
0.0
 20
0.0
  0
LINE
  8
A-FURN-1
 10
-11.979450
 20
30.762500
 11
12.126600
 21
30.762500
  0
LINE
  8
A-FURN-1
 10
-11.979450
 20
23.472500
 11
12.036600
 21
23.472500
  0
LINE
  8
A-FURN-1
 10
12.104100
 20
22.010000
 11
-12.007800
 21
22.010000
  0
LINE
  8
A-FURN-1
 10
-12.007800
 20
22.010000
 11
-12.007800
 21
32.000000
  0
LINE
  8
A-FURN-1
 10
-12.007800
 20
32.000000
 11
12.104100
 21
32.000000
  0
LINE
  8
A-FURN-1
 10
12.104100
 20
32.000000
 11
12.104100
 21
22.010000
  0
LINE
  8
A-FURN-1
 10
-10.711800
 20
21.948800
 11
-10.711800
 21
-3.071201
  0
LINE
  8
A-FURN-1
 10
11.226600
 20
22.032500
 11
11.226600
 21
-2.987499
  0
LINE
  8
A-FURN-1
 10
-11.979450
 20
31.032500
 11
-16.986601
 21
31.032500
  0
LINE
  8
A-FURN-1
 10
-16.986601
 20
31.032500
 11
-16.986601
 21
-2.987499
  0
LINE
  8
A-FURN-1
 10
-16.986601
 20
-2.987499
 11
16.986601
 21
-2.987499
  0
LINE
  8
A-FURN-1
 10
16.986601
 20
-2.987499
 11
16.986601
 21
31.032500
  0
LINE
  8
A-FURN-1
 10
16.986601
 20
31.032500
 11
12.126600
 21
31.032500
  0
ENDBLK
  0
BLOCK
  8
A-FURN-1
  2
FIXT-Ottoman
 70
64
 10
0.0
 20
0.0
  0
LINE
  8
A-FURN-1
 10
-12.999037
 20
15.931201
 11
-12.999037
 21
-1.986157
  0
LINE
  8
A-FURN-1
 10
-12.999037
 20
-1.986157
 11
12.998699
 21
-1.986157
  0
LINE
  8
A-FURN-1
 10
12.998699
 20
-1.986157
 11
12.998699
 21
15.931201
  0
LINE
  8
A-FURN-1
 10
12.998699
 20
15.931201
 11
-12.999037
 21
15.931201
  0
LINE
  8
A-FURN-1
 10
-12.296395
 20
15.228559
 11
-12.296395
 21
-1.283516
  0
LINE
  8
A-FURN-1
 10
-12.296395
 20
-1.283516
 11
12.296058
 21
-1.283516
  0
LINE
  8
A-FURN-1
 10
12.296058
 20
-1.283516
 11
12.296058
 21
15.228559
  0
LINE
  8
A-FURN-1
 10
12.296058
 20
15.228559
 11
-12.296395
 21
15.228559
  0
LINE
  8
A-FURN-1
 10
-12.315520
 20
15.228425
 11
-13.087095
 21
16.000000
  0
LINE
  8
A-FURN-1
 10
-12.315520
 20
-1.271404
 11
-13.087095
 21
-2.042978
  0
LINE
  8
A-FURN-1
 10
12.315520
 20
-1.271404
 11
13.027743
 21
-1.983627
  0
LINE
  8
A-FURN-1
 10
12.315520
 20
15.228425
 11
13.087095
 21
16.000000
  0
ENDBLK
  0
BLOCK
  8
A-FURN-1
  2
FIXT-bar001
 70
64
 10
0.0
 20
0.0
  0
CIRCLE
  8
A-FURN-1
 10
-0.000000
 20
9.516543
 40
8.501451
  0
LINE
  8
A-FURN-1
 10
-8.449296
 20
10.507510
 11
-9.492418
 21
10.507510
  0
LINE
  8
A-FURN-1
 10
-9.492418
 20
10.507510
 11
-9.492418
 21
8.525577
  0
LINE
  8
A-FURN-1
 10
-9.492418
 20
8.525577
 11
-8.501451
 21
8.525577
  0
LINE
  8
A-FURN-1
 10
8.449296
 20
10.455354
 11
9.492418
 21
10.455354
  0
LINE
  8
A-FURN-1
 10
9.492418
 20
10.455354
 11
9.492418
 21
8.525577
  0
LINE
  8
A-FURN-1
 10
9.492418
 20
8.525577
 11
8.397140
 21
8.525577
  0
LINE
  8
A-FURN-1
 10
-0.990967
 20
1.067247
 11
-0.990967
 21
0.024124
  0
LINE
  8
A-FURN-1
 10
-0.990967
 20
0.024124
 11
0.990967
 21
0.024124
  0
LINE
  8
A-FURN-1
 10
0.990967
 20
0.024124
 11
0.990967
 21
1.119404
  0
ARC
  8
A-FURN-1
 10
-0.026150
 20
10.455354
 40
9.518569
 50
0.000000
 51
89.842594
  0
ARC
  8
A-FURN-1
 10
-0.026007
 20
10.507510
 40
9.466413
 50
89.842594
 51
180.000000
  0
ENDBLK
  0
BLOCK
  8
A-FURN-1
  2
FIXT-phonewal
 70
64
 10
0.0
 20
0.0
  0
LINE
  8
A-FURN-1
 10
3.494718
 20
1.983148
 11
-3.529491
 21
1.983148
  0
LINE
  8
A-FURN-1
 10
-3.529491
 20
1.983148
 11
-3.529491
 21
4.000000
  0
LINE
  8
A-FURN-1
 10
-3.529491
 20
4.000000
 11
3.494718
 21
4.000000
  0
LINE
  8
A-FURN-1
 10
3.494718
 20
4.000000
 11
3.494718
 21
1.983148
  0
LINE
  8
A-FURN-1
 10
-0.678080
 20
1.983148
 11
-0.678080
 21
0.661762
  0
LINE
  8
A-FURN-1
 10
-0.678080
 20
0.661762
 11
-3.112211
 21
0.661762
  0
LINE
  8
A-FURN-1
 10
-3.112211
 20
0.661762
 11
-3.112211
 21
1.983148
  0
ENDBLK
  0
BLOCK
  8
A-FURN-1
  2
FIXT-nmdcar
 70
64
 10
0.0
 20
0.0
  0
ARC
  8
A-FURN-1
 10
26.419789
 20
188.796920
 40
11.592521
 50
0.000000
 51
90.000000
  0
LINE
  8
A-FURN-1
 10
26.419789
 20
200.389441
 11
-26.419789
 21
200.389441
  0
ARC
  8
A-FURN-1
 10
-26.419789
 20
188.796920
 40
11.592521
 50
90.000000
 51
180.000000
  0
LINE
  8
A-FURN-1
 10
-38.012310
 20
188.796920
 11
-38.012310
 21
11.965430
  0
ARC
  8
A-FURN-1
 10
-26.419789
 20
11.965430
 40
11.592521
 50
180.000000
 51
270.000000
  0
LINE
  8
A-FURN-1
 10
-26.419789
 20
0.372910
 11
26.419789
 21
0.372910
  0
ARC
  8
A-FURN-1
 10
26.419789
 20
11.965430
 40
11.592521
 50
270.000000
 51
0.000000
  0
LINE
  8
A-FURN-1
 10
38.012310
 20
11.965430
 11
38.012310
 21
188.796920
  0
LINE
  8
A-FURN-1
 10
31.067225
 20
199.346043
 11
31.067225
 21
64.692261
  0
ARC
  8
A-FURN-1
 10
0.263446
 20
179.653530
 40
119.016663
 50
255.000000
 51
270.000000
  0
ARC
  8
A-FURN-1
 10
0.263446
 20
179.653530
 40
119.016663
 50
270.000000
 51
285.000000
  0
LINE
  8
A-FURN-1
 10
-30.540333
 20
64.692261
 11
-30.540333
 21
200.050500
  0
ARC
  8
A-FURN-1
 10
0.364651
 20
54.614639
 40
118.616867
 50
75.000000
 51
90.051503
  0
ARC
  8
A-FURN-1
 10
0.366117
 20
52.983749
 40
120.247765
 50
90.051503
 51
105.000000
  0
ARC
  8
A-FURN-1
 10
0.130872
 20
67.906494
 40
119.520126
 50
74.999999
 51
89.994277
  0
ARC
  8
A-FURN-1
 10
0.130891
 20
68.087692
 40
119.338913
 50
89.994277
 51
105.000000
  0
LINE
  8
A-FURN-1
 10
27.794628
 20
0.436264
 11
27.794628
 21
90.853699
  0
ARC
  8
A-FURN-1
 10
1.916868
 20
202.226134
 40
114.796402
 50
255.000000
 51
269.497418
  0
ARC
  8
A-FURN-1
 10
1.791198
 20
187.899817
 40
100.469536
 50
269.497418
 51
285.000000
  0
LINE
  8
A-FURN-1
 10
-27.794628
 20
91.341324
 11
-27.794628
 21
0.436264
  0
ENDBLK
  0
BLOCK
  8
A-FURN-1
  2
FIXT-nsmcar
 70
64
 10
0.0
 20
0.0
  0
ARC
  8
A-FURN-1
 10
23.453835
 20
175.310849
 40
10.689151
 50
0.000000
 51
90.000000
  0
LINE
  8
A-FURN-1
 10
23.453835
 20
186.000000
 11
-23.453835
 21
186.000000
  0
ARC
  8
A-FURN-1
 10
-23.453835
 20
175.310849
 40
10.689151
 50
90.000000
 51
180.000000
  0
LINE
  8
A-FURN-1
 10
-34.142986
 20
175.310849
 11
-34.142986
 21
10.596850
  0
ARC
  8
A-FURN-1
 10
-23.453835
 20
10.596850
 40
10.689151
 50
180.000000
 51
270.000000
  0
LINE
  8
A-FURN-1
 10
-23.453835
 20
-0.092300
 11
23.453835
 21
-0.092300
  0
ARC
  8
A-FURN-1
 10
23.453835
 20
10.596850
 40
10.689151
 50
270.000000
 51
0.000000
  0
LINE
  8
A-FURN-1
 10
34.142986
 20
10.596850
 11
34.142986
 21
175.310849
  0
LINE
  8
A-FURN-1
 10
27.346468
 20
185.719318
 11
27.346468
 21
62.660217
  0
ARC
  8
A-FURN-1
 10
0.000000
 20
164.718620
 40
105.658638
 50
254.999999
 51
270.000000
  0
ARC
  8
A-FURN-1
 10
0.000000
 20
164.718620
 40
105.658638
 50
270.000000
 51
285.000001
  0
LINE
  8
A-FURN-1
 10
-27.346468
 20
62.660217
 11
-27.346468
 21
185.278246
  0
ARC
  8
A-FURN-1
 10
-0.000000
 20
29.850128
 40
105.658638
 50
74.999999
 51
90.000000
  0
ARC
  8
A-FURN-1
 10
-0.000000
 20
29.850128
 40
105.658638
 50
90.000000
 51
105.000001
  0
ARC
  8
A-FURN-1
 10
0.000000
 20
45.728714
 40
105.658638
 50
75.000000
 51
90.000000
  0
ARC
  8
A-FURN-1
 10
0.000000
 20
45.728714
 40
105.658638
 50
90.000000
 51
105.000000
  0
LINE
  8
A-FURN-1
 10
25.141108
 20
0.469055
 11
25.141108
 21
84.272743
  0
ARC
  8
A-FURN-1
 10
1.733867
 20
185.012586
 40
103.836922
 50
254.999999
 51
269.497418
  0
ARC
  8
A-FURN-1
 10
1.620195
 20
172.053985
 40
90.877823
 50
269.497418
 51
285.000000
  0
LINE
  8
A-FURN-1
 10
-25.141108
 20
84.713821
 11
-25.141108
 21
0.027985
  0
ENDBLK
  0
BLOCK
  8
A-FURN-1
  2
FIXT-desk0002
 70
64
 10
0.0
 20
0.0
  0
LINE
  8
A-FURN-1
 10
-32.973190
 20
41.962778
 11
-32.973190
 21
72.000000
  0
LINE
  8
A-FURN-1
 10
-32.973190
 20
72.000000
 11
32.973190
 21
72.000000
  0
LINE
  8
A-FURN-1
 10
32.973190
 20
72.000000
 11
32.973190
 21
41.962778
  0
LINE
  8
A-FURN-1
 10
32.973190
 20
41.962778
 11
-32.973190
 21
41.962778
  0
LINE
  8
A-FURN-1
 10
-32.973190
 20
-0.044159
 11
-8.920829
 21
-0.044159
  0
LINE
  8
A-FURN-1
 10
-8.920829
 20
-0.044159
 11
-8.920829
 21
41.962778
  0
LINE
  8
A-FURN-1
 10
-8.920829
 20
41.962778
 11
-32.973190
 21
41.962778
  0
LINE
  8
A-FURN-1
 10
-32.973190
 20
41.962778
 11
-32.973190
 21
-0.044159
  0
ENDBLK
  0
BLOCK
  8
A-POWR-1
  2
FIXT-GFI_Out
 70
64
 10
0.0
 20
0.0
  0
CIRCLE
  8
A-POWR-1
 10
-0.006993
 20
-5.734540
 40
3.254864
  0
LINE
  8
A-POWR-1
 10
-1.973961
 20
-8.380580
 11
-1.973961
 21
-0.000000
  0
LINE
  8
A-POWR-1
 10
2.006808
 20
-8.286915
 11
2.006808
 21
-0.000000
  0
TEXT
  8
A-POWR-1
 10
-2.388809
 20
-15.531415
 40
2.286350
  1
GFI
  7
STANDARD
  0
ENDBLK
  0
BLOCK
  8
A-POWR-1
  2
FIXT-WP_Out
 70
64
 10
0.0
 20
0.0
  0
CIRCLE
  8
A-POWR-1
 10
-0.006993
 20
-5.734540
 40
3.254864
  0
LINE
  8
A-POWR-1
 10
-1.973961
 20
-8.380580
 11
-1.973961
 21
-0.000000
  0
LINE
  8
A-POWR-1
 10
2.006808
 20
-8.286915
 11
2.006808
 21
-0.000000
  0
TEXT
  8
A-POWR-1
 10
-2.432515
 20
-15.531415
 40
2.286350
  1
WP
  7
STANDARD
  0
ENDBLK
  0
BLOCK
  8
A-POWR-1
  2
FIXT-Light
 70
64
 10
0.0
 20
0.0
  0
LINE
  8
A-POWR-1
 10
-0.014999
 20
-9.119638
 11
-0.014999
 21
-11.759534
  0
CIRCLE
  8
A-POWR-1
 10
-0.006993
 20
-5.860310
 40
3.254864
  0
LINE
  8
A-POWR-1
 10
-0.024039
 20
-2.609896
 11
-0.024039
 21
0.000000
  0
LINE
  8
A-POWR-1
 10
3.254871
 20
-5.849768
 11
5.864768
 21
-5.849768
  0
LINE
  8
A-POWR-1
 10
-3.254871
 20
-5.909766
 11
-5.864768
 21
-5.909766
  0
ENDBLK
  0
BLOCK
  8
A-POWR-1
  2
FIXT-RecLight
 70
64
 10
0.0
 20
0.0
  0
CIRCLE
  8
A-POWR-1
 10
-0.000000
 20
-3.524853
 40
3.524853
  0
ENDBLK
  0
BLOCK
  8
A-POWR-1
  2
FIXT-DualSpot
 70
64
 10
0.0
 20
0.0
  0
CIRCLE
  8
A-POWR-1
 10
-0.022810
 20
-0.719971
 40
0.719971
  0
LINE
  8
A-POWR-1
 10
0.937152
 20
-0.959962
 11
9.454506
 21
-3.242180
  0
LINE
  8
A-POWR-1
 10
9.454506
 20
-3.242180
 11
4.472240
 21
-8.224445
  0
LINE
  8
A-POWR-1
 10
4.472240
 20
-8.224445
 11
0.607165
 21
-1.529939
  0
LINE
  8
A-POWR-1
 10
-1.155265
 20
-1.004027
 11
-9.454506
 21
-3.227802
  0
LINE
  8
A-POWR-1
 10
-9.454506
 20
-3.227802
 11
-4.571973
 21
-8.110334
  0
LINE
  8
A-POWR-1
 10
-4.571973
 20
-8.110334
 11
-0.772780
 21
-1.529939
  0
ENDBLK
  0
BLOCK
  8
A-POWR-1
  2
FIXT-RecExFan
 70
64
 10
0.0
 20
0.0
  0
CIRCLE
  8
A-POWR-1
 10
-0.000000
 20
-3.884839
 40
3.884839
  0
ARC
  8
A-POWR-1
 10
2.327786
 20
-1.592827
 40
3.304456
 50
224.999998
 51
264.898271
  0
ARC
  8
A-POWR-1
 10
2.224729
 20
-2.747166
 40
2.145526
 50
264.898272
 51
315.000000
  0
ARC
  8
A-POWR-1
 10
2.374045
 20
-4.546449
 40
1.721091
 50
44.999994
 51
99.462325
  0
ARC
  8
A-POWR-1
 10
2.727214
 20
-6.665462
 40
3.869332
 50
99.462323
 51
134.999999
  0
ARC
  8
A-POWR-1
 10
-2.386747
 20
-3.343154
 40
1.684494
 50
225.000000
 51
279.573780
  0
ARC
  8
A-POWR-1
 10
-2.742678
 20
-1.232889
 40
3.824566
 50
279.573776
 51
314.999999
  0
ARC
  8
A-POWR-1
 10
-2.342464
 20
-6.241427
 40
3.258577
 50
44.999999
 51
84.289404
  0
ARC
  8
A-POWR-1
 10
-2.218059
 20
-4.997380
 40
2.008325
 50
84.289407
 51
135.000000
  0
ENDBLK
  0
BLOCK
  8
A-POWR-1
  2
FIXT-RLiteFan
 70
64
 10
0.0
 20
0.0
  0
LINE
  8
A-POWR-1
 10
-0.014999
 20
-9.749613
 11
-0.014999
 21
-11.759534
  0
CIRCLE
  8
A-POWR-1
 10
-0.006993
 20
-5.860310
 40
3.884839
  0
LINE
  8
A-POWR-1
 10
-0.024039
 20
-1.979921
 11
-0.024039
 21
0.000000
  0
LINE
  8
A-POWR-1
 10
3.884846
 20
-5.849768
 11
5.864768
 21
-5.849768
  0
LINE
  8
A-POWR-1
 10
-3.884846
 20
-5.909766
 11
-5.864768
 21
-5.909766
  0
ARC
  8
A-POWR-1
 10
2.320793
 20
-3.568298
 40
3.304456
 50
225.000001
 51
264.898271
  0
ARC
  8
A-POWR-1
 10
2.217736
 20
-4.722637
 40
2.145526
 50
264.898271
 51
315.000005
  0
ARC
  8
A-POWR-1
 10
2.367052
 20
-6.521920
 40
1.721091
 50
45.000006
 51
99.462325
  0
ARC
  8
A-POWR-1
 10
2.720221
 20
-8.640932
 40
3.869332
 50
99.462323
 51
134.999999
  0
ARC
  8
A-POWR-1
 10
-2.393740
 20
-5.318624
 40
1.684494
 50
225.000000
 51
279.573780
  0
ARC
  8
A-POWR-1
 10
-2.749672
 20
-3.208359
 40
3.824566
 50
279.573779
 51
315.000000
  0
ARC
  8
A-POWR-1
 10
-2.349457
 20
-8.216898
 40
3.258577
 50
45.000000
 51
84.289405
  0
ARC
  8
A-POWR-1
 10
-2.225052
 20
-6.972850
 40
2.008325
 50
84.289407
 51
135.000005
  0
ENDBLK
  0
BLOCK
  8
A-POWR-1
  2
FIXT-CeilFan
 70
64
 10
0.0
 20
0.0
  0
CIRCLE
  8
A-POWR-1
 10
0.059998
 20
-17.043396
 40
1.272742
  0
CIRCLE
  8
A-POWR-1
 10
0.059998
 20
-17.043396
 40
2.924427
  0
ARC
  8
A-POWR-1
 10
13.759789
 20
-3.195919
 40
3.157881
 50
44.999995
 51
68.497820
  0
ARC
  8
A-POWR-1
 10
-13.759789
 20
-3.195919
 40
3.157881
 50
111.502180
 51
135.000005
  0
ARC
  8
A-POWR-1
 10
-13.787480
 20
-30.743187
 40
3.157881
 50
201.502202
 51
225.000012
  0
ARC
  8
A-POWR-1
 10
13.787480
 20
-30.743187
 40
3.157881
 50
314.999988
 51
338.497798
  0
ARC
  8
A-POWR-1
 10
13.787480
 20
-3.223610
 40
3.157881
 50
21.502174
 51
45.000006
  0
ARC
  8
A-POWR-1
 10
-13.787480
 20
-3.223610
 40
3.157881
 50
134.999994
 51
158.497826
  0
ARC
  8
A-POWR-1
 10
-13.759789
 20
-30.770880
 40
3.157881
 50
224.999976
 51
248.497821
  0
ARC
  8
A-POWR-1
 10
13.759789
 20
-30.770880
 40
3.157881
 50
291.502179
 51
315.000024
  0
ARC
  8
A-POWR-1
 10
13.559463
 20
-3.704422
 40
3.704422
 50
68.497835
 51
91.982695
  0
ARC
  8
A-POWR-1
 10
-13.559463
 20
-3.704422
 40
3.704422
 50
88.017305
 51
111.502165
  0
ARC
  8
A-POWR-1
 10
-13.278977
 20
-30.542860
 40
3.704422
 50
178.017334
 51
201.502197
  0
ARC
  8
A-POWR-1
 10
13.278977
 20
-30.542860
 40
3.704422
 50
338.497803
 51
1.982666
  0
ARC
  8
A-POWR-1
 10
13.278977
 20
-3.423937
 40
3.704422
 50
358.017315
 51
21.502173
  0
ARC
  8
A-POWR-1
 10
-13.278977
 20
-3.423937
 40
3.704422
 50
158.497827
 51
181.982685
  0
ARC
  8
A-POWR-1
 10
-13.559463
 20
-30.262377
 40
3.704422
 50
248.497835
 51
271.982695
  0
ARC
  8
A-POWR-1
 10
13.559463
 20
-30.262377
 40
3.704422
 50
268.017305
 51
291.502165
  0
LINE
  8
A-POWR-1
 10
13.431298
 20
-0.002218
 11
2.343979
 21
-11.089537
  0
LINE
  8
A-POWR-1
 10
-13.431298
 20
-0.002218
 11
-2.343979
 21
-11.089537
  0
LINE
  8
A-POWR-1
 10
-16.981180
 20
-30.414698
 11
-5.893862
 21
-19.327377
  0
LINE
  8
A-POWR-1
 10
16.981180
 20
-30.414698
 11
5.893862
 21
-19.327377
  0
LINE
  8
A-POWR-1
 10
16.981180
 20
-3.552100
 11
5.893862
 21
-14.639420
  0
LINE
  8
A-POWR-1
 10
-16.981180
 20
-3.552100
 11
-5.893862
 21
-14.639420
  0
LINE
  8
A-POWR-1
 10
-13.431298
 20
-33.964581
 11
-2.343979
 21
-22.877260
  0
LINE
  8
A-POWR-1
 10
13.431298
 20
-33.964581
 11
2.343979
 21
-22.877260
  0
LINE
  8
A-POWR-1
 10
2.343979
 20
-11.089537
 11
2.343979
 21
-13.427375
  0
LINE
  8
A-POWR-1
 10
-2.343979
 20
-11.089537
 11
-2.343979
 21
-13.427375
  0
LINE
  8
A-POWR-1
 10
-5.893862
 20
-19.327377
 11
-3.556024
 21
-19.327377
  0
LINE
  8
A-POWR-1
 10
5.893862
 20
-19.327377
 11
3.556024
 21
-19.327377
  0
LINE
  8
A-POWR-1
 10
5.893862
 20
-14.639420
 11
3.556024
 21
-14.639420
  0
LINE
  8
A-POWR-1
 10
-5.893862
 20
-14.639420
 11
-3.556024
 21
-14.639420
  0
LINE
  8
A-POWR-1
 10
-2.343979
 20
-22.877260
 11
-2.343979
 21
-20.539423
  0
LINE
  8
A-POWR-1
 10
2.343979
 20
-22.877260
 11
2.343979
 21
-20.539423
  0
LINE
  8
A-POWR-1
 10
2.343979
 20
-13.427375
 11
2.967628
 21
-14.051023
  0
LINE
  8
A-POWR-1
 10
-2.343979
 20
-13.427375
 11
-2.967628
 21
-14.051023
  0
LINE
  8
A-POWR-1
 10
-3.556024
 20
-19.327377
 11
-2.932375
 21
-19.951027
  0
LINE
  8
A-POWR-1
 10
3.556024
 20
-19.327377
 11
2.932375
 21
-19.951027
  0
LINE
  8
A-POWR-1
 10
3.556024
 20
-14.639420
 11
2.932375
 21
-14.015770
  0
LINE
  8
A-POWR-1
 10
-3.556024
 20
-14.639420
 11
-2.932375
 21
-14.015770
  0
LINE
  8
A-POWR-1
 10
-2.343979
 20
-20.539423
 11
-2.967628
 21
-19.915773
  0
LINE
  8
A-POWR-1
 10
2.343979
 20
-20.539423
 11
2.967628
 21
-19.915773
  0
ENDBLK
  0
BLOCK
  8
A-POWR-1
  2
FIXT-3_Way
 70
64
 10
0.0
 20
0.0
  0
LINE
  8
A-POWR-1
 10
1.506088
 20
-2.396511
 11
-2.053707
 21
-2.396511
  0
ARC
  8
A-POWR-1
 10
-2.053707
 20
-4.016987
 40
1.620476
 50
90.000000
 51
181.041633
  0
ARC
  8
A-POWR-1
 10
-1.993710
 20
-4.015897
 40
1.680484
 50
181.041622
 51
270.000000
  0
LINE
  8
A-POWR-1
 10
-1.993710
 20
-5.696380
 11
-0.263288
 21
-5.696380
  0
ARC
  8
A-POWR-1
 10
-0.173292
 20
-7.420123
 40
1.636124
 50
270.000000
 51
1.534338
  0
ARC
  8
A-POWR-1
 10
-0.263288
 20
-7.422534
 40
1.726153
 50
1.534347
 51
90.000000
  0
LINE
  8
A-POWR-1
 10
-0.173292
 20
-9.056247
 11
-3.662938
 21
-9.056247
  0
LINE
  8
A-POWR-1
 10
-1.156680
 20
-0.026605
 11
-1.156680
 21
-11.036168
  0
TEXT
  8
A-POWR-1
 10
0.389112
 20
-14.431763
 40
2.743620
  1
3
  7
STANDARD
  0
ENDBLK
  0
BLOCK
  8
A-POWR-1
  2
FIXT-4_Way
 70
64
 10
0.0
 20
0.0
  0
LINE
  8
A-POWR-1
 10
1.506088
 20
-2.396511
 11
-2.053707
 21
-2.396511
  0
ARC
  8
A-POWR-1
 10
-2.053707
 20
-4.016987
 40
1.620476
 50
90.000000
 51
181.041633
  0
ARC
  8
A-POWR-1
 10
-1.993710
 20
-4.015897
 40
1.680484
 50
181.041622
 51
270.000000
  0
LINE
  8
A-POWR-1
 10
-1.993710
 20
-5.696380
 11
-0.263288
 21
-5.696380
  0
ARC
  8
A-POWR-1
 10
-0.173292
 20
-7.420123
 40
1.636124
 50
270.000000
 51
1.534338
  0
ARC
  8
A-POWR-1
 10
-0.263288
 20
-7.422534
 40
1.726153
 50
1.534347
 51
90.000000
  0
LINE
  8
A-POWR-1
 10
-0.173292
 20
-9.056247
 11
-3.662938
 21
-9.056247
  0
LINE
  8
A-POWR-1
 10
-1.156680
 20
-0.026605
 11
-1.156680
 21
-11.036168
  0
TEXT
  8
A-POWR-1
 10
0.389112
 20
-14.431763
 40
2.743620
  1
4
  7
STANDARD
  0
ENDBLK
  0
BLOCK
  8
A-POWR-1
  2
FIXT-5_Way
 70
64
 10
0.0
 20
0.0
  0
LINE
  8
A-POWR-1
 10
1.506088
 20
-2.396511
 11
-2.053707
 21
-2.396511
  0
ARC
  8
A-POWR-1
 10
-2.053707
 20
-4.016987
 40
1.620476
 50
90.000000
 51
181.041633
  0
ARC
  8
A-POWR-1
 10
-1.993710
 20
-4.015897
 40
1.680484
 50
181.041622
 51
270.000000
  0
LINE
  8
A-POWR-1
 10
-1.993710
 20
-5.696380
 11
-0.263288
 21
-5.696380
  0
ARC
  8
A-POWR-1
 10
-0.173292
 20
-7.420123
 40
1.636124
 50
270.000000
 51
1.534338
  0
ARC
  8
A-POWR-1
 10
-0.263288
 20
-7.422534
 40
1.726153
 50
1.534347
 51
90.000000
  0
LINE
  8
A-POWR-1
 10
-0.173292
 20
-9.056247
 11
-3.662938
 21
-9.056247
  0
LINE
  8
A-POWR-1
 10
-1.156680
 20
-0.026605
 11
-1.156680
 21
-11.036168
  0
TEXT
  8
A-POWR-1
 10
0.389112
 20
-14.431763
 40
2.743620
  1
5
  7
STANDARD
  0
ENDBLK
  0
ENDSEC
  0
SECTION
  2
ENTITIES
  0
LINE
  8
A-WALL-1
 10
-270.000000
 20
-280.000000
 11
-270.000000
 21
-259.000000
  0
LINE
  8
A-WALL-1
 10
-274.000000
 20
-255.000000
 11
-274.000000
 21
-280.000000
  0
LINE
  8
A-WALL-1
 10
-270.000000
 20
-416.000000
 11
-270.000000
 21
-312.000000
  0
LINE
  8
A-WALL-1
 10
-274.000000
 20
-312.000000
 11
-274.000000
 21
-416.000000
  0
LINE
  8
A-WALL-1
 10
-270.000000
 20
-468.000000
 11
-270.000000
 21
-448.000000
  0
LINE
  8
A-WALL-1
 10
-274.000000
 20
-448.000000
 11
-274.000000
 21
-470.000000
  0
LINE
  8
A-GLAZ-1
 10
-274.000000
 20
-280.000000
 11
-270.000000
 21
-280.000000
  0
LINE
  8
A-GLAZ-1
 10
-270.000000
 20
-312.000000
 11
-274.000000
 21
-312.000000
  0
LINE
  8
A-GLAZ-1
 10
-270.000000
 20
-312.000000
 11
-270.000000
 21
-280.000000
  0
LINE
  8
A-GLAZ-1
 10
-274.000000
 20
-280.000000
 11
-274.000000
 21
-312.000000
  0
LINE
  8
A-GLAZ-1
 10
-272.000000
 20
-280.000000
 11
-272.000000
 21
-312.000000
  0
TEXT
  8
A-DIMS-1
 10
-278.458441
 20
-305.440412
 40
5.487240
  1
2862
 50
90.000000
  7
STANDARD
  0
LINE
  8
A-GLAZ-1
 10
-274.000000
 20
-416.000000
 11
-270.000000
 21
-416.000000
  0
LINE
  8
A-GLAZ-1
 10
-270.000000
 20
-448.000000
 11
-274.000000
 21
-448.000000
  0
LINE
  8
A-GLAZ-1
 10
-270.000000
 20
-448.000000
 11
-270.000000
 21
-416.000000
  0
LINE
  8
A-GLAZ-1
 10
-274.000000
 20
-416.000000
 11
-274.000000
 21
-448.000000
  0
LINE
  8
A-GLAZ-1
 10
-272.000000
 20
-416.000000
 11
-272.000000
 21
-448.000000
  0
TEXT
  8
A-DIMS-1
 10
-278.458441
 20
-441.440412
 40
5.487240
  1
2862
 50
90.000000
  7
STANDARD
  0
LINE
  8
A-WALL-1
 10
-268.000000
 20
-521.000000
 11
-268.000000
 21
-472.000000
  0
LINE
  8
A-WALL-1
 10
-274.000000
 20
-470.000000
 11
-274.000000
 21
-521.000000
  0
LINE
  8
A-WALL-1
 10
-268.000000
 20
-603.000000
 11
-268.000000
 21
-557.000000
  0
LINE
  8
A-WALL-1
 10
-274.000000
 20
-557.000000
 11
-274.000000
 21
-605.000000
  0
LINE
  8
A-GLAZ-1
 10
-274.000000
 20
-521.000000
 11
-268.000000
 21
-521.000000
  0
LINE
  8
A-GLAZ-1
 10
-268.000000
 20
-557.000000
 11
-274.000000
 21
-557.000000
  0
LINE
  8
A-GLAZ-1
 10
-268.000000
 20
-557.000000
 11
-268.000000
 21
-521.000000
  0
LINE
  8
A-GLAZ-1
 10
-274.000000
 20
-521.000000
 11
-274.000000
 21
-557.000000
  0
LINE
  8
A-GLAZ-1
 10
-271.000000
 20
-521.000000
 11
-271.000000
 21
-557.000000
  0
TEXT
  8
A-DIMS-1
 10
-278.458441
 20
-550.800515
 40
5.487240
  1
30610
 50
90.000000
  7
STANDARD
  0
LINE
  8
A-WALL-1
 10
-174.000000
 20
-641.145264
 11
-212.145279
 21
-603.000000
  0
LINE
  8
A-WALL-1
 10
-211.802139
 20
-609.000000
 11
-178.000000
 21
-642.802124
  0
LINE
  8
A-WALL-1
 10
78.000000
 20
-839.000000
 11
102.000000
 21
-839.000000
  0
LINE
  8
A-WALL-1
 10
98.000000
 20
-835.000000
 11
78.000000
 21
-835.000000
  0
LINE
  8
A-WALL-1
 10
-42.000000
 20
-839.000000
 11
-18.000000
 21
-839.000000
  0
LINE
  8
A-WALL-1
 10
-18.000000
 20
-835.000000
 11
-38.000000
 21
-835.000000
  0
LINE
  8
A-GLAZ-1
 10
78.000000
 20
-839.000000
 11
78.000000
 21
-835.000000
  0
LINE
  8
A-GLAZ-1
 10
-18.000000
 20
-839.000000
 11
-18.000000
 21
-835.000000
  0
LINE
  8
A-GLAZ-1
  6
DASHED
 10
78.000000
 20
-835.000000
 11
-18.000000
 21
-835.000000
  0
LINE
  8
A-GLAZ-1
  6
DASHED
 10
78.000000
 20
-758.920000
 11
-18.000000
 21
-758.920000
  0
LINE
  8
A-GLAZ-1
  6
DASHED
 10
78.000000
 20
-835.000000
 11
78.000000
 21
-758.920000
  0
LINE
  8
A-GLAZ-1
  6
DASHED
 10
-18.000000
 20
-835.000000
 11
-18.000000
 21
-758.920000
  0
LINE
  8
A-GLAZ-1
 10
78.000000
 20
-839.000000
 11
-18.000000
 21
-839.000000
  0
TEXT
  8
A-DIMS-1
 10
20.559588
 20
-848.703114
 40
5.487240
  1
8070
  7
STANDARD
  0
LINE
  8
A-WALL-1
 10
98.000000
 20
-807.000000
 11
98.000000
 21
-835.000000
  0
LINE
  8
A-WALL-1
 10
102.000000
 20
-839.000000
 11
102.000000
 21
-811.000000
  0
LINE
  8
A-WALL-1
 10
212.000000
 20
-811.000000
 11
230.000000
 21
-811.000000
  0
LINE
  8
A-WALL-1
 10
226.000000
 20
-807.000000
 11
212.000000
 21
-807.000000
  0
LINE
  8
A-WALL-1
 10
102.000000
 20
-811.000000
 11
116.000000
 21
-811.000000
  0
LINE
  8
A-WALL-1
 10
116.000000
 20
-807.000000
 11
98.000000
 21
-807.000000
  0
LINE
  8
A-GLAZ-1
 10
212.000000
 20
-811.000000
 11
212.000000
 21
-807.000000
  0
LINE
  8
A-GLAZ-1
 10
116.000000
 20
-811.000000
 11
116.000000
 21
-807.000000
  0
LINE
  8
A-GLAZ-1
  6
DASHED
 10
212.000000
 20
-807.000000
 11
116.000000
 21
-807.000000
  0
LINE
  8
A-GLAZ-1
  6
DASHED
 10
212.000000
 20
-730.920000
 11
116.000000
 21
-730.920000
  0
LINE
  8
A-GLAZ-1
  6
DASHED
 10
212.000000
 20
-807.000000
 11
212.000000
 21
-730.920000
  0
LINE
  8
A-GLAZ-1
  6
DASHED
 10
116.000000
 20
-807.000000
 11
116.000000
 21
-730.920000
  0
LINE
  8
A-GLAZ-1
 10
212.000000
 20
-811.000000
 11
116.000000
 21
-811.000000
  0
TEXT
  8
A-DIMS-1
 10
154.559588
 20
-820.703114
 40
5.487240
  1
8070
  7
STANDARD
  0
LINE
  8
A-WALL-1
 10
230.000000
 20
-267.000000
 11
230.000000
 21
-255.000000
  0
LINE
  8
A-WALL-1
 10
226.000000
 20
-259.000000
 11
226.000000
 21
-267.000000
  0
LINE
  8
A-WALL-1
 10
230.000000
 20
-331.000000
 11
230.000000
 21
-279.000000
  0
LINE
  8
A-WALL-1
 10
226.000000
 20
-279.000000
 11
226.000000
 21
-331.000000
  0
LINE
  8
A-WALL-1
 10
230.000000
 20
-395.000000
 11
230.000000
 21
-343.000000
  0
LINE
  8
A-WALL-1
 10
226.000000
 20
-343.000000
 11
226.000000
 21
-395.000000
  0
LINE
  8
A-WALL-1
 10
226.000000
 20
-407.000000
 11
226.000000
 21
-415.000000
  0
LINE
  8
A-WALL-1
 10
230.000000
 20
-436.000000
 11
230.000000
 21
-407.000000
  0
LINE
  8
A-WALL-1
 10
226.000000
 20
-419.000000
 11
226.000000
 21
-437.656860
  0
LINE
  8
A-WALL-1
 10
226.000000
 20
-544.343140
 11
226.000000
 21
-563.000000
  0
LINE
  8
A-WALL-1
 10
230.000000
 20
-571.000000
 11
230.000000
 21
-546.000000
  0
LINE
  8
A-WALL-1
 10
226.000000
 20
-567.000000
 11
226.000000
 21
-571.000000
  0
LINE
  8
A-WALL-1
 10
230.000000
 20
-811.000000
 11
230.000000
 21
-607.000000
  0
LINE
  8
A-WALL-1
 10
226.000000
 20
-607.000000
 11
226.000000
 21
-807.000000
  0
LINE
  8
A-GLAZ-1
 10
230.000000
 20
-279.000000
 11
226.000000
 21
-279.000000
  0
LINE
  8
A-GLAZ-1
 10
226.000000
 20
-267.000000
 11
230.000000
 21
-267.000000
  0
LINE
  8
A-GLAZ-1
 10
226.000000
 20
-267.000000
 11
226.000000
 21
-279.000000
  0
LINE
  8
A-GLAZ-1
 10
230.000000
 20
-279.000000
 11
230.000000
 21
-267.000000
  0
LINE
  8
A-GLAZ-1
 10
228.000000
 20
-279.000000
 11
228.000000
 21
-267.000000
  0
TEXT
  8
A-DIMS-1
 10
239.703114
 20
-282.440412
 40
5.487240
  1
1009
 50
90.000000
  7
STANDARD
  0
LINE
  8
A-GLAZ-1
 10
230.000000
 20
-343.000000
 11
226.000000
 21
-343.000000
  0
LINE
  8
A-GLAZ-1
 10
226.000000
 20
-331.000000
 11
230.000000
 21
-331.000000
  0
LINE
  8
A-GLAZ-1
 10
226.000000
 20
-331.000000
 11
226.000000
 21
-343.000000
  0
LINE
  8
A-GLAZ-1
 10
230.000000
 20
-343.000000
 11
230.000000
 21
-331.000000
  0
LINE
  8
A-GLAZ-1
 10
228.000000
 20
-343.000000
 11
228.000000
 21
-331.000000
  0
TEXT
  8
A-DIMS-1
 10
239.703114
 20
-346.440412
 40
5.487240
  1
1009
 50
90.000000
  7
STANDARD
  0
LINE
  8
A-GLAZ-1
 10
230.000000
 20
-407.000000
 11
226.000000
 21
-407.000000
  0
LINE
  8
A-GLAZ-1
 10
226.000000
 20
-395.000000
 11
230.000000
 21
-395.000000
  0
LINE
  8
A-GLAZ-1
 10
226.000000
 20
-395.000000
 11
226.000000
 21
-407.000000
  0
LINE
  8
A-GLAZ-1
 10
230.000000
 20
-407.000000
 11
230.000000
 21
-395.000000
  0
LINE
  8
A-GLAZ-1
 10
228.000000
 20
-407.000000
 11
228.000000
 21
-395.000000
  0
TEXT
  8
A-DIMS-1
 10
239.703114
 20
-410.440412
 40
5.487240
  1
1009
 50
90.000000
  7
STANDARD
  0
LINE
  8
A-WALL-1
 10
230.000000
 20
-436.000000
 11
233.459262
 21
-439.459262
  0
LINE
  8
A-WALL-1
 10
250.429825
 20
-456.429825
 11
254.000000
 21
-460.000000
  0
LINE
  8
A-WALL-1
 10
226.000000
 20
-437.656854
 11
230.630835
 21
-442.287689
  0
LINE
  8
A-WALL-1
 10
247.601398
 20
-459.258252
 11
250.000000
 21
-461.656854
  0
LINE
  8
A-GLAZ-1
 10
250.429825
 20
-456.429825
 11
247.601398
 21
-459.258252
  0
LINE
  8
A-GLAZ-1
 10
230.630835
 20
-442.287689
 11
233.459262
 21
-439.459262
  0
LINE
  8
A-GLAZ-1
 10
230.630835
 20
-442.287689
 11
247.601398
 21
-459.258252
  0
LINE
  8
A-GLAZ-1
 10
250.429825
 20
-456.429825
 11
233.459262
 21
-439.459262
  0
LINE
  8
A-GLAZ-1
 10
249.015611
 20
-457.844039
 11
232.045049
 21
-440.873476
  0
LINE
  8
A-WALL-1
 10
230.000000
 20
-546.000000
 11
233.459262
 21
-542.540738
  0
LINE
  8
A-WALL-1
 10
250.429825
 20
-525.570175
 11
254.000000
 21
-522.000000
  0
LINE
  8
A-WALL-1
 10
226.000000
 20
-544.343146
 11
230.630835
 21
-539.712311
  0
LINE
  8
A-WALL-1
 10
247.601398
 20
-522.741748
 11
250.000000
 21
-520.343146
  0
LINE
  8
A-GLAZ-1
 10
233.459262
 20
-542.540738
 11
230.630835
 21
-539.712311
  0
LINE
  8
A-GLAZ-1
 10
247.601398
 20
-522.741748
 11
250.429825
 21
-525.570175
  0
LINE
  8
A-GLAZ-1
 10
247.601398
 20
-522.741748
 11
230.630835
 21
-539.712311
  0
LINE
  8
A-GLAZ-1
 10
233.459262
 20
-542.540738
 11
250.429825
 21
-525.570175
  0
LINE
  8
A-GLAZ-1
 10
232.045049
 20
-541.126524
 11
249.015611
 21
-524.155961
  0
LINE
  8
A-WALL-1
 10
254.000000
 20
-460.000000
 11
254.000000
 21
-464.000000
  0
LINE
  8
A-WALL-1
 10
254.000000
 20
-518.000000
 11
254.000000
 21
-522.000000
  0
LINE
  8
A-WALL-1
 10
250.000000
 20
-461.656854
 11
250.000000
 21
-464.000000
  0
LINE
  8
A-WALL-1
 10
250.000000
 20
-518.000000
 11
250.000000
 21
-520.343146
  0
LINE
  8
A-GLAZ-1
 10
254.000000
 20
-518.000000
 11
250.000000
 21
-518.000000
  0
LINE
  8
A-GLAZ-1
 10
250.000000
 20
-464.000000
 11
254.000000
 21
-464.000000
  0
LINE
  8
A-GLAZ-1
 10
250.000000
 20
-464.000000
 11
250.000000
 21
-518.000000
  0
LINE
  8
A-GLAZ-1
 10
254.000000
 20
-518.000000
 11
254.000000
 21
-464.000000
  0
LINE
  8
A-GLAZ-1
 10
252.000000
 20
-518.000000
 11
252.000000
 21
-464.000000
  0
LINE
  8
A-DIMS-1
 10
238.920000
 20
-436.000000
 11
232.920000
 21
-436.000000
  0
LINE
  8
A-DIMS-1
 10
234.420000
 20
-439.000000
 11
235.920000
 21
-436.000000
  0
LINE
  8
A-DIMS-1
 10
238.920000
 20
-546.000000
 11
232.920000
 21
-546.000000
  0
LINE
  8
A-DIMS-1
 10
237.420000
 20
-543.000000
 11
235.920000
 21
-546.000000
  0
LINE
  8
A-DIMS-1
 10
235.920000
 20
-482.760946
 11
235.920000
 21
-436.000000
  0
LINE
  8
A-DIMS-1
 10
235.920000
 20
-499.239054
 11
235.920000
 21
-546.000000
  0
TEXT
  8
A-DIMS-1
 10
238.542337
 20
-496.506907
 40
5.487240
  1
9'2
 50
90.000000
  7
STANDARD
  0
LINE
  8
A-DIMS-1
 10
233.000000
 20
-419.500000
 11
230.000000
 21
-418.000000
  0
LINE
  8
A-DIMS-1
 10
254.000000
 20
-415.000000
 11
254.000000
 21
-431.000000
  0
LINE
  8
A-DIMS-1
 10
251.000000
 20
-416.500000
 11
254.000000
 21
-418.000000
  0
LINE
  8
A-DIMS-1
 10
236.121049
 20
-418.000000
 11
230.000000
 21
-418.000000
  0
LINE
  8
A-DIMS-1
 10
247.878951
 20
-418.000000
 11
254.000000
 21
-418.000000
  0
TEXT
  8
A-DIMS-1
 10
238.853196
 20
-420.622337
 40
5.487240
  1
2'
  7
STANDARD
  0
LINE
  8
A-DIMS-1
 10
247.000000
 20
-460.000000
 11
241.000000
 21
-460.000000
  0
LINE
  8
A-DIMS-1
 10
242.500000
 20
-463.000000
 11
244.000000
 21
-460.000000
  0
LINE
  8
A-DIMS-1
 10
247.000000
 20
-522.000000
 11
241.000000
 21
-522.000000
  0
LINE
  8
A-DIMS-1
 10
245.500000
 20
-519.000000
 11
244.000000
 21
-522.000000
  0
LINE
  8
A-DIMS-1
 10
244.000000
 20
-482.760946
 11
244.000000
 21
-460.000000
  0
LINE
  8
A-DIMS-1
 10
244.000000
 20
-499.239054
 11
244.000000
 21
-522.000000
  0
TEXT
  8
A-DIMS-1
 10
246.622337
 20
-496.506907
 40
5.487240
  1
5'2
 50
90.000000
  7
STANDARD
  0
TEXT
  8
A-DIMS-1
 10
238.421758
 20
-438.116571
 40
5.487240
  1
2062
 50
-44.900000
  7
STANDARD
  0
TEXT
  8
A-DIMS-1
 10
242.130302
 20
-547.591973
 40
5.487240
  1
2062
 50
44.900000
  7
STANDARD
  0
TEXT
  8
A-DIMS-1
 10
263.703114
 20
-500.440412
 40
5.487240
  1
4662
 50
90.000000
  7
STANDARD
  0
LINE
  8
A-GLAZ-1
 10
230.000000
 20
-571.000000
 11
226.000000
 21
-571.000000
  0
LINE
  8
A-GLAZ-1
 10
230.000000
 20
-607.000000
 11
226.000000
 21
-607.000000
  0
LINE
  8
A-GLAZ-1
 10
226.000000
 20
-571.000000
 11
190.000000
 21
-571.000000
  0
LINE
  8
A-GLAZ-1
 10
190.000000
 20
-572.750000
 11
226.000000
 21
-572.750000
  0
LINE
  8
A-GLAZ-1
 10
226.000000
 20
-572.750000
 11
226.000000
 21
-571.000000
  0
ARC
  8
A-GLAZ-1
 10
226.000000
 20
-571.000000
 40
36.000000
 50
180.000000
 51
270.000000
  0
LINE
  8
A-GLAZ-1
 10
230.000000
 20
-571.000000
 11
230.000000
 21
-607.000000
  0
TEXT
  8
A-DIMS-1
 10
239.703114
 20
-598.440412
 40
5.487240
  1
3068
 50
90.000000
  7
STANDARD
  0
LINE
  8
A-WALL-1
 10
-256.000000
 20
-255.000000
 11
-274.000000
 21
-255.000000
  0
LINE
  8
A-WALL-1
 10
-270.000000
 20
-259.000000
 11
-256.000000
 21
-259.000000
  0
LINE
  8
A-WALL-1
 10
-222.000000
 20
-255.000000
 11
-224.000000
 21
-255.000000
  0
LINE
  8
A-WALL-1
 10
-224.000000
 20
-259.000000
 11
-222.000000
 21
-259.000000
  0
LINE
  8
A-WALL-1
 10
-160.000000
 20
-255.000000
 11
-162.000000
 21
-255.000000
  0
LINE
  8
A-WALL-1
 10
-162.000000
 20
-259.000000
 11
-160.000000
 21
-259.000000
  0
LINE
  8
A-WALL-1
 10
-114.000000
 20
-255.000000
 11
-128.000000
 21
-255.000000
  0
LINE
  8
A-WALL-1
 10
-128.000000
 20
-259.000000
 11
-114.000000
 21
-259.000000
  0
LINE
  8
A-GLAZ-1
 10
-224.000000
 20
-255.000000
 11
-224.000000
 21
-259.000000
  0
LINE
  8
A-GLAZ-1
 10
-256.000000
 20
-259.000000
 11
-256.000000
 21
-255.000000
  0
LINE
  8
A-GLAZ-1
 10
-256.000000
 20
-259.000000
 11
-224.000000
 21
-259.000000
  0
LINE
  8
A-GLAZ-1
 10
-224.000000
 20
-255.000000
 11
-256.000000
 21
-255.000000
  0
LINE
  8
A-GLAZ-1
 10
-224.000000
 20
-257.000000
 11
-256.000000
 21
-257.000000
  0
TEXT
  8
A-DIMS-1
 10
-249.440412
 20
-250.541559
 40
5.487240
  1
2862
  7
STANDARD
  0
LINE
  8
A-GLAZ-1
 10
-222.000000
 20
-255.000000
 11
-222.000000
 21
-259.000000
  0
LINE
  8
A-GLAZ-1
 10
-162.000000
 20
-255.000000
 11
-162.000000
 21
-259.000000
  0
LINE
  8
A-GLAZ-1
 10
-222.000000
 20
-259.000000
 11
-222.000000
 21
-289.000000
  0
LINE
  8
A-GLAZ-1
 10
-220.250000
 20
-289.000000
 11
-220.250000
 21
-259.000000
  0
LINE
  8
A-GLAZ-1
 10
-220.250000
 20
-259.000000
 11
-222.000000
 21
-259.000000
  0
ARC
  8
A-GLAZ-1
 10
-222.000000
 20
-259.000000
 40
30.000000
 50
270.000000
 51
0.000000
  0
LINE
  8
A-GLAZ-1
 10
-162.000000
 20
-259.000000
 11
-162.000000
 21
-289.000000
  0
LINE
  8
A-GLAZ-1
 10
-163.750000
 20
-289.000000
 11
-163.750000
 21
-259.000000
  0
LINE
  8
A-GLAZ-1
 10
-163.750000
 20
-259.000000
 11
-162.000000
 21
-259.000000
  0
ARC
  8
A-GLAZ-1
 10
-162.000000
 20
-259.000000
 40
30.000000
 50
180.000000
 51
270.000000
  0
LINE
  8
A-GLAZ-1
 10
-222.000000
 20
-255.000000
 11
-162.000000
 21
-255.000000
  0
TEXT
  8
A-DIMS-1
 10
-203.800515
 20
-250.541559
 40
5.487240
  1
50710
  7
STANDARD
  0
LINE
  8
A-GLAZ-1
 10
-128.000000
 20
-255.000000
 11
-128.000000
 21
-259.000000
  0
LINE
  8
A-GLAZ-1
 10
-160.000000
 20
-259.000000
 11
-160.000000
 21
-255.000000
  0
LINE
  8
A-GLAZ-1
 10
-160.000000
 20
-259.000000
 11
-128.000000
 21
-259.000000
  0
LINE
  8
A-GLAZ-1
 10
-128.000000
 20
-255.000000
 11
-160.000000
 21
-255.000000
  0
LINE
  8
A-GLAZ-1
 10
-128.000000
 20
-257.000000
 11
-160.000000
 21
-257.000000
  0
TEXT
  8
A-DIMS-1
 10
-153.440412
 20
-250.541559
 40
5.487240
  1
2862
  7
STANDARD
  0
LINE
  8
A-WALL-1
 10
-110.000000
 20
-108.000000
 11
-110.000000
 21
-99.000000
  0
LINE
  8
A-WALL-1
 10
-114.000000
 20
-95.000000
 11
-114.000000
 21
-108.000000
  0
LINE
  8
A-WALL-1
 10
-114.000000
 20
-138.000000
 11
-114.000000
 21
-255.000000
  0
LINE
  8
A-WALL-1
 10
-110.000000
 20
-300.000000
 11
-110.000000
 21
-138.000000
  0
LINE
  8
A-WALL-1
 10
-114.000000
 20
-259.000000
 11
-114.000000
 21
-300.000000
  0
LINE
  8
A-WALL-1
 10
-110.000000
 20
-409.000000
 11
-110.000000
 21
-336.000000
  0
LINE
  8
A-WALL-1
 10
-114.000000
 20
-336.000000
 11
-114.000000
 21
-409.000000
  0
LINE
  8
A-GLAZ-1
 10
-110.000000
 20
-108.000000
 11
-114.000000
 21
-108.000000
  0
LINE
  8
A-GLAZ-1
 10
-110.000000
 20
-138.000000
 11
-114.000000
 21
-138.000000
  0
LINE
  8
A-GLAZ-1
 10
-110.000000
 20
-108.000000
 11
-106.084214
 21
-137.743346
  0
LINE
  8
A-GLAZ-1
 10
-107.819243
 20
-137.971767
 11
-111.735029
 21
-108.228421
  0
LINE
  8
A-GLAZ-1
 10
-111.735029
 20
-108.228421
 11
-110.000000
 21
-108.000000
  0
ARC
  8
A-GLAZ-1
 10
-110.000000
 20
-108.000000
 40
30.000000
 50
270.000000
 51
277.500000
  0
LINE
  8
A-GLAZ-1
 10
-114.000000
 20
-108.000000
 11
-114.000000
 21
-138.000000
  0
TEXT
  8
A-DIMS-1
 10
-118.458441
 20
-132.440412
 40
5.487240
  1
2668
 50
90.000000
  7
STANDARD
  0
LINE
  8
A-GLAZ-1
 10
-110.000000
 20
-300.000000
 11
-114.000000
 21
-300.000000
  0
LINE
  8
A-GLAZ-1
 10
-110.000000
 20
-336.000000
 11
-114.000000
 21
-336.000000
  0
TEXT
  8
A-DIMS-1
 10
-109.377663
 20
-327.440412
 40
5.487240
  1
3078
 50
90.000000
  7
STANDARD
  0
LINE
  8
A-WALL-1
  6
DOTTED
 10
70.000000
 20
-259.000000
 11
204.000000
 21
-259.000000
  0
LINE
  8
A-WALL-1
  6
DOTTED
 10
202.000000
 20
-257.000000
 11
72.000000
 21
-257.000000
  0
LINE
  8
A-WALL-1
 10
202.000000
 20
-231.000000
 11
202.000000
 21
-259.000000
  0
LINE
  8
A-WALL-1
 10
206.000000
 20
-255.000000
 11
206.000000
 21
-231.000000
  0
LINE
  8
A-WALL-1
 10
202.000000
 20
-175.000000
 11
202.000000
 21
-199.000000
  0
LINE
  8
A-WALL-1
 10
206.000000
 20
-199.000000
 11
206.000000
 21
-171.000000
  0
LINE
  8
A-GLAZ-1
 10
206.000000
 20
-231.000000
 11
202.000000
 21
-231.000000
  0
LINE
  8
A-GLAZ-1
 10
202.000000
 20
-199.000000
 11
206.000000
 21
-199.000000
  0
LINE
  8
A-GLAZ-1
 10
202.000000
 20
-199.000000
 11
202.000000
 21
-231.000000
  0
LINE
  8
A-GLAZ-1
 10
206.000000
 20
-231.000000
 11
206.000000
 21
-199.000000
  0
LINE
  8
A-GLAZ-1
 10
204.000000
 20
-231.000000
 11
204.000000
 21
-199.000000
  0
TEXT
  8
A-DIMS-1
 10
215.703114
 20
-224.440412
 40
5.487240
  1
2852
 50
90.000000
  7
STANDARD
  0
LINE
  8
A-WALL-1
 10
187.000000
 20
-175.000000
 11
202.000000
 21
-175.000000
  0
LINE
  8
A-WALL-1
 10
206.000000
 20
-171.000000
 11
187.000000
 21
-171.000000
  0
LINE
  8
A-WALL-1
 10
155.000000
 20
-175.000000
 11
157.000000
 21
-175.000000
  0
LINE
  8
A-WALL-1
 10
157.000000
 20
-171.000000
 11
155.000000
 21
-171.000000
  0
LINE
  8
A-WALL-1
 10
70.000000
 20
-175.000000
 11
93.000000
 21
-175.000000
  0
LINE
  8
A-WALL-1
 10
93.000000
 20
-171.000000
 11
74.000000
 21
-171.000000
  0
LINE
  8
A-GLAZ-1
 10
187.000000
 20
-171.000000
 11
187.000000
 21
-175.000000
  0
LINE
  8
A-GLAZ-1
 10
157.000000
 20
-175.000000
 11
157.000000
 21
-171.000000
  0
LINE
  8
A-GLAZ-1
 10
157.000000
 20
-175.000000
 11
187.000000
 21
-175.000000
  0
LINE
  8
A-GLAZ-1
 10
187.000000
 20
-171.000000
 11
157.000000
 21
-171.000000
  0
LINE
  8
A-GLAZ-1
 10
187.000000
 20
-173.000000
 11
157.000000
 21
-173.000000
  0
TEXT
  8
A-DIMS-1
 10
162.559588
 20
-166.541559
 40
5.487240
  1
2668
  7
STANDARD
  0
LINE
  8
A-GLAZ-1
 10
155.000000
 20
-175.000000
 11
155.000000
 21
-171.000000
  0
LINE
  8
A-GLAZ-1
 10
93.000000
 20
-175.000000
 11
93.000000
 21
-171.000000
  0
LINE
  8
A-GLAZ-1
 10
155.000000
 20
-173.000000
 11
124.000000
 21
-173.000000
  0
LINE
  8
A-GLAZ-1
 10
124.000000
 20
-173.000000
 11
124.000000
 21
-172.000000
  0
LINE
  8
A-GLAZ-1
 10
124.000000
 20
-172.000000
 11
155.000000
 21
-172.000000
  0
LINE
  8
A-GLAZ-1
 10
155.000000
 20
-172.000000
 11
155.000000
 21
-173.000000
  0
LINE
  8
A-GLAZ-1
 10
139.500000
 20
-175.000000
 11
108.500000
 21
-175.000000
  0
LINE
  8
A-GLAZ-1
 10
108.500000
 20
-175.000000
 11
108.500000
 21
-174.000000
  0
LINE
  8
A-GLAZ-1
 10
108.500000
 20
-174.000000
 11
139.500000
 21
-174.000000
  0
LINE
  8
A-GLAZ-1
 10
139.500000
 20
-174.000000
 11
139.500000
 21
-175.000000
  0
LINE
  8
A-GLAZ-1
 10
155.000000
 20
-171.000000
 11
93.000000
 21
-171.000000
  0
TEXT
  8
A-DIMS-1
 10
114.559588
 20
-166.541559
 40
5.487240
  1
5268
  7
STANDARD
  0
LINE
  8
A-WALL-1
  6
DOTTED
 10
70.000000
 20
-173.000000
 11
70.000000
 21
-259.000000
  0
LINE
  8
A-WALL-1
  6
DOTTED
 10
72.000000
 20
-257.000000
 11
72.000000
 21
-175.000000
  0
LINE
  8
A-WALL-1
 10
58.000000
 20
-99.000000
 11
70.000000
 21
-99.000000
  0
LINE
  8
A-WALL-1
 10
74.000000
 20
-95.000000
 11
58.000000
 21
-95.000000
  0
LINE
  8
A-WALL-1
 10
-62.000000
 20
-99.000000
 11
22.000000
 21
-99.000000
  0
LINE
  8
A-WALL-1
 10
22.000000
 20
-95.000000
 11
-62.000000
 21
-95.000000
  0
LINE
  8
A-WALL-1
 10
-110.000000
 20
-99.000000
 11
-98.000000
 21
-99.000000
  0
LINE
  8
A-WALL-1
 10
-98.000000
 20
-95.000000
 11
-114.000000
 21
-95.000000
  0
LINE
  8
A-GLAZ-1
 10
58.000000
 20
-95.000000
 11
58.000000
 21
-99.000000
  0
LINE
  8
A-GLAZ-1
 10
22.000000
 20
-99.000000
 11
22.000000
 21
-95.000000
  0
LINE
  8
A-GLAZ-1
 10
22.000000
 20
-99.000000
 11
58.000000
 21
-99.000000
  0
LINE
  8
A-GLAZ-1
 10
58.000000
 20
-95.000000
 11
22.000000
 21
-95.000000
  0
LINE
  8
A-GLAZ-1
 10
58.000000
 20
-97.000000
 11
22.000000
 21
-97.000000
  0
TEXT
  8
A-DIMS-1
 10
30.559588
 20
-90.541559
 40
5.487240
  1
3062
  7
STANDARD
  0
LINE
  8
A-GLAZ-1
 10
-62.000000
 20
-95.000000
 11
-62.000000
 21
-99.000000
  0
LINE
  8
A-GLAZ-1
 10
-98.000000
 20
-99.000000
 11
-98.000000
 21
-95.000000
  0
LINE
  8
A-GLAZ-1
 10
-98.000000
 20
-99.000000
 11
-62.000000
 21
-99.000000
  0
LINE
  8
A-GLAZ-1
 10
-62.000000
 20
-95.000000
 11
-98.000000
 21
-95.000000
  0
LINE
  8
A-GLAZ-1
 10
-62.000000
 20
-97.000000
 11
-98.000000
 21
-97.000000
  0
TEXT
  8
A-DIMS-1
 10
-89.440412
 20
-90.541559
 40
5.487240
  1
3062
  7
STANDARD
  0
LINE
  8
A-WALL-1
 10
-172.429367
 20
-468.000000
 11
-270.000000
 21
-468.000000
  0
LINE
  8
A-WALL-1
 10
-268.000000
 20
-472.000000
 11
-173.600937
 21
-472.000000
  0
LINE
  8
A-WALL-1
 10
-163.115662
 20
-458.686279
 11
-172.429367
 21
-468.000000
  0
LINE
  8
A-WALL-1
 10
-169.600937
 20
-470.828430
 11
-160.287231
 21
-461.514709
  0
LINE
  8
A-WALL-1
 10
-113.429367
 20
-409.000000
 11
-120.689247
 21
-416.259888
  0
LINE
  8
A-WALL-1
 10
-117.860825
 20
-419.088318
 11
-111.772514
 21
-413.000000
  0
LINE
  8
A-GLAZ-1
 10
-163.115657
 20
-458.686292
 11
-160.287230
 21
-461.514719
  0
LINE
  8
A-GLAZ-1
 10
-120.689250
 20
-416.259885
 11
-117.860823
 21
-419.088312
  0
TEXT
  8
A-DIMS-1
 10
-145.309347
 20
-447.416953
 40
5.487240
  1
5078
 50
45.000000
  7
STANDARD
  0
LINE
  8
A-WALL-1
 10
99.000000
 20
-419.000000
 11
226.000000
 21
-419.000000
  0
LINE
  8
A-WALL-1
 10
226.000000
 20
-415.000000
 11
99.000000
 21
-415.000000
  0
LINE
  8
A-WALL-1
 10
67.000000
 20
-415.000000
 11
65.000000
 21
-415.000000
  0
LINE
  8
A-WALL-1
 10
42.000000
 20
-419.000000
 11
67.000000
 21
-419.000000
  0
LINE
  8
A-WALL-1
 10
61.000000
 20
-415.000000
 11
42.000000
 21
-415.000000
  0
LINE
  8
A-GLAZ-1
 10
99.000000
 20
-419.000000
 11
99.000000
 21
-418.000000
  0
LINE
  8
A-GLAZ-1
 10
99.000000
 20
-416.000000
 11
99.000000
 21
-415.000000
  0
LINE
  8
A-GLAZ-1
 10
67.000000
 20
-419.000000
 11
67.000000
 21
-415.000000
  0
LINE
  8
A-GLAZ-1
 10
115.000000
 20
-416.312500
 11
115.000000
 21
-417.687500
  0
LINE
  8
A-GLAZ-1
 10
83.000000
 20
-416.312500
 11
83.000000
 21
-417.687500
  0
LINE
  8
A-GLAZ-1
 10
115.000000
 20
-416.312500
 11
83.000000
 21
-416.312500
  0
LINE
  8
A-GLAZ-1
 10
115.000000
 20
-417.687500
 11
83.000000
 21
-417.687500
  0
TEXT
  8
A-DIMS-1
 10
73.559588
 20
-410.541559
 40
5.487240
  1
2868
  7
STANDARD
  0
LINE
  8
A-WALL-1
 10
38.000000
 20
-391.000000
 11
38.000000
 21
-405.871368
  0
LINE
  8
A-WALL-1
 10
42.000000
 20
-415.000000
 11
42.000000
 21
-391.000000
  0
LINE
  8
A-WALL-1
 10
38.000000
 20
-409.871368
 11
38.000000
 21
-468.000000
  0
LINE
  8
A-WALL-1
 10
42.000000
 20
-473.000000
 11
42.000000
 21
-419.000000
  0
LINE
  8
A-WALL-1
 10
38.000000
 20
-472.000000
 11
38.000000
 21
-473.000000
  0
LINE
  8
A-WALL-1
 10
38.000000
 20
-521.000000
 11
38.000000
 21
-522.000000
  0
LINE
  8
A-WALL-1
 10
42.000000
 20
-563.000000
 11
42.000000
 21
-521.000000
  0
LINE
  8
A-WALL-1
 10
38.000000
 20
-526.000000
 11
38.000000
 21
-565.000000
  0
LINE
  8
A-GLAZ-1
 10
42.000000
 20
-473.000000
 11
38.000000
 21
-473.000000
  0
LINE
  8
A-GLAZ-1
 10
42.000000
 20
-521.000000
 11
38.000000
 21
-521.000000
  0
TEXT
  8
A-DIMS-1
 10
42.622337
 20
-506.440412
 40
5.487240
  1
4078
 50
90.000000
  7
STANDARD
  0
LINE
  8
A-WALL-1
  6
DOTTED
 10
-206.145279
 20
-609.000000
 11
-170.600937
 21
-609.000000
  0
LINE
  8
A-WALL-1
  6
DOTTED
 10
-172.600937
 20
-603.000000
 11
-211.973709
 21
-603.000000
  0
LINE
  8
A-WALL-1
 10
-8.203320
 20
-387.000000
 11
-16.031746
 21
-387.000000
  0
LINE
  8
A-WALL-1
 10
-14.374892
 20
-391.000000
 11
-8.203320
 21
-391.000000
  0
LINE
  8
A-WALL-1
 10
33.796680
 20
-391.000000
 11
38.000000
 21
-391.000000
  0
LINE
  8
A-WALL-1
 10
65.000000
 20
-387.000000
 11
33.796680
 21
-387.000000
  0
LINE
  8
A-WALL-1
 10
42.000000
 20
-391.000000
 11
61.000000
 21
-391.000000
  0
LINE
  8
A-GLAZ-1
 10
-8.203320
 20
-387.000000
 11
-8.203320
 21
-391.000000
  0
LINE
  8
A-GLAZ-1
 10
33.796680
 20
-387.000000
 11
33.796680
 21
-391.000000
  0
LINE
  8
A-GLAZ-1
 10
-8.203320
 20
-389.000000
 11
-0.778699
 21
-381.575379
  0
LINE
  8
A-GLAZ-1
 10
-0.778699
 20
-381.575379
 11
0.193573
 21
-382.547651
  0
LINE
  8
A-GLAZ-1
 10
0.193573
 20
-382.547651
 11
-7.231048
 21
-389.972272
  0
LINE
  8
A-GLAZ-1
 10
-7.231048
 20
-389.972272
 11
-8.203320
 21
-389.000000
  0
LINE
  8
A-GLAZ-1
 10
0.193573
 20
-382.547651
 11
7.618195
 21
-389.972272
  0
LINE
  8
A-GLAZ-1
 10
7.618195
 20
-389.972272
 11
8.590466
 21
-389.000000
  0
LINE
  8
A-GLAZ-1
 10
8.590466
 20
-389.000000
 11
1.165845
 21
-381.575379
  0
LINE
  8
A-GLAZ-1
 10
1.165845
 20
-381.575379
 11
0.193573
 21
-382.547651
  0
LINE
  8
A-GLAZ-1
 10
33.796680
 20
-389.000000
 11
26.372059
 21
-381.575379
  0
LINE
  8
A-GLAZ-1
 10
26.372059
 20
-381.575379
 11
25.399787
 21
-382.547651
  0
LINE
  8
A-GLAZ-1
 10
25.399787
 20
-382.547651
 11
32.824408
 21
-389.972272
  0
LINE
  8
A-GLAZ-1
 10
32.824408
 20
-389.972272
 11
33.796680
 21
-389.000000
  0
LINE
  8
A-GLAZ-1
 10
25.399787
 20
-382.547651
 11
17.975166
 21
-389.972272
  0
LINE
  8
A-GLAZ-1
 10
17.975166
 20
-389.972272
 11
17.002894
 21
-389.000000
  0
LINE
  8
A-GLAZ-1
 10
17.002894
 20
-389.000000
 11
24.427515
 21
-381.575379
  0
LINE
  8
A-GLAZ-1
 10
24.427515
 20
-381.575379
 11
25.399787
 21
-382.547651
  0
TEXT
  8
A-DIMS-1
 10
3.356269
 20
-391.622337
 40
5.487240
  1
3668
  7
STANDARD
  0
LINE
  8
A-WALL-1
 10
65.000000
 20
-415.000000
 11
65.000000
 21
-387.000000
  0
LINE
  8
A-WALL-1
 10
61.000000
 20
-391.000000
 11
61.000000
 21
-415.000000
  0
LINE
  8
A-WALL-1
 10
-32.074688
 20
-472.000000
 11
38.000000
 21
-472.000000
  0
LINE
  8
A-WALL-1
 10
38.000000
 20
-468.000000
 11
-32.074688
 21
-468.000000
  0
LINE
  8
A-WALL-1
 10
-36.074688
 20
-520.037354
 11
-36.074688
 21
-522.000000
  0
LINE
  8
A-WALL-1
 10
-32.074688
 20
-522.000000
 11
-32.074688
 21
-520.037354
  0
LINE
  8
A-WALL-1
 10
-32.074688
 20
-472.037354
 11
-32.074688
 21
-472.000000
  0
LINE
  8
A-WALL-1
 10
-36.074688
 20
-458.037354
 11
-36.074688
 21
-472.037354
  0
LINE
  8
A-WALL-1
 10
-32.074688
 20
-468.000000
 11
-32.074688
 21
-458.037354
  0
LINE
  8
A-WALL-1
 10
-36.074688
 20
-413.000000
 11
-36.074688
 21
-422.037354
  0
LINE
  8
A-WALL-1
 10
-36.074688
 20
-407.042938
 11
-36.074688
 21
-409.000000
  0
LINE
  8
A-WALL-1
 10
-32.074688
 20
-422.037354
 11
-32.074688
 21
-409.871368
  0
LINE
  8
A-GLAZ-1
 10
-36.074688
 20
-520.037344
 11
-32.074688
 21
-520.037344
  0
LINE
  8
A-GLAZ-1
 10
-36.074688
 20
-472.037344
 11
-32.074688
 21
-472.037344
  0
TEXT
  8
A-DIMS-1
 10
-31.452352
 20
-505.477756
 40
5.487240
  1
4078
 50
90.000000
  7
STANDARD
  0
LINE
  8
A-GLAZ-1
 10
-36.074688
 20
-458.037344
 11
-32.074688
 21
-458.037344
  0
LINE
  8
A-GLAZ-1
 10
-36.074688
 20
-422.037344
 11
-32.074688
 21
-422.037344
  0
LINE
  8
A-GLAZ-1
 10
-36.074688
 20
-458.037344
 11
-72.074688
 21
-458.037344
  0
LINE
  8
A-GLAZ-1
 10
-72.074688
 20
-456.662344
 11
-36.074688
 21
-456.662344
  0
LINE
  8
A-GLAZ-1
 10
-36.074688
 20
-456.662344
 11
-36.074688
 21
-458.037344
  0
ARC
  8
A-GLAZ-1
 10
-36.074688
 20
-458.037344
 40
36.000000
 50
90.000000
 51
180.000000
  0
TEXT
  8
A-DIMS-1
 10
-31.452352
 20
-449.477756
 40
5.487240
  1
3068
 50
90.000000
  7
STANDARD
  0
LINE
  8
A-WALL-1
 10
-29.246262
 20
-405.871368
 11
-14.374892
 21
-391.000000
  0
LINE
  8
A-WALL-1
 10
-16.031746
 20
-387.000000
 11
-36.074688
 21
-407.042938
  0
LINE
  8
A-WALL-1
 10
-212.145279
 20
-603.000000
 11
-268.000000
 21
-603.000000
  0
LINE
  8
A-WALL-1
 10
-272.000000
 20
-609.000000
 11
-211.802139
 21
-609.000000
  0
LINE
  8
A-WALL-1
 10
-38.000000
 20
-529.500000
 11
-38.000000
 21
-526.000000
  0
LINE
  8
A-WALL-1
 10
-42.000000
 20
-522.000000
 11
-42.000000
 21
-529.500000
  0
LINE
  8
A-WALL-1
 10
-38.000000
 20
-563.000000
 11
-38.000000
 21
-559.500000
  0
LINE
  8
A-WALL-1
 10
-38.000000
 20
-571.000000
 11
-38.000000
 21
-567.000000
  0
LINE
  8
A-WALL-1
 10
-42.000000
 20
-559.500000
 11
-42.000000
 21
-571.000000
  0
LINE
  8
A-WALL-1
 10
-42.000000
 20
-603.000000
 11
-42.000000
 21
-719.000000
  0
LINE
  8
A-WALL-1
 10
-42.000000
 20
-723.000000
 11
-42.000000
 21
-771.000000
  0
LINE
  8
A-WALL-1
 10
-38.000000
 20
-835.000000
 11
-38.000000
 21
-603.000000
  0
LINE
  8
A-WALL-1
 10
-42.000000
 20
-775.000000
 11
-42.000000
 21
-839.000000
  0
LINE
  8
A-GLAZ-1
 10
-38.000000
 20
-529.500000
 11
-42.000000
 21
-529.500000
  0
LINE
  8
A-GLAZ-1
 10
-38.000000
 20
-559.500000
 11
-42.000000
 21
-559.500000
  0
LINE
  8
A-GLAZ-1
 10
-42.000000
 20
-559.500000
 11
-72.000000
 21
-559.500000
  0
LINE
  8
A-GLAZ-1
 10
-72.000000
 20
-558.125000
 11
-42.000000
 21
-558.125000
  0
LINE
  8
A-GLAZ-1
 10
-42.000000
 20
-558.125000
 11
-42.000000
 21
-559.500000
  0
ARC
  8
A-GLAZ-1
 10
-42.000000
 20
-559.500000
 40
30.000000
 50
90.000000
 51
180.000000
  0
TEXT
  8
A-DIMS-1
 10
-37.377663
 20
-553.940412
 40
5.487240
  1
2668
 50
90.000000
  7
STANDARD
  0
LINE
  8
A-GLAZ-1
 10
-38.000000
 20
-571.000000
 11
-42.000000
 21
-571.000000
  0
LINE
  8
A-GLAZ-1
 10
-38.000000
 20
-603.000000
 11
-42.000000
 21
-603.000000
  0
LINE
  8
A-GLAZ-1
 10
-42.000000
 20
-571.000000
 11
-74.000000
 21
-571.000000
  0
LINE
  8
A-GLAZ-1
 10
-74.000000
 20
-572.375000
 11
-42.000000
 21
-572.375000
  0
LINE
  8
A-GLAZ-1
 10
-42.000000
 20
-572.375000
 11
-42.000000
 21
-571.000000
  0
ARC
  8
A-GLAZ-1
 10
-42.000000
 20
-571.000000
 40
32.000000
 50
180.000000
 51
270.000000
  0
TEXT
  8
A-DIMS-1
 10
-37.377663
 20
-596.440412
 40
5.487240
  1
2868
 50
90.000000
  7
STANDARD
  0
LINE
  8
A-WALL-1
 10
-274.000000
 20
-605.000000
 11
-285.994934
 21
-605.000000
  0
LINE
  8
A-WALL-1
 10
-284.338074
 20
-609.000000
 11
-272.000000
 21
-609.000000
  0
LINE
  8
A-WALL-1
 10
42.000000
 20
-602.000000
 11
42.000000
 21
-567.000000
  0
LINE
  8
A-WALL-1
 10
38.000000
 20
-565.000000
 11
38.000000
 21
-598.000000
  0
LINE
  8
A-WALL-1
 10
-68.000000
 20
-723.000000
 11
-42.000000
 21
-723.000000
  0
LINE
  8
A-WALL-1
 10
-42.000000
 20
-719.000000
 11
-68.000000
 21
-719.000000
  0
LINE
  8
A-WALL-1
 10
-174.000000
 20
-723.000000
 11
-148.000000
 21
-723.000000
  0
LINE
  8
A-WALL-1
 10
-148.000000
 20
-719.000000
 11
-174.000000
 21
-719.000000
  0
LINE
  8
A-GLAZ-1
 10
-88.000000
 20
-723.000000
 11
-88.000000
 21
-719.000000
  0
LINE
  8
A-GLAZ-1
 10
-68.000000
 20
-719.000000
 11
-68.000000
 21
-723.000000
  0
LINE
  8
A-GLAZ-1
 10
-68.000000
 20
-719.000000
 11
-88.000000
 21
-719.000000
  0
LINE
  8
A-GLAZ-1
 10
-88.000000
 20
-723.000000
 11
-68.000000
 21
-723.000000
  0
LINE
  8
A-GLAZ-1
 10
-88.000000
 20
-721.000000
 11
-68.000000
 21
-721.000000
  0
TEXT
  8
A-DIMS-1
 10
-87.440412
 20
-732.703114
 40
5.487240
  1
1868
  7
STANDARD
  0
LINE
  8
A-GLAZ-1
 10
-90.000000
 20
-723.000000
 11
-90.000000
 21
-719.000000
  0
LINE
  8
A-GLAZ-1
 10
-126.000000
 20
-723.000000
 11
-126.000000
 21
-719.000000
  0
LINE
  8
A-GLAZ-1
 10
-90.000000
 20
-723.000000
 11
-88.000000
 21
-723.000000
  0
LINE
  8
A-GLAZ-1
 10
-90.000000
 20
-719.000000
 11
-88.000000
 21
-719.000000
  0
LINE
  8
A-GLAZ-1
 10
-90.000000
 20
-719.000000
 11
-90.000000
 21
-683.000000
  0
LINE
  8
A-GLAZ-1
 10
-91.750000
 20
-683.000000
 11
-91.750000
 21
-719.000000
  0
LINE
  8
A-GLAZ-1
 10
-91.750000
 20
-719.000000
 11
-90.000000
 21
-719.000000
  0
ARC
  8
A-GLAZ-1
 10
-90.000000
 20
-719.000000
 40
36.000000
 50
90.000000
 51
180.000000
  0
LINE
  8
A-GLAZ-1
 10
-90.000000
 20
-723.000000
 11
-126.000000
 21
-723.000000
  0
TEXT
  8
A-DIMS-1
 10
-117.440412
 20
-732.703114
 40
5.487240
  1
3068
  7
STANDARD
  0
LINE
  8
A-GLAZ-1
 10
-148.000000
 20
-723.000000
 11
-148.000000
 21
-719.000000
  0
LINE
  8
A-GLAZ-1
 10
-128.000000
 20
-719.000000
 11
-128.000000
 21
-723.000000
  0
LINE
  8
A-GLAZ-1
 10
-128.000000
 20
-723.000000
 11
-126.000000
 21
-723.000000
  0
LINE
  8
A-GLAZ-1
 10
-128.000000
 20
-719.000000
 11
-126.000000
 21
-719.000000
  0
LINE
  8
A-GLAZ-1
 10
-128.000000
 20
-719.000000
 11
-148.000000
 21
-719.000000
  0
LINE
  8
A-GLAZ-1
 10
-148.000000
 20
-723.000000
 11
-128.000000
 21
-723.000000
  0
LINE
  8
A-GLAZ-1
 10
-148.000000
 20
-721.000000
 11
-128.000000
 21
-721.000000
  0
TEXT
  8
A-DIMS-1
 10
-147.440412
 20
-732.703114
 40
5.487240
  1
1868
  7
STANDARD
  0
LINE
  8
A-WALL-1
 10
-57.256229
 20
-771.000000
 11
-57.256229
 21
-775.000000
  0
LINE
  8
A-WALL-1
 10
-57.256229
 20
-775.000000
 11
-42.000000
 21
-775.000000
  0
LINE
  8
A-WALL-1
 10
-42.000000
 20
-771.000000
 11
-57.256229
 21
-771.000000
  0
LINE
  8
A-WALL-1
 10
-174.000000
 20
-799.000000
 11
-174.000000
 21
-775.000000
  0
LINE
  8
A-WALL-1
 10
-174.000000
 20
-771.000000
 11
-174.000000
 21
-723.000000
  0
LINE
  8
A-WALL-1
 10
-178.000000
 20
-709.000000
 11
-178.000000
 21
-795.000000
  0
LINE
  8
A-WALL-1
 10
-174.000000
 20
-719.000000
 11
-174.000000
 21
-709.000000
  0
LINE
  8
A-WALL-1
 10
-178.000000
 20
-642.802124
 11
-178.000000
 21
-649.000000
  0
LINE
  8
A-WALL-1
 10
-174.000000
 20
-649.000000
 11
-174.000000
 21
-641.145264
  0
LINE
  8
A-GLAZ-1
 10
-178.000000
 20
-709.000000
 11
-174.000000
 21
-709.000000
  0
LINE
  8
A-GLAZ-1
 10
-178.000000
 20
-649.000000
 11
-174.000000
 21
-649.000000
  0
LINE
  8
A-GLAZ-1
 10
-178.000000
 20
-649.000000
 11
-208.000000
 21
-649.000000
  0
LINE
  8
A-GLAZ-1
 10
-208.000000
 20
-650.375000
 11
-178.000000
 21
-650.375000
  0
LINE
  8
A-GLAZ-1
 10
-178.000000
 20
-650.375000
 11
-178.000000
 21
-649.000000
  0
ARC
  8
A-GLAZ-1
 10
-178.000000
 20
-649.000000
 40
30.000000
 50
180.000000
 51
270.000000
  0
LINE
  8
A-GLAZ-1
 10
-178.000000
 20
-709.000000
 11
-208.000000
 21
-709.000000
  0
LINE
  8
A-GLAZ-1
 10
-208.000000
 20
-707.625000
 11
-178.000000
 21
-707.625000
  0
LINE
  8
A-GLAZ-1
 10
-178.000000
 20
-707.625000
 11
-178.000000
 21
-709.000000
  0
ARC
  8
A-GLAZ-1
 10
-178.000000
 20
-709.000000
 40
30.000000
 50
90.000000
 51
180.000000
  0
TEXT
  8
A-DIMS-1
 10
-173.377663
 20
-688.440412
 40
5.487240
  1
5068
 50
90.000000
  7
STANDARD
  0
LINE
  8
A-WALL-1
 10
-199.000000
 20
-799.000000
 11
-174.000000
 21
-799.000000
  0
LINE
  8
A-WALL-1
 10
-178.000000
 20
-795.000000
 11
-199.000000
 21
-795.000000
  0
LINE
  8
A-WALL-1
 10
-230.000000
 20
-799.000000
 11
-227.000000
 21
-799.000000
  0
LINE
  8
A-WALL-1
 10
-227.000000
 20
-795.000000
 11
-230.000000
 21
-795.000000
  0
LINE
  8
A-WALL-1
 10
-269.000000
 20
-799.000000
 11
-266.000000
 21
-799.000000
  0
LINE
  8
A-WALL-1
 10
-266.000000
 20
-795.000000
 11
-269.000000
 21
-795.000000
  0
LINE
  8
A-WALL-1
 10
-322.000000
 20
-799.000000
 11
-297.000000
 21
-799.000000
  0
LINE
  8
A-WALL-1
 10
-297.000000
 20
-795.000000
 11
-318.000000
 21
-795.000000
  0
LINE
  8
A-GLAZ-1
 10
-227.000000
 20
-799.000000
 11
-227.000000
 21
-795.000000
  0
LINE
  8
A-GLAZ-1
 10
-199.000000
 20
-795.000000
 11
-199.000000
 21
-799.000000
  0
LINE
  8
A-GLAZ-1
 10
-199.000000
 20
-795.000000
 11
-227.000000
 21
-795.000000
  0
LINE
  8
A-GLAZ-1
 10
-227.000000
 20
-799.000000
 11
-199.000000
 21
-799.000000
  0
LINE
  8
A-GLAZ-1
 10
-227.000000
 20
-797.000000
 11
-199.000000
 21
-797.000000
  0
TEXT
  8
A-DIMS-1
 10
-222.440412
 20
-808.703114
 40
5.487240
  1
2462
  7
STANDARD
  0
LINE
  8
A-GLAZ-1
 10
-266.000000
 20
-799.000000
 11
-266.000000
 21
-795.000000
  0
LINE
  8
A-GLAZ-1
 10
-230.000000
 20
-795.000000
 11
-230.000000
 21
-799.000000
  0
LINE
  8
A-GLAZ-1
 10
-230.000000
 20
-795.000000
 11
-266.000000
 21
-795.000000
  0
LINE
  8
A-GLAZ-1
 10
-266.000000
 20
-799.000000
 11
-230.000000
 21
-799.000000
  0
LINE
  8
A-GLAZ-1
 10
-266.000000
 20
-797.000000
 11
-230.000000
 21
-797.000000
  0
TEXT
  8
A-DIMS-1
 10
-257.440412
 20
-808.703114
 40
5.487240
  1
3078
  7
STANDARD
  0
LINE
  8
A-GLAZ-1
 10
-297.000000
 20
-799.000000
 11
-297.000000
 21
-795.000000
  0
LINE
  8
A-GLAZ-1
 10
-269.000000
 20
-795.000000
 11
-269.000000
 21
-799.000000
  0
LINE
  8
A-GLAZ-1
 10
-269.000000
 20
-795.000000
 11
-297.000000
 21
-795.000000
  0
LINE
  8
A-GLAZ-1
 10
-297.000000
 20
-799.000000
 11
-269.000000
 21
-799.000000
  0
LINE
  8
A-GLAZ-1
 10
-297.000000
 20
-797.000000
 11
-269.000000
 21
-797.000000
  0
TEXT
  8
A-DIMS-1
 10
-292.440412
 20
-808.703114
 40
5.487240
  1
2462
  7
STANDARD
  0
LINE
  8
A-WALL-1
 10
-322.000000
 20
-787.000000
 11
-322.000000
 21
-799.000000
  0
LINE
  8
A-WALL-1
 10
-318.000000
 20
-795.000000
 11
-318.000000
 21
-787.000000
  0
LINE
  8
A-WALL-1
 10
-322.000000
 20
-641.005066
 11
-322.000000
 21
-755.000000
  0
LINE
  8
A-WALL-1
 10
-318.000000
 20
-755.000000
 11
-318.000000
 21
-642.661926
  0
LINE
  8
A-GLAZ-1
 10
-322.000000
 20
-755.000000
 11
-318.000000
 21
-755.000000
  0
LINE
  8
A-GLAZ-1
 10
-318.000000
 20
-787.000000
 11
-322.000000
 21
-787.000000
  0
LINE
  8
A-GLAZ-1
 10
-318.000000
 20
-787.000000
 11
-318.000000
 21
-755.000000
  0
LINE
  8
A-GLAZ-1
 10
-322.000000
 20
-755.000000
 11
-322.000000
 21
-787.000000
  0
LINE
  8
A-GLAZ-1
 10
-320.000000
 20
-755.000000
 11
-320.000000
 21
-787.000000
  0
TEXT
  8
A-DIMS-1
 10
-326.458441
 20
-780.440412
 40
5.487240
  1
2862
 50
90.000000
  7
STANDARD
  0
LINE
  8
A-WALL-1
 10
-315.269196
 20
-634.274231
 11
-322.000000
 21
-641.005066
  0
LINE
  8
A-WALL-1
 10
-318.000000
 20
-642.661926
 11
-312.440765
 21
-637.102661
  0
LINE
  8
A-WALL-1
 10
-285.994934
 20
-605.000000
 11
-292.641785
 21
-611.646851
  0
LINE
  8
A-WALL-1
 10
-289.813354
 20
-614.475281
 11
-284.338074
 21
-609.000000
  0
LINE
  8
A-GLAZ-1
 10
-292.641770
 20
-611.646836
 11
-289.813343
 21
-614.475263
  0
LINE
  8
A-GLAZ-1
 10
-312.440760
 20
-637.102680
 11
-315.269187
 21
-634.274253
  0
LINE
  8
A-GLAZ-1
 10
-312.440760
 20
-637.102680
 11
-289.813343
 21
-614.475263
  0
LINE
  8
A-GLAZ-1
 10
-292.641770
 20
-611.646836
 11
-315.269187
 21
-634.274253
  0
LINE
  8
A-GLAZ-1
 10
-291.227557
 20
-613.061050
 11
-313.854974
 21
-635.688467
  0
TEXT
  8
A-DIMS-1
 10
-313.783452
 20
-626.483330
 40
5.487240
  1
2862
 50
45.000000
  7
STANDARD
  0
LINE
  8
A-WALL-1
 10
230.000000
 20
-255.000000
 11
206.000000
 21
-255.000000
  0
LINE
  8
A-WALL-1
 10
202.000000
 20
-259.000000
 11
226.000000
 21
-259.000000
  0
LINE
  8
A-WALL-1
 10
74.000000
 20
-108.000000
 11
74.000000
 21
-95.000000
  0
LINE
  8
A-WALL-1
 10
70.000000
 20
-99.000000
 11
70.000000
 21
-108.000000
  0
LINE
  8
A-WALL-1
 10
74.000000
 20
-171.000000
 11
74.000000
 21
-138.000000
  0
LINE
  8
A-WALL-1
 10
70.000000
 20
-138.000000
 11
70.000000
 21
-175.000000
  0
LINE
  8
A-GLAZ-1
 10
74.000000
 20
-108.000000
 11
70.000000
 21
-108.000000
  0
LINE
  8
A-GLAZ-1
 10
74.000000
 20
-138.000000
 11
70.000000
 21
-138.000000
  0
LINE
  8
A-GLAZ-1
 10
70.000000
 20
-108.000000
 11
40.000000
 21
-108.000000
  0
LINE
  8
A-GLAZ-1
 10
40.000000
 20
-109.750000
 11
70.000000
 21
-109.750000
  0
LINE
  8
A-GLAZ-1
 10
70.000000
 20
-109.750000
 11
70.000000
 21
-108.000000
  0
ARC
  8
A-GLAZ-1
 10
70.000000
 20
-108.000000
 40
30.000000
 50
180.000000
 51
270.000000
  0
LINE
  8
A-GLAZ-1
 10
74.000000
 20
-108.000000
 11
74.000000
 21
-138.000000
  0
TEXT
  8
A-DIMS-1
 10
83.703114
 20
-132.440412
 40
5.487240
  1
2668
 50
90.000000
  7
STANDARD
  0
LINE
  8
A-WALL-1
 10
-14.000000
 20
-563.000000
 11
-38.000000
 21
-563.000000
  0
LINE
  8
A-WALL-1
 10
4.000000
 20
-563.000000
 11
-10.000000
 21
-563.000000
  0
LINE
  8
A-WALL-1
 10
-38.000000
 20
-567.000000
 11
0.000000
 21
-567.000000
  0
LINE
  8
A-WALL-1
 10
72.707108
 20
-256.804657
 11
71.292892
 21
-255.390442
  0
LINE
  8
A-WALL-1
 10
-12.707107
 20
-339.390442
 11
-11.292893
 21
-340.804657
  0
LINE
  8
A-WALL-1
 10
-11.292893
 20
-340.804657
 11
72.707108
 21
-256.804657
  0
LINE
  8
A-WALL-1
 10
71.292892
 20
-255.390442
 11
-12.707107
 21
-339.390442
  0
LINE
  8
A-WALL-1
 10
-173.600937
 20
-514.000000
 11
-169.600937
 21
-514.000000
  0
LINE
  8
A-WALL-1
 10
-169.600937
 20
-474.000000
 11
-169.600937
 21
-470.828430
  0
LINE
  8
A-WALL-1
 10
-173.600937
 20
-472.000000
 11
-173.600937
 21
-474.000000
  0
LINE
  8
A-WALL-1
 10
-169.600937
 20
-514.000000
 11
-169.600937
 21
-510.000000
  0
LINE
  8
A-WALL-1
 10
-173.600937
 20
-510.000000
 11
-173.600937
 21
-514.000000
  0
LINE
  8
A-GLAZ-1
 10
-169.600938
 20
-474.000000
 11
-173.600938
 21
-474.000000
  0
LINE
  8
A-GLAZ-1
 10
-169.600938
 20
-510.000000
 11
-173.600938
 21
-510.000000
  0
LINE
  8
A-GLAZ-1
 10
-169.600938
 20
-474.000000
 11
-133.600938
 21
-474.000000
  0
LINE
  8
A-GLAZ-1
 10
-133.600938
 20
-475.375000
 11
-169.600938
 21
-475.375000
  0
LINE
  8
A-GLAZ-1
 10
-169.600938
 20
-475.375000
 11
-169.600938
 21
-474.000000
  0
ARC
  8
A-GLAZ-1
 10
-169.600938
 20
-474.000000
 40
36.000000
 50
270.000000
 51
0.000000
  0
TEXT
  8
A-DIMS-1
 10
-168.978601
 20
-501.440412
 40
5.487240
  1
3068
 50
90.000000
  7
STANDARD
  0
LINE
  8
A-WALL-1
 10
34.000000
 20
-526.000000
 11
38.000000
 21
-526.000000
  0
LINE
  8
A-WALL-1
 10
38.000000
 20
-522.000000
 11
34.000000
 21
-522.000000
  0
LINE
  8
A-WALL-1
 10
-10.000000
 20
-526.000000
 11
6.000000
 21
-526.000000
  0
LINE
  8
A-WALL-1
 10
6.000000
 20
-522.000000
 11
-32.074688
 21
-522.000000
  0
LINE
  8
A-WALL-1
 10
-38.000000
 20
-526.000000
 11
-14.000000
 21
-526.000000
  0
LINE
  8
A-WALL-1
 10
-36.074688
 20
-522.000000
 11
-42.000000
 21
-522.000000
  0
LINE
  8
A-GLAZ-1
 10
34.000000
 20
-526.000000
 11
34.000000
 21
-522.000000
  0
LINE
  8
A-GLAZ-1
 10
6.000000
 20
-526.000000
 11
6.000000
 21
-522.000000
  0
LINE
  8
A-GLAZ-1
 10
6.000000
 20
-522.000000
 11
6.000000
 21
-494.000000
  0
LINE
  8
A-GLAZ-1
 10
7.375000
 20
-494.000000
 11
7.375000
 21
-522.000000
  0
LINE
  8
A-GLAZ-1
 10
7.375000
 20
-522.000000
 11
6.000000
 21
-522.000000
  0
ARC
  8
A-GLAZ-1
 10
6.000000
 20
-522.000000
 40
28.000000
 50
0.000000
 51
90.000000
  0
TEXT
  8
A-DIMS-1
 10
10.559588
 20
-526.622337
 40
5.487240
  1
2468
  7
STANDARD
  0
LINE
  8
A-WALL-1
 10
-103.600937
 20
-409.000000
 11
-110.000000
 21
-409.000000
  0
LINE
  8
A-WALL-1
 10
-111.772514
 20
-413.000000
 11
-103.600937
 21
-413.000000
  0
LINE
  8
A-WALL-1
 10
-36.074688
 20
-409.000000
 11
-43.600937
 21
-409.000000
  0
LINE
  8
A-WALL-1
 10
-43.600937
 20
-413.000000
 11
-36.074688
 21
-413.000000
  0
LINE
  8
A-GLAZ-1
 10
-103.600938
 20
-409.000000
 11
-103.600938
 21
-413.000000
  0
LINE
  8
A-GLAZ-1
 10
-43.600938
 20
-409.000000
 11
-43.600938
 21
-413.000000
  0
TEXT
  8
A-DIMS-1
 10
-83.041350
 20
-413.622337
 40
5.487240
  1
5078
  7
STANDARD
  0
LINE
  8
A-WALL-1
 10
0.000000
 20
-567.000000
 11
0.000000
 21
-602.000000
  0
LINE
  8
A-WALL-1
 10
4.000000
 20
-598.000000
 11
4.000000
 21
-563.000000
  0
LINE
  8
A-WALL-1
  6
DOTTED
 10
-170.600937
 20
-609.000000
 11
-170.600937
 21
-514.000000
  0
LINE
  8
A-WALL-1
  6
DOTTED
 10
-172.600937
 20
-514.000000
 11
-172.600937
 21
-603.000000
  0
LINE
  8
A-WALL-1
  6
DOTTED
 10
-12.000000
 20
-341.097534
 11
-12.000000
 21
-339.097534
  0
LINE
  8
A-WALL-1
  6
DOTTED
 10
-110.000000
 20
-341.097534
 11
-12.000000
 21
-341.097534
  0
LINE
  8
A-WALL-1
  6
DOTTED
 10
-12.000000
 20
-339.097534
 11
-110.000000
 21
-339.097534
  0
LINE
  8
A-WALL-1
  6
DOTTED
 10
2.000000
 20
-607.000000
 11
2.000000
 21
-605.000000
  0
LINE
  8
A-WALL-1
  6
DOTTED
 10
2.000000
 20
-605.000000
 11
-38.000000
 21
-605.000000
  0
LINE
  8
A-WALL-1
  6
DOTTED
 10
-38.000000
 20
-607.000000
 11
2.000000
 21
-607.000000
  0
LINE
  8
A-WALL-1
 10
38.000000
 20
-405.871368
 11
-29.246262
 21
-405.871368
  0
LINE
  8
A-WALL-1
 10
-32.074688
 20
-409.871368
 11
38.000000
 21
-409.871368
  0
LINE
  8
A-WALL-1
  6
DOTTED
 10
1.000000
 20
-606.000000
 11
3.000000
 21
-606.000000
  0
LINE
  8
A-WALL-1
  6
DOTTED
 10
3.000000
 20
-606.000000
 11
3.000000
 21
-602.000000
  0
LINE
  8
A-WALL-1
  6
DOTTED
 10
1.000000
 20
-600.000000
 11
1.000000
 21
-606.000000
  0
LINE
  8
A-WALL-1
 10
38.000000
 20
-598.000000
 11
4.000000
 21
-598.000000
  0
LINE
  8
A-WALL-1
 10
0.000000
 20
-602.000000
 11
42.000000
 21
-602.000000
  0
LINE
  8
A-WALL-1
 10
226.000000
 20
-563.000000
 11
42.000000
 21
-563.000000
  0
LINE
  8
A-WALL-1
 10
42.000000
 20
-567.000000
 11
226.000000
 21
-567.000000
  0
LINE
  8
A-WALL-1
 10
-10.000000
 20
-563.000000
 11
-10.000000
 21
-526.000000
  0
LINE
  8
A-WALL-1
 10
-14.000000
 20
-526.000000
 11
-14.000000
 21
-563.000000
  0
LINE
  8
A-WALL-1
 10
-159.256226
 20
-775.000000
 11
-159.256226
 21
-771.000000
  0
LINE
  8
A-WALL-1
 10
-174.000000
 20
-775.000000
 11
-159.256226
 21
-775.000000
  0
LINE
  8
A-WALL-1
 10
-159.256226
 20
-771.000000
 11
-174.000000
 21
-771.000000
  0
LINE
  8
A-WALL-1
  6
DOTTED
 10
-57.256229
 20
-771.000000
 11
-159.256226
 21
-771.000000
  0
LINE
  8
A-WALL-1
  6
DOTTED
 10
-159.256226
 20
-775.000000
 11
-57.256229
 21
-775.000000
  0
LINE
  8
A-WALL-1
  6
DOTTED
 10
178.000000
 20
-233.000000
 11
178.000000
 21
-185.000000
  0
LINE
  8
A-WALL-1
  6
DOTTED
 10
176.000000
 20
-187.000000
 11
176.000000
 21
-231.000000
  0
LINE
  8
A-WALL-1
  6
DOTTED
 10
178.000000
 20
-185.000000
 11
156.000000
 21
-185.000000
  0
LINE
  8
A-WALL-1
  6
DOTTED
 10
158.000000
 20
-187.000000
 11
176.000000
 21
-187.000000
  0
LINE
  8
A-WALL-1
  6
DOTTED
 10
158.000000
 20
-231.000000
 11
158.000000
 21
-187.000000
  0
LINE
  8
A-WALL-1
  6
DOTTED
 10
156.000000
 20
-185.000000
 11
156.000000
 21
-233.000000
  0
LINE
  8
A-WALL-1
  6
DOTTED
 10
176.000000
 20
-231.000000
 11
158.000000
 21
-231.000000
  0
LINE
  8
A-WALL-1
  6
DOTTED
 10
156.000000
 20
-233.000000
 11
178.000000
 21
-233.000000
  0
LINE
  8
A-WALL-1
  6
DOTTED
 10
126.000000
 20
-233.000000
 11
126.000000
 21
-185.000000
  0
LINE
  8
A-WALL-1
  6
DOTTED
 10
124.000000
 20
-187.000000
 11
124.000000
 21
-231.000000
  0
LINE
  8
A-WALL-1
  6
DOTTED
 10
104.000000
 20
-233.000000
 11
126.000000
 21
-233.000000
  0
LINE
  8
A-WALL-1
  6
DOTTED
 10
124.000000
 20
-231.000000
 11
106.000000
 21
-231.000000
  0
LINE
  8
A-WALL-1
  6
DOTTED
 10
104.000000
 20
-185.000000
 11
104.000000
 21
-233.000000
  0
LINE
  8
A-WALL-1
  6
DOTTED
 10
106.000000
 20
-231.000000
 11
106.000000
 21
-187.000000
  0
LINE
  8
A-WALL-1
  6
DOTTED
 10
126.000000
 20
-185.000000
 11
104.000000
 21
-185.000000
  0
LINE
  8
A-WALL-1
  6
DOTTED
 10
106.000000
 20
-187.000000
 11
124.000000
 21
-187.000000
  0
LINE
  8
A-STAR-1
 10
-38.000000
 20
-606.000000
 11
-38.000000
 21
-616.000000
  0
LINE
  8
A-STAR-1
 10
-38.000000
 20
-616.000000
 11
1.000000
 21
-616.000000
  0
LINE
  8
A-STAR-1
 10
1.000000
 20
-616.000000
 11
1.000000
 21
-606.000000
  0
LINE
  8
A-STAR-1
 10
-38.000000
 20
-606.000000
 11
1.000000
 21
-606.000000
  0
LINE
  8
A-STAR-1
 10
-217.000000
 20
-603.000000
 11
-208.000000
 21
-603.000000
  0
LINE
  8
A-STAR-1
 10
-208.000000
 20
-603.000000
 11
-208.000000
 21
-561.000000
  0
LINE
  8
A-STAR-1
 10
-208.000000
 20
-561.000000
 11
-217.000000
 21
-561.000000
  0
LINE
  8
A-STAR-1
 10
-226.000000
 20
-603.000000
 11
-217.000000
 21
-603.000000
  0
LINE
  8
A-STAR-1
 10
-217.000000
 20
-603.000000
 11
-217.000000
 21
-561.000000
  0
LINE
  8
A-STAR-1
 10
-217.000000
 20
-561.000000
 11
-226.000000
 21
-561.000000
  0
LINE
  8
A-STAR-1
 10
-226.000000
 20
-603.000000
 11
-226.000000
 21
-561.000000
  0
TEXT
  8
A-POWR-1
 10
-222.020916
 20
-581.175486
 40
4.572700
  1
UP
  7
STANDARD
  0
LINE
  8
A-STAR-1
 10
-227.000000
 20
-584.000000
 11
-216.000000
 21
-584.000000
  0
LINE
  8
A-STAR-1
 10
-226.000000
 20
-560.500000
 11
-226.000000
 21
-603.500000
  0
LINE
  8
A-STAR-1
 10
-226.000000
 20
-603.500000
 11
-268.000000
 21
-603.500000
  0
LINE
  8
A-STAR-1
 10
-268.000000
 20
-603.500000
 11
-268.000000
 21
-560.500000
  0
LINE
  8
A-STAR-1
 10
-268.000000
 20
-560.500000
 11
-226.000000
 21
-560.500000
  0
LINE
  8
A-STAR-1
 10
-268.000000
 20
-551.200000
 11
-268.000000
 21
-560.500000
  0
LINE
  8
A-STAR-1
 10
-268.000000
 20
-560.500000
 11
-226.000000
 21
-560.500000
  0
LINE
  8
A-STAR-1
 10
-226.000000
 20
-560.500000
 11
-226.000000
 21
-551.200000
  0
LINE
  8
A-STAR-1
 10
-268.000000
 20
-541.900000
 11
-268.000000
 21
-551.200000
  0
LINE
  8
A-STAR-1
 10
-268.000000
 20
-551.200000
 11
-226.000000
 21
-551.200000
  0
LINE
  8
A-STAR-1
 10
-226.000000
 20
-551.200000
 11
-226.000000
 21
-541.900000
  0
LINE
  8
A-STAR-1
 10
-268.000000
 20
-532.600000
 11
-268.000000
 21
-541.900000
  0
LINE
  8
A-STAR-1
 10
-268.000000
 20
-541.900000
 11
-226.000000
 21
-541.900000
  0
LINE
  8
A-STAR-1
 10
-226.000000
 20
-541.900000
 11
-226.000000
 21
-532.600000
  0
LINE
  8
A-STAR-1
 10
-268.000000
 20
-523.300000
 11
-268.000000
 21
-532.600000
  0
LINE
  8
A-STAR-1
 10
-268.000000
 20
-532.600000
 11
-226.000000
 21
-532.600000
  0
LINE
  8
A-STAR-1
 10
-226.000000
 20
-532.600000
 11
-226.000000
 21
-523.300000
  0
LINE
  8
A-STAR-1
 10
-268.000000
 20
-514.000000
 11
-268.000000
 21
-523.300000
  0
LINE
  8
A-STAR-1
 10
-268.000000
 20
-523.300000
 11
-226.000000
 21
-523.300000
  0
LINE
  8
A-STAR-1
 10
-226.000000
 20
-523.300000
 11
-226.000000
 21
-514.000000
  0
LINE
  8
A-STAR-1
 10
-268.000000
 20
-514.000000
 11
-226.000000
 21
-514.000000
  0
LINE
  8
A-STAR-1
 10
-225.500000
 20
-514.000000
 11
-268.000000
 21
-514.000000
  0
LINE
  8
A-STAR-1
 10
-268.000000
 20
-514.000000
 11
-268.000000
 21
-472.000000
  0
LINE
  8
A-STAR-1
 10
-268.000000
 20
-472.000000
 11
-225.500000
 21
-472.000000
  0
LINE
  8
A-STAR-1
 10
-225.500000
 20
-472.000000
 11
-225.500000
 21
-514.000000
  0
LINE
  8
A-STAR-1
 10
-216.500000
 20
-472.000000
 11
-225.500000
 21
-472.000000
  0
LINE
  8
A-STAR-1
 10
-225.500000
 20
-472.000000
 11
-225.500000
 21
-514.000000
  0
LINE
  8
A-STAR-1
 10
-225.500000
 20
-514.000000
 11
-216.500000
 21
-514.000000
  0
LINE
  8
A-STAR-1
 10
-207.500000
 20
-472.000000
 11
-216.500000
 21
-472.000000
  0
LINE
  8
A-STAR-1
 10
-216.500000
 20
-472.000000
 11
-216.500000
 21
-514.000000
  0
LINE
  8
A-STAR-1
 10
-216.500000
 20
-514.000000
 11
-207.500000
 21
-514.000000
  0
LINE
  8
A-STAR-1
 10
-198.500000
 20
-472.000000
 11
-207.500000
 21
-472.000000
  0
LINE
  8
A-STAR-1
 10
-207.500000
 20
-472.000000
 11
-207.500000
 21
-514.000000
  0
LINE
  8
A-STAR-1
 10
-207.500000
 20
-514.000000
 11
-198.500000
 21
-514.000000
  0
LINE
  8
A-STAR-1
 10
-189.500000
 20
-472.000000
 11
-198.500000
 21
-472.000000
  0
LINE
  8
A-STAR-1
 10
-198.500000
 20
-472.000000
 11
-198.500000
 21
-514.000000
  0
LINE
  8
A-STAR-1
 10
-198.500000
 20
-514.000000
 11
-189.500000
 21
-514.000000
  0
LINE
  8
A-STAR-1
 10
-180.500000
 20
-472.000000
 11
-189.500000
 21
-472.000000
  0
LINE
  8
A-STAR-1
 10
-189.500000
 20
-472.000000
 11
-189.500000
 21
-514.000000
  0
LINE
  8
A-STAR-1
 10
-189.500000
 20
-514.000000
 11
-180.500000
 21
-514.000000
  0
LINE
  8
A-STAR-1
 10
-171.500000
 20
-472.000000
 11
-180.500000
 21
-472.000000
  0
LINE
  8
A-STAR-1
 10
-180.500000
 20
-472.000000
 11
-180.500000
 21
-514.000000
  0
LINE
  8
A-STAR-1
 10
-180.500000
 20
-514.000000
 11
-171.500000
 21
-514.000000
  0
LINE
  8
A-STAR-1
 10
-171.500000
 20
-472.000000
 11
-171.500000
 21
-514.000000
  0
INSERT
  8
A-POWR-1
  2
FIXT-RecLight
 10
-228.598328
 20
-311.383960
 41
1.000000
 42
1.000000
 43
 1.0
 50
0.000000
  0
INSERT
  8
A-POWR-1
  2
FIXT-CeilFan
 10
-21.133915
 20
-180.565430
 41
1.000000
 42
1.000000
 43
 1.0
 50
0.000000
  0
LINE
  8
A-POWR-1
 10
-248.205673
 20
-698.635966
 11
-248.205673
 21
-696.302633
  0
LINE
  8
A-POWR-1
 10
-248.205673
 20
-705.302633
 11
-248.205673
 21
-707.635966
  0
LINE
  8
A-POWR-1
 10
-251.539007
 20
-701.969299
 11
-253.872340
 21
-701.969299
  0
LINE
  8
A-POWR-1
 10
-244.872340
 20
-701.969299
 11
-242.539007
 21
-701.969299
  0
CIRCLE
  8
A-POWR-1
 10
-248.205673
 20
-701.969299
 40
3.333333
  0
INSERT
  8
A-POWR-1
  2
FIXT-RecLight
 10
-72.955803
 20
-385.933551
 41
1.000000
 42
1.000000
 43
 1.0
 50
0.000000
  0
ARC
  8
A-POWR-1
 10
-18.368839
 20
-411.544087
 40
67.137376
 50
150.343903
 51
209.524160
  0
INSERT
  8
A-POWR-1
  2
FIXT-RecLight
 10
-73.045662
 20
-463.979114
 41
1.000000
 42
1.000000
 43
 1.0
 50
0.000000
  0
LINE
  8
A-POWR-1
 10
115.168144
 20
-402.282298
 11
115.168144
 21
-399.948964
  0
LINE
  8
A-POWR-1
 10
115.168144
 20
-408.948964
 11
115.168144
 21
-411.282298
  0
LINE
  8
A-POWR-1
 10
111.834811
 20
-405.615631
 11
109.501478
 21
-405.615631
  0
LINE
  8
A-POWR-1
 10
118.501478
 20
-405.615631
 11
120.834811
 21
-405.615631
  0
CIRCLE
  8
A-POWR-1
 10
115.168144
 20
-405.615631
 40
3.333333
  0
LINE
  8
A-POWR-1
 10
176.270966
 20
-409.160909
 11
176.270966
 21
-411.494242
  0
LINE
  8
A-POWR-1
 10
176.270966
 20
-402.494242
 11
176.270966
 21
-400.160909
  0
LINE
  8
A-POWR-1
 10
179.604299
 20
-405.827576
 11
181.937632
 21
-405.827576
  0
LINE
  8
A-POWR-1
 10
172.937632
 20
-405.827576
 11
170.604299
 21
-405.827576
  0
CIRCLE
  8
A-POWR-1
 10
176.270966
 20
-405.827576
 40
3.333333
  0
ARC
  8
A-POWR-1
 10
145.571194
 20
-448.493578
 40
52.562951
 50
62.000890
 51
117.601633
  0
LINE
  8
A-POWR-1
 10
212.230103
 20
-398.135539
 11
212.230103
 21
-395.802205
  0
LINE
  8
A-POWR-1
 10
212.230103
 20
-404.802205
 11
212.230103
 21
-407.135539
  0
LINE
  8
A-POWR-1
 10
208.896769
 20
-401.468872
 11
206.563436
 21
-401.468872
  0
LINE
  8
A-POWR-1
 10
215.563436
 20
-401.468872
 11
217.896769
 21
-401.468872
  0
CIRCLE
  8
A-POWR-1
 10
212.230103
 20
-401.468872
 40
3.333333
  0
ARC
  8
A-POWR-1
 10
197.301627
 20
-428.819620
 40
31.159634
 50
75.170430
 51
118.652088
  0
LINE
  8
A-POWR-1
 10
219.639862
 20
-331.229747
 11
219.639862
 21
-328.896413
  0
LINE
  8
A-POWR-1
 10
219.639862
 20
-337.896413
 11
219.639862
 21
-340.229747
  0
LINE
  8
A-POWR-1
 10
216.306529
 20
-334.563080
 11
213.973195
 21
-334.563080
  0
LINE
  8
A-POWR-1
 10
222.973195
 20
-334.563080
 11
225.306529
 21
-334.563080
  0
CIRCLE
  8
A-POWR-1
 10
219.639862
 20
-334.563080
 40
3.333333
  0
ARC
  8
A-POWR-1
 10
262.769037
 20
-373.202808
 40
57.906427
 50
145.111656
 51
202.248935
  0
LINE
  8
A-POWR-1
 10
219.639862
 20
-270.644053
 11
219.639862
 21
-268.310720
  0
LINE
  8
A-POWR-1
 10
219.639862
 20
-277.310720
 11
219.639862
 21
-279.644053
  0
LINE
  8
A-POWR-1
 10
216.306529
 20
-273.977386
 11
213.973195
 21
-273.977386
  0
LINE
  8
A-POWR-1
 10
222.973195
 20
-273.977386
 11
225.306529
 21
-273.977386
  0
CIRCLE
  8
A-POWR-1
 10
219.639862
 20
-273.977386
 40
3.333333
  0
ARC
  8
A-POWR-1
 10
262.049847
 20
-304.270233
 40
52.117784
 50
152.271300
 51
207.728700
  0
INSERT
  8
A-POWR-1
  2
FIXT-RecLight
 10
-66.507637
 20
-305.976825
 41
1.000000
 42
1.000000
 43
 1.0
 50
0.000000
  0
INSERT
  8
A-POWR-1
  2
FIXT-RecLight
 10
-66.507637
 20
-232.097141
 41
1.000000
 42
1.000000
 43
 1.0
 50
0.000000
  0
ARC
  8
A-POWR-1
 10
-14.791858
 20
-255.561836
 40
63.553708
 50
150.768883
 51
209.231117
  0
INSERT
  8
A-POWR-1
  2
FIXT-RecLight
 10
-66.725571
 20
-157.999500
 41
1.000000
 42
1.000000
 43
 1.0
 50
0.000000
  0
ARC
  8
A-POWR-1
 10
-14.748255
 20
-181.420620
 40
63.741477
 50
150.917520
 51
209.419512
  0
INSERT
  8
A-POWR-1
  2
FIXT-RecLight
 10
25.896463
 20
-158.217441
 41
1.000000
 42
1.000000
 43
 1.0
 50
0.000000
  0
ARC
  8
A-POWR-1
 10
-20.567113
 20
-209.468748
 40
79.676707
 50
59.286481
 51
120.443884
  0
INSERT
  8
A-POWR-1
  2
FIXT-RecLight
 10
26.114397
 20
-232.315067
 41
1.000000
 42
1.000000
 43
 1.0
 50
0.000000
  0
ARC
  8
A-POWR-1
 10
-25.862908
 20
-181.943661
 40
63.741463
 50
330.917522
 51
29.419510
  0
INSERT
  8
A-POWR-1
  2
FIXT-RecLight
 10
96.914047
 20
-228.383197
 41
1.000000
 42
1.000000
 43
 1.0
 50
0.000000
  0
INSERT
  8
A-POWR-1
  2
FIXT-RecLight
 10
185.049484
 20
-228.837497
 41
1.000000
 42
1.000000
 43
 1.0
 50
0.000000
  0
ARC
  8
A-POWR-1
 10
140.663756
 20
-276.830006
 40
75.817977
 50
59.393391
 51
120.015945
  0
INSERT
  8
A-POWR-1
  2
FIXT-RecLight
 10
-3.239296
 20
-138.936618
 41
1.000000
 42
1.000000
 43
 1.0
 50
0.000000
  0
ARC
  8
A-POWR-1
 10
-20.081289
 20
-149.040262
 40
28.976061
 50
69.444068
 51
110.555932
  0
INSERT
  8
A-POWR-1
  2
FIXT-RecLight
 10
-36.923283
 20
-138.936618
 41
1.000000
 42
1.000000
 43
 1.0
 50
0.000000
  0
INSERT
  8
A-POWR-1
  2
FIXT-RecLight
 10
2.023827
 20
-509.109607
 41
1.000000
 42
1.000000
 43
 1.0
 50
0.000000
  0
INSERT
  8
A-POWR-1
  2
FIXT-RecLight
 10
-69.905518
 20
-695.775012
 41
1.000000
 42
1.000000
 43
 1.0
 50
0.000000
  0
ARC
  8
A-POWR-1
 10
-103.519332
 20
-657.177229
 40
41.964693
 50
333.122038
 51
24.405158
  0
INSERT
  8
A-POWR-1
  2
FIXT-RecLight
 10
-68.852898
 20
-647.003406
 41
1.000000
 42
1.000000
 43
 1.0
 50
0.000000
  0
LINE
  8
A-POWR-1
 10
-105.694855
 20
-536.862345
 11
-105.694855
 21
-534.529012
  0
LINE
  8
A-POWR-1
 10
-105.694855
 20
-543.529012
 11
-105.694855
 21
-545.862345
  0
LINE
  8
A-POWR-1
 10
-109.028188
 20
-540.195679
 11
-111.361521
 21
-540.195679
  0
LINE
  8
A-POWR-1
 10
-102.361521
 20
-540.195679
 11
-100.028188
 21
-540.195679
  0
CIRCLE
  8
A-POWR-1
 10
-105.694855
 20
-540.195679
 40
3.333333
  0
LINE
  8
A-POWR-1
 10
30.795567
 20
-666.685954
 11
30.795567
 21
-664.352620
  0
LINE
  8
A-POWR-1
 10
30.795567
 20
-673.352620
 11
30.795567
 21
-675.685954
  0
LINE
  8
A-POWR-1
 10
27.462233
 20
-670.019287
 11
25.128900
 21
-670.019287
  0
LINE
  8
A-POWR-1
 10
34.128900
 20
-670.019287
 11
36.462233
 21
-670.019287
  0
CIRCLE
  8
A-POWR-1
 10
30.795567
 20
-670.019287
 40
3.333333
  0
LINE
  8
A-POWR-1
 10
166.233261
 20
-665.282450
 11
166.233261
 21
-662.949117
  0
LINE
  8
A-POWR-1
 10
166.233261
 20
-671.949117
 11
166.233261
 21
-674.282450
  0
LINE
  8
A-POWR-1
 10
162.899928
 20
-668.615784
 11
160.566594
 21
-668.615784
  0
LINE
  8
A-POWR-1
 10
169.566594
 20
-668.615784
 11
171.899928
 21
-668.615784
  0
CIRCLE
  8
A-POWR-1
 10
166.233261
 20
-668.615784
 40
3.333333
  0
ARC
  8
A-POWR-1
 10
99.496866
 20
-764.123922
 40
116.514166
 50
58.386576
 51
122.800863
  0
INSERT
  8
A-POWR-1
  2
FIXT-Light
 10
-160.080368
 20
-864.296197
 41
1.000000
 42
1.000000
 43
 1.0
 50
0.000000
  0
ARC
  8
A-POWR-1
 10
-183.378450
 20
-835.421700
 40
29.291885
 50
337.489056
 51
18.967994
  0
INSERT
  8
A-POWR-1
  2
FIXT-Light
 10
-159.027740
 20
-830.261346
 41
1.000000
 42
1.000000
 43
 1.0
 50
0.000000
  0
INSERT
  8
A-POWR-1
  2
FIXT-RecLight
 10
-107.800003
 20
-759.283374
 41
1.000000
 42
1.000000
 43
 1.0
 50
0.000000
  0
INSERT
  8
A-POWR-1
  2
FIXT-RecExFan
 10
21.672819
 20
-572.257983
 41
1.000000
 42
1.000000
 43
 1.0
 50
0.000000
  0
CIRCLE
  8
A-POWR-1
 10
-248.500824
 20
-746.159119
 40
3.333333
  0
LINE
  8
A-POWR-1
 10
-246.500824
 20
-740.492452
 11
-246.500824
 21
-748.592452
  0
LINE
  8
A-POWR-1
 10
-250.500824
 20
-740.492452
 11
-250.500824
 21
-748.592452
  0
LINE
  8
A-POWR-1
 10
-107.449234
 20
-655.107157
 11
-107.449234
 21
-652.773824
  0
LINE
  8
A-POWR-1
 10
-107.449234
 20
-661.773824
 11
-107.449234
 21
-664.107157
  0
LINE
  8
A-POWR-1
 10
-110.782567
 20
-658.440491
 11
-113.115901
 21
-658.440491
  0
LINE
  8
A-POWR-1
 10
-104.115901
 20
-658.440491
 11
-101.782567
 21
-658.440491
  0
CIRCLE
  8
A-POWR-1
 10
-107.449234
 20
-658.440491
 40
3.333333
  0
LINE
  8
A-POWR-1
 10
133.250931
 20
-487.388987
 11
133.250931
 21
-485.055654
  0
LINE
  8
A-POWR-1
 10
133.250931
 20
-494.055654
 11
133.250931
 21
-496.388987
  0
LINE
  8
A-POWR-1
 10
129.917597
 20
-490.722321
 11
127.584264
 21
-490.722321
  0
LINE
  8
A-POWR-1
 10
136.584264
 20
-490.722321
 11
138.917597
 21
-490.722321
  0
CIRCLE
  8
A-POWR-1
 10
133.250931
 20
-490.722321
 40
3.333333
  0
INSERT
  8
A-POWR-1
  2
FIXT-RecLight
 10
-182.536346
 20
-625.600085
 41
1.000000
 42
1.000000
 43
 1.0
 50
0.000000
  0
LINE
  8
A-POWR-1
 10
141.208817
 20
-216.572184
 11
141.208817
 21
-214.238851
  0
LINE
  8
A-POWR-1
 10
141.208817
 20
-223.238851
 11
141.208817
 21
-225.572184
  0
LINE
  8
A-POWR-1
 10
137.875483
 20
-219.905518
 11
135.542150
 21
-219.905518
  0
LINE
  8
A-POWR-1
 10
144.542150
 20
-219.905518
 11
146.875483
 21
-219.905518
  0
CIRCLE
  8
A-POWR-1
 10
141.208817
 20
-219.905518
 40
3.333333
  0
INSERT
  8
A-POWR-1
  2
FIXT-RecLight
 10
183.930573
 20
-385.933551
 41
1.000000
 42
1.000000
 43
 1.0
 50
0.000000
  0
ARC
  8
A-POWR-1
 10
124.623883
 20
-388.840436
 40
61.527671
 50
21.970820
 51
79.987576
  0
INSERT
  8
A-POWR-1
  2
FIXT-RecLight
 10
184.083450
 20
-341.295367
 41
1.000000
 42
1.000000
 43
 1.0
 50
0.000000
  0
ARC
  8
A-POWR-1
 10
215.253740
 20
-350.246327
 40
38.399443
 50
155.183661
 51
204.423885
  0
INSERT
  8
A-POWR-1
  2
FIXT-RecLight
 10
171.062851
 20
-313.874347
 41
1.000000
 42
1.000000
 43
 1.0
 50
0.000000
  0
ARC
  8
A-POWR-1
 10
196.767865
 20
-304.995291
 40
26.112675
 50
186.735627
 51
224.064856
  0
INSERT
  8
A-POWR-1
  2
FIXT-RecLight
 10
184.280350
 20
-287.739734
 41
1.000000
 42
1.000000
 43
 1.0
 50
0.000000
  0
ARC
  8
A-POWR-1
 10
195.965829
 20
-296.584143
 40
25.193511
 50
135.216852
 51
171.127423
  0
INSERT
  8
A-POWR-1
  2
FIXT-RecLight
 10
12.672990
 20
-385.699603
 41
1.000000
 42
1.000000
 43
 1.0
 50
0.000000
  0
INSERT
  8
A-POWR-1
  2
FIXT-RecLight
 10
127.948853
 20
-386.060260
 41
1.000000
 42
1.000000
 43
 1.0
 50
0.000000
  0
ARC
  8
A-POWR-1
 10
70.058461
 20
-453.097889
 40
99.164532
 50
58.223194
 51
121.418292
  0
INSERT
  8
A-POWR-1
  2
FIXT-RecLight
 10
128.361969
 20
-340.901569
 41
1.000000
 42
1.000000
 43
 1.0
 50
0.000000
  0
ARC
  8
A-POWR-1
 10
159.766495
 20
-350.294949
 40
38.848601
 50
154.715746
 51
204.235988
  0
LINE
  8
A-POWR-1
 10
104.852516
 20
-309.465769
 11
104.852516
 21
-307.132436
  0
LINE
  8
A-POWR-1
 10
104.852516
 20
-316.132436
 11
104.852516
 21
-318.465769
  0
LINE
  8
A-POWR-1
 10
101.519183
 20
-312.799103
 11
99.185850
 21
-312.799103
  0
LINE
  8
A-POWR-1
 10
108.185850
 20
-312.799103
 11
110.519183
 21
-312.799103
  0
CIRCLE
  8
A-POWR-1
 10
104.852516
 20
-312.799103
 40
3.333333
  0
ARC
  8
A-POWR-1
 10
107.238902
 20
-328.848656
 40
16.225998
 50
127.808687
 51
140.181201
  0
LINE
  8
A-POWR-1
 10
118.422104
 20
-295.896189
 11
118.422104
 21
-293.562856
  0
LINE
  8
A-POWR-1
 10
118.422104
 20
-302.562856
 11
118.422104
 21
-304.896189
  0
LINE
  8
A-POWR-1
 10
115.088771
 20
-299.229523
 11
112.755437
 21
-299.229523
  0
LINE
  8
A-POWR-1
 10
121.755437
 20
-299.229523
 11
124.088771
 21
-299.229523
  0
CIRCLE
  8
A-POWR-1
 10
118.422104
 20
-299.229523
 40
3.333333
  0
ARC
  8
A-POWR-1
 10
121.136016
 20
-315.513024
 40
16.508111
 50
128.228026
 51
141.771942
  0
LINE
  8
A-POWR-1
 10
91.282928
 20
-322.567454
 11
91.282928
 21
-320.234121
  0
LINE
  8
A-POWR-1
 10
91.282928
 20
-329.234121
 11
91.282928
 21
-331.567454
  0
LINE
  8
A-POWR-1
 10
87.949595
 20
-325.900787
 11
85.616262
 21
-325.900787
  0
LINE
  8
A-POWR-1
 10
94.616262
 20
-325.900787
 11
96.949595
 21
-325.900787
  0
CIRCLE
  8
A-POWR-1
 10
91.282928
 20
-325.900787
 40
3.333333
  0
INSERT
  8
A-POWR-1
  2
FIXT-RecLight
 10
239.916992
 20
-526.653369
 41
1.000000
 42
1.000000
 43
 1.0
 50
0.000000
  0
INSERT
  8
A-POWR-1
  2
FIXT-RecLight
 10
239.887146
 20
-482.186603
 41
1.000000
 42
1.000000
 43
 1.0
 50
0.000000
  0
ARC
  8
A-POWR-1
 10
271.028806
 20
-490.923947
 40
38.251767
 50
155.465166
 51
204.611748
  0
INSERT
  8
A-POWR-1
  2
FIXT-RecLight
 10
-243.077301
 20
-360.210895
 41
1.000000
 42
1.000000
 43
 1.0
 50
0.000000
  0
INSERT
  8
A-POWR-1
  2
FIXT-RecLight
 10
-243.206558
 20
-392.524890
 41
1.000000
 42
1.000000
 43
 1.0
 50
0.000000
  0
ARC
  8
A-POWR-1
 10
-265.761726
 20
-362.802266
 40
27.797772
 50
339.940698
 51
19.600933
  0
INSERT
  8
A-POWR-1
  2
FIXT-RecLight
 10
-204.133377
 20
-647.474231
 41
1.000000
 42
1.000000
 43
 1.0
 50
0.000000
  0
ARC
  8
A-POWR-1
 10
-247.909673
 20
-695.627715
 40
75.593995
 50
59.855717
 51
120.445454
  0
INSERT
  8
A-POWR-1
  2
FIXT-RecLight
 10
-203.759659
 20
-738.290454
 41
1.000000
 42
1.000000
 43
 1.0
 50
0.000000
  0
INSERT
  8
A-POWR-1
  2
FIXT-RecLight
 10
-203.385925
 20
-783.138049
 41
1.000000
 42
1.000000
 43
 1.0
 50
0.000000
  0
ARC
  8
A-POWR-1
 10
-234.966109
 20
-747.500719
 40
38.580700
 50
335.800416
 51
25.154501
  0
INSERT
  8
A-POWR-1
  2
FIXT-RecLight
 10
-292.711060
 20
-783.142871
 41
1.000000
 42
1.000000
 43
 1.0
 50
0.000000
  0
ARC
  8
A-POWR-1
 10
-248.051868
 20
-707.137720
 40
76.840386
 50
239.618197
 51
300.387988
  0
INSERT
  8
A-POWR-1
  2
FIXT-RecLight
 10
-292.360199
 20
-738.230884
 41
1.000000
 42
1.000000
 43
 1.0
 50
0.000000
  0
ARC
  8
A-POWR-1
 10
-261.097238
 20
-747.457333
 40
38.635931
 50
154.858130
 51
204.246678
  0
INSERT
  8
A-POWR-1
  2
FIXT-RecLight
 10
-292.360199
 20
-692.968005
 41
1.000000
 42
1.000000
 43
 1.0
 50
0.000000
  0
ARC
  8
A-POWR-1
 10
-260.676184
 20
-702.124298
 40
38.936600
 50
155.212863
 51
204.787137
  0
INSERT
  8
A-POWR-1
  2
FIXT-RecLight
 10
-292.009308
 20
-647.705188
 41
1.000000
 42
1.000000
 43
 1.0
 50
0.000000
  0
ARC
  8
A-POWR-1
 10
-260.500781
 20
-657.107074
 40
38.937718
 50
154.768356
 51
204.343314
  0
INSERT
  8
A-POWR-1
  2
FIXT-RecLight
 10
72.298393
 20
-307.499500
 41
1.000000
 42
1.000000
 43
 1.0
 50
0.000000
  0
ARC
  8
A-POWR-1
 10
81.292431
 20
-351.305295
 40
57.982747
 50
105.882673
 51
163.039702
  0
INSERT
  8
A-POWR-1
  2
FIXT-RecLight
 10
24.190771
 20
-354.710712
 41
1.000000
 42
1.000000
 43
 1.0
 50
0.000000
  0
INSERT
  8
A-POWR-1
  2
FIXT-RecLight
 10
-156.922485
 20
-376.829791
 41
1.000000
 42
1.000000
 43
 1.0
 50
0.000000
  0
ARC
  8
A-POWR-1
 10
-202.626236
 20
-330.037845
 40
56.558306
 50
331.057145
 51
27.836134
  0
INSERT
  8
A-POWR-1
  2
FIXT-RecLight
 10
-157.273361
 20
-443.495990
 41
1.000000
 42
1.000000
 43
 1.0
 50
0.000000
  0
ARC
  8
A-POWR-1
 10
-203.764262
 20
-396.442131
 40
57.349227
 50
331.202755
 51
28.194136
  0
INSERT
  8
A-POWR-1
  2
FIXT-RecLight
 10
-228.299530
 20
-444.053424
 41
1.000000
 42
1.000000
 43
 1.0
 50
0.000000
  0
ARC
  8
A-POWR-1
 10
-193.176649
 20
-380.581242
 40
61.100902
 50
241.490217
 51
299.409113
  0
INSERT
  8
A-POWR-1
  2
FIXT-RecLight
 10
-156.287506
 20
-311.085162
 41
1.000000
 42
1.000000
 43
 1.0
 50
0.000000
  0
ARC
  8
A-POWR-1
 10
-192.233759
 20
-348.376990
 40
62.204652
 50
61.152225
 51
119.321279
  0
CIRCLE
  8
A-POWR-1
 10
14.031399
 20
-199.601944
 40
3.333333
  0
LINE
  8
A-POWR-1
 10
16.031399
 20
-193.935277
 11
16.031399
 21
-202.035277
  0
LINE
  8
A-POWR-1
 10
12.031399
 20
-193.935277
 11
12.031399
 21
-202.035277
  0
LINE
  8
A-POWR-1
 10
-108.852730
 20
-777.211589
 11
-108.852730
 21
-774.878255
  0
LINE
  8
A-POWR-1
 10
-108.852730
 20
-783.878255
 11
-108.852730
 21
-786.211589
  0
LINE
  8
A-POWR-1
 10
-112.186063
 20
-780.544922
 11
-114.519396
 21
-780.544922
  0
LINE
  8
A-POWR-1
 10
-105.519396
 20
-780.544922
 11
-103.186063
 21
-780.544922
  0
CIRCLE
  8
A-POWR-1
 10
-108.852730
 20
-780.544922
 40
3.333333
  0
ARC
  8
A-POWR-1
 10
-135.239569
 20
-755.623530
 40
36.295193
 50
245.560660
 51
305.011655
  0
CIRCLE
  8
A-POWR-1
 10
-264.333333
 20
-419.494705
 40
3.333333
  0
LINE
  8
A-POWR-1
 10
-270.000000
 20
-417.494705
 11
-261.900000
 21
-417.494705
  0
LINE
  8
A-POWR-1
 10
-270.000000
 20
-421.494705
 11
-261.900000
 21
-421.494705
  0
LINE
  8
A-POWR-1
 10
-267.666667
 20
-335.453720
 11
-270.000000
 21
-335.453720
  0
LINE
  8
A-POWR-1
 10
-261.000000
 20
-335.453720
 11
-258.666667
 21
-335.453720
  0
LINE
  8
A-POWR-1
 10
-264.333333
 20
-338.787053
 11
-264.333333
 21
-341.120387
  0
LINE
  8
A-POWR-1
 10
-264.333333
 20
-332.120387
 11
-264.333333
 21
-329.787053
  0
CIRCLE
  8
A-POWR-1
 10
-264.333333
 20
-335.453720
 40
3.333333
  0
LINE
  8
A-POWR-1
 10
-267.666667
 20
-390.768814
 11
-270.000000
 21
-390.768814
  0
LINE
  8
A-POWR-1
 10
-261.000000
 20
-390.768814
 11
-258.666667
 21
-390.768814
  0
LINE
  8
A-POWR-1
 10
-264.333333
 20
-394.102147
 11
-264.333333
 21
-396.435481
  0
LINE
  8
A-POWR-1
 10
-264.333333
 20
-387.435481
 11
-264.333333
 21
-385.102147
  0
CIRCLE
  8
A-POWR-1
 10
-264.333333
 20
-390.768814
 40
3.333333
  0
ARC
  8
A-POWR-1
 10
-295.053899
 20
-363.111267
 40
47.583843
 50
324.462322
 51
35.537678
  0
LINE
  8
A-POWR-1
 10
-265.666667
 20
-581.949776
 11
-268.000000
 21
-581.949776
  0
LINE
  8
A-POWR-1
 10
-259.000000
 20
-581.949776
 11
-256.666667
 21
-581.949776
  0
LINE
  8
A-POWR-1
 10
-262.333333
 20
-585.283109
 11
-262.333333
 21
-587.616442
  0
LINE
  8
A-POWR-1
 10
-262.333333
 20
-578.616442
 11
-262.333333
 21
-576.283109
  0
CIRCLE
  8
A-POWR-1
 10
-262.333333
 20
-581.949776
 40
3.333333
  0
ARC
  8
A-POWR-1
 10
-285.771724
 20
-559.493782
 40
38.634752
 50
324.462322
 51
35.537678
  0
LINE
  8
A-POWR-1
 10
-265.666667
 20
-492.827557
 11
-268.000000
 21
-492.827557
  0
LINE
  8
A-POWR-1
 10
-259.000000
 20
-492.827557
 11
-256.666667
 21
-492.827557
  0
LINE
  8
A-POWR-1
 10
-262.333333
 20
-496.160890
 11
-262.333333
 21
-498.494223
  0
LINE
  8
A-POWR-1
 10
-262.333333
 20
-489.494223
 11
-262.333333
 21
-487.160890
  0
CIRCLE
  8
A-POWR-1
 10
-262.333333
 20
-492.827557
 40
3.333333
  0
ARC
  8
A-POWR-1
 10
-240.640384
 20
-463.059310
 40
32.766529
 50
245.298275
 51
316.373630
  0
LINE
  8
A-POWR-1
 10
-265.666667
 20
-537.037788
 11
-268.000000
 21
-537.037788
  0
LINE
  8
A-POWR-1
 10
-259.000000
 20
-537.037788
 11
-256.666667
 21
-537.037788
  0
LINE
  8
A-POWR-1
 10
-262.333333
 20
-540.371122
 11
-262.333333
 21
-542.704455
  0
LINE
  8
A-POWR-1
 10
-262.333333
 20
-533.704455
 11
-262.333333
 21
-531.371122
  0
CIRCLE
  8
A-POWR-1
 10
-262.333333
 20
-537.037788
 40
3.333333
  0
ARC
  8
A-POWR-1
 10
-285.280496
 20
-514.932673
 40
38.031079
 50
324.462322
 51
35.537678
  0
LINE
  8
A-POWR-1
 10
90.093318
 20
-841.333333
 11
90.093318
 21
-839.000000
  0
LINE
  8
A-POWR-1
 10
90.093318
 20
-848.000000
 11
90.093318
 21
-850.333333
  0
LINE
  8
A-POWR-1
 10
86.759985
 20
-844.666667
 11
84.426651
 21
-844.666667
  0
LINE
  8
A-POWR-1
 10
93.426651
 20
-844.666667
 11
95.759985
 21
-844.666667
  0
CIRCLE
  8
A-POWR-1
 10
90.093318
 20
-844.666667
 40
3.333333
  0
ARC
  8
A-POWR-1
 10
30.093717
 20
-768.667225
 40
103.227216
 50
234.462322
 51
305.537678
  0
LINE
  8
A-POWR-1
 10
-29.905884
 20
-841.333333
 11
-29.905884
 21
-839.000000
  0
LINE
  8
A-POWR-1
 10
-29.905884
 20
-848.000000
 11
-29.905884
 21
-850.333333
  0
LINE
  8
A-POWR-1
 10
-33.239217
 20
-844.666667
 11
-35.572550
 21
-844.666667
  0
LINE
  8
A-POWR-1
 10
-26.572550
 20
-844.666667
 11
-24.239217
 21
-844.666667
  0
CIRCLE
  8
A-POWR-1
 10
-29.905884
 20
-844.666667
 40
3.333333
  0
LINE
  8
A-POWR-1
 10
220.969644
 20
-813.333333
 11
220.969644
 21
-811.000000
  0
LINE
  8
A-POWR-1
 10
220.969644
 20
-820.000000
 11
220.969644
 21
-822.333333
  0
LINE
  8
A-POWR-1
 10
217.636310
 20
-816.666667
 11
215.302977
 21
-816.666667
  0
LINE
  8
A-POWR-1
 10
224.302977
 20
-816.666667
 11
226.636310
 21
-816.666667
  0
CIRCLE
  8
A-POWR-1
 10
220.969644
 20
-816.666667
 40
3.333333
  0
ARC
  8
A-POWR-1
 10
135.931481
 20
-747.053239
 40
115.131808
 50
246.538273
 51
317.613629
  0
LINE
  8
A-POWR-1
 10
232.333333
 20
-614.581024
 11
230.000000
 21
-614.581024
  0
LINE
  8
A-POWR-1
 10
239.000000
 20
-614.581024
 11
241.333333
 21
-614.581024
  0
LINE
  8
A-POWR-1
 10
235.666667
 20
-617.914358
 11
235.666667
 21
-620.247691
  0
LINE
  8
A-POWR-1
 10
235.666667
 20
-611.247691
 11
235.666667
 21
-608.914358
  0
CIRCLE
  8
A-POWR-1
 10
235.666667
 20
-614.581024
 40
3.333333
  0
CIRCLE
  8
A-POWR-1
 10
-104.333333
 20
-198.443542
 40
3.333333
  0
LINE
  8
A-POWR-1
 10
-110.000000
 20
-196.443542
 11
-101.900000
 21
-196.443542
  0
LINE
  8
A-POWR-1
 10
-110.000000
 20
-200.443542
 11
-101.900000
 21
-200.443542
  0
LINE
  8
A-POWR-1
 10
198.162877
 20
-168.666667
 11
198.162877
 21
-171.000000
  0
LINE
  8
A-POWR-1
 10
198.162877
 20
-162.000000
 11
198.162877
 21
-159.666667
  0
LINE
  8
A-POWR-1
 10
194.829544
 20
-165.333333
 11
192.496210
 21
-165.333333
  0
LINE
  8
A-POWR-1
 10
201.496210
 20
-165.333333
 11
203.829544
 21
-165.333333
  0
CIRCLE
  8
A-POWR-1
 10
198.162877
 20
-165.333333
 40
3.333333
  0
LINE
  8
A-POWR-1
 10
16.058823
 20
-92.666667
 11
16.058823
 21
-95.000000
  0
LINE
  8
A-POWR-1
 10
16.058823
 20
-86.000000
 11
16.058823
 21
-83.666667
  0
LINE
  8
A-POWR-1
 10
12.725489
 20
-89.333333
 11
10.392156
 21
-89.333333
  0
LINE
  8
A-POWR-1
 10
19.392156
 20
-89.333333
 11
21.725489
 21
-89.333333
  0
CIRCLE
  8
A-POWR-1
 10
16.058823
 20
-89.333333
 40
3.333333
  0
LINE
  8
A-POWR-1
 10
-180.782082
 20
-474.333333
 11
-180.782082
 21
-472.000000
  0
LINE
  8
A-POWR-1
 10
-180.782082
 20
-481.000000
 11
-180.782082
 21
-483.333333
  0
LINE
  8
A-POWR-1
 10
-177.448748
 20
-477.666667
 11
-175.115415
 21
-477.666667
  0
LINE
  8
A-POWR-1
 10
-184.115415
 20
-477.666667
 11
-186.448748
 21
-477.666667
  0
CIRCLE
  8
A-POWR-1
 10
-180.782082
 20
-477.666667
 40
3.333333
  0
LINE
  8
A-POWR-1
 10
-216.922188
 20
-474.333333
 11
-216.922188
 21
-472.000000
  0
LINE
  8
A-POWR-1
 10
-216.922188
 20
-481.000000
 11
-216.922188
 21
-483.333333
  0
LINE
  8
A-POWR-1
 10
-213.588854
 20
-477.666667
 11
-211.255521
 21
-477.666667
  0
LINE
  8
A-POWR-1
 10
-220.255521
 20
-477.666667
 11
-222.588854
 21
-477.666667
  0
CIRCLE
  8
A-POWR-1
 10
-216.922188
 20
-477.666667
 40
3.333333
  0
ARC
  8
A-POWR-1
 10
-198.852135
 20
-460.368592
 40
31.088895
 50
234.462322
 51
305.537678
  0
LINE
  8
A-POWR-1
 10
-216.922188
 20
-600.666667
 11
-216.922188
 21
-603.000000
  0
LINE
  8
A-POWR-1
 10
-216.922188
 20
-594.000000
 11
-216.922188
 21
-591.666667
  0
LINE
  8
A-POWR-1
 10
-213.588854
 20
-597.333333
 11
-211.255521
 21
-597.333333
  0
LINE
  8
A-POWR-1
 10
-220.255521
 20
-597.333333
 11
-222.588854
 21
-597.333333
  0
CIRCLE
  8
A-POWR-1
 10
-216.922188
 20
-597.333333
 40
3.333333
  0
ARC
  8
A-POWR-1
 10
-240.796251
 20
-611.829356
 40
32.803078
 50
43.297768
 51
114.373124
  0
LINE
  8
A-POWR-1
 10
-59.379375
 20
-725.333333
 11
-59.379375
 21
-723.000000
  0
LINE
  8
A-POWR-1
 10
-59.379375
 20
-732.000000
 11
-59.379375
 21
-734.333333
  0
LINE
  8
A-POWR-1
 10
-62.712709
 20
-728.666667
 11
-65.046042
 21
-728.666667
  0
LINE
  8
A-POWR-1
 10
-56.046042
 20
-728.666667
 11
-53.712709
 21
-728.666667
  0
CIRCLE
  8
A-POWR-1
 10
-59.379375
 20
-728.666667
 40
3.333333
  0
ARC
  8
A-POWR-1
 10
-107.449232
 20
-669.368867
 40
82.702508
 50
234.462322
 51
305.537678
  0
LINE
  8
A-POWR-1
 10
-155.519089
 20
-725.333333
 11
-155.519089
 21
-723.000000
  0
LINE
  8
A-POWR-1
 10
-155.519089
 20
-732.000000
 11
-155.519089
 21
-734.333333
  0
LINE
  8
A-POWR-1
 10
-158.852422
 20
-728.666667
 11
-161.185755
 21
-728.666667
  0
LINE
  8
A-POWR-1
 10
-152.185755
 20
-728.666667
 11
-149.852422
 21
-728.666667
  0
CIRCLE
  8
A-POWR-1
 10
-155.519089
 20
-728.666667
 40
3.333333
  0
LINE
  8
A-POWR-1
 10
-65.344248
 20
-777.333333
 11
-65.344248
 21
-775.000000
  0
LINE
  8
A-POWR-1
 10
-65.344248
 20
-784.000000
 11
-65.344248
 21
-786.333333
  0
LINE
  8
A-POWR-1
 10
-68.677581
 20
-780.666667
 11
-71.010914
 21
-780.666667
  0
LINE
  8
A-POWR-1
 10
-62.010914
 20
-780.666667
 11
-59.677581
 21
-780.666667
  0
CIRCLE
  8
A-POWR-1
 10
-65.344248
 20
-780.666667
 40
3.333333
  0
ARC
  8
A-POWR-1
 10
-81.413267
 20
-754.149857
 40
38.073922
 50
234.909895
 51
294.963949
  0
LINE
  8
A-POWR-1
 10
76.333333
 20
-99.496832
 11
74.000000
 21
-99.496832
  0
LINE
  8
A-POWR-1
 10
83.000000
 20
-99.496832
 11
85.333333
 21
-99.496832
  0
LINE
  8
A-POWR-1
 10
79.666667
 20
-102.830166
 11
79.666667
 21
-105.163499
  0
LINE
  8
A-POWR-1
 10
79.666667
 20
-96.163499
 11
79.666667
 21
-93.830166
  0
CIRCLE
  8
A-POWR-1
 10
79.666667
 20
-99.496832
 40
3.333333
  0
ARC
  8
A-POWR-1
 10
102.429221
 20
-205.762430
 40
107.286114
 50
26.833629
 51
97.908984
  0
CIRCLE
  8
A-POWR-1
 10
25.051317
 20
-293.618139
 40
3.333333
  0
LINE
  8
A-POWR-1
 10
30.472469
 20
-296.210864
 11
24.744904
 21
-290.483299
  0
LINE
  8
A-POWR-1
 10
27.644042
 20
-299.039291
 11
21.916477
 21
-293.311726
  0
ARC
  8
A-POWR-1
 10
78.564469
 20
-240.027470
 40
76.149461
 50
153.137993
 51
219.011045
  0
LINE
  8
A-POWR-1
 10
72.198799
 20
-560.666667
 11
72.198799
 21
-563.000000
  0
LINE
  8
A-POWR-1
 10
72.198799
 20
-554.000000
 11
72.198799
 21
-551.666667
  0
LINE
  8
A-POWR-1
 10
75.532132
 20
-557.333333
 11
77.865466
 21
-557.333333
  0
LINE
  8
A-POWR-1
 10
68.865466
 20
-557.333333
 11
66.532132
 21
-557.333333
  0
CIRCLE
  8
A-POWR-1
 10
72.198799
 20
-557.333333
 40
3.333333
  0
LINE
  8
A-POWR-1
 10
196.578156
 20
-560.666667
 11
196.578156
 21
-563.000000
  0
LINE
  8
A-POWR-1
 10
196.578156
 20
-554.000000
 11
196.578156
 21
-551.666667
  0
LINE
  8
A-POWR-1
 10
199.911489
 20
-557.333333
 11
202.244822
 21
-557.333333
  0
LINE
  8
A-POWR-1
 10
193.244822
 20
-557.333333
 11
190.911489
 21
-557.333333
  0
CIRCLE
  8
A-POWR-1
 10
196.578156
 20
-557.333333
 40
3.333333
  0
ARC
  8
A-POWR-1
 10
134.388477
 20
-636.398883
 40
106.995168
 50
54.462322
 51
125.537678
  0
LINE
  8
A-POWR-1
 10
-7.666667
 20
-544.406162
 11
-10.000000
 21
-544.406162
  0
LINE
  8
A-POWR-1
 10
-1.000000
 20
-544.406162
 11
1.333333
 21
-544.406162
  0
LINE
  8
A-POWR-1
 10
-4.333333
 20
-547.739496
 11
-4.333333
 21
-550.072829
  0
LINE
  8
A-POWR-1
 10
-4.333333
 20
-541.072829
 11
-4.333333
 21
-538.739496
  0
CIRCLE
  8
A-POWR-1
 10
-4.333333
 20
-544.406162
 40
3.333333
  0
LINE
  8
A-POWR-1
 10
-150.255965
 20
-777.333333
 11
-150.255965
 21
-775.000000
  0
LINE
  8
A-POWR-1
 10
-150.255965
 20
-784.000000
 11
-150.255965
 21
-786.333333
  0
LINE
  8
A-POWR-1
 10
-153.589298
 20
-780.666667
 11
-155.922632
 21
-780.666667
  0
LINE
  8
A-POWR-1
 10
-146.922632
 20
-780.666667
 11
-144.589298
 21
-780.666667
  0
CIRCLE
  8
A-POWR-1
 10
-150.255965
 20
-780.666667
 40
3.333333
  0
INSERT
  8
A-CASE-1
  2
FIXT-Toilet
 10
20.750017
 20
-568.019364
 41
1.000000
 42
1.071429
 43
 1.0
 50
-180.000000
  0
INSERT
  8
A-CASE-1
  2
FIXT-OvalFree
 10
6.399609
 20
-544.628700
 41
1.000000
 42
0.842105
 43
 1.0
 50
-270.000000
  0
INSERT
  8
A-CASE-1
  2
FIXT-fire3618
 10
-274.017510
 20
-363.107800
 41
1.000000
 42
0.857143
 43
 1.0
 50
-270.000000
  0
INSERT
  8
A-CASE-1
  2
FIXT-fire3618
 10
-20.108852
 20
-94.979571
 41
1.000000
 42
1.000000
 43
 1.0
 50
0.000000
  0
INSERT
  8
A-CASE-1
  2
FIXT-Rng30G
 10
199.713395
 20
-364.000000
 41
0.937500
 42
1.000000
 43
 1.0
 50
-90.000000
  0
LINE
  8
A-CASE-1
 10
151.000000
 20
-280.105156
 11
151.000000
 21
-314.105156
  0
LINE
  8
A-CASE-1
 10
127.000000
 20
-314.105156
 11
127.000000
 21
-311.105156
  0
LINE
  8
A-CASE-1
 10
127.000000
 20
-283.105156
 11
127.000000
 21
-280.105156
  0
LINE
  8
A-CASE-1
 10
127.000000
 20
-280.105156
 11
151.000000
 21
-280.105156
  0
LINE
  8
A-CASE-1
 10
151.000000
 20
-314.105156
 11
127.000000
 21
-314.105156
  0
INSERT
  8
A-CASE-1
  2
FIXT-DishWash
 10
139.000000
 20
-324.450241
 41
1.000000
 42
1.000000
 43
 1.0
 50
0.000000
  0
LINE
  8
A-CASE-1
 10
202.000000
 20
-379.000000
 11
226.000000
 21
-379.000000
  0
LINE
  8
A-CASE-1
 10
202.000000
 20
-391.000000
 11
202.000000
 21
-379.000000
  0
LINE
  8
A-CASE-1
 10
207.000000
 20
-402.000000
 11
202.000000
 21
-397.000000
  0
LINE
  8
A-CASE-1
 10
207.000000
 20
-392.000000
 11
202.000000
 21
-397.000000
  0
LINE
  8
A-CASE-1
 10
190.000000
 20
-415.000000
 11
190.000000
 21
-412.000000
  0
LINE
  8
A-CASE-1
 10
190.000000
 20
-394.000000
 11
190.000000
 21
-391.000000
  0
LINE
  8
A-CASE-1
 10
202.000000
 20
-391.000000
 11
202.000000
 21
-394.000000
  0
LINE
  8
A-CASE-1
 10
202.000000
 20
-412.000000
 11
202.000000
 21
-415.000000
  0
LINE
  8
A-CASE-1
 10
190.000000
 20
-391.000000
 11
202.000000
 21
-391.000000
  0
LINE
  8
A-CASE-1
 10
191.000000
 20
-396.000000
 11
196.000000
 21
-391.000000
  0
LINE
  8
A-CASE-1
 10
201.000000
 20
-396.000000
 11
196.000000
 21
-391.000000
  0
LINE
  8
A-CASE-1
 10
163.000000
 20
-415.000000
 11
163.000000
 21
-391.000000
  0
LINE
  8
A-CASE-1
 10
190.000000
 20
-391.000000
 11
190.000000
 21
-394.000000
  0
LINE
  8
A-CASE-1
 10
190.000000
 20
-412.000000
 11
190.000000
 21
-415.000000
  0
LINE
  8
A-CASE-1
 10
163.000000
 20
-391.000000
 11
190.000000
 21
-391.000000
  0
LINE
  8
A-CASE-1
 10
171.500000
 20
-396.000000
 11
176.500000
 21
-391.000000
  0
LINE
  8
A-CASE-1
 10
181.500000
 20
-396.000000
 11
176.500000
 21
-391.000000
  0
INSERT
  8
A-CASE-1
  2
FIXT-ref002
 10
145.175943
 20
-379.648889
 41
1.166667
 42
1.133333
 43
 1.0
 50
-180.000000
  0
LINE
  8
A-CASE-1
 10
103.000000
 20
-415.000000
 11
103.000000
 21
-391.000000
  0
LINE
  8
A-CASE-1
 10
127.000000
 20
-391.000000
 11
127.000000
 21
-415.000000
  0
LINE
  8
A-CASE-1
 10
103.000000
 20
-391.000000
 11
127.000000
 21
-391.000000
  0
LINE
  8
A-CASE-1
 10
110.000000
 20
-396.000000
 11
115.000000
 21
-391.000000
  0
LINE
  8
A-CASE-1
 10
120.000000
 20
-396.000000
 11
115.000000
 21
-391.000000
  0
LINE
  8
A-CASE-1
 10
226.000000
 20
-325.000000
 11
223.000000
 21
-325.000000
  0
LINE
  8
A-CASE-1
 10
205.000000
 20
-325.000000
 11
202.000000
 21
-325.000000
  0
LINE
  8
A-CASE-1
 10
202.000000
 20
-289.000000
 11
205.000000
 21
-289.000000
  0
LINE
  8
A-CASE-1
 10
223.000000
 20
-289.000000
 11
226.000000
 21
-289.000000
  0
LINE
  8
A-CASE-1
 10
202.000000
 20
-325.000000
 11
202.000000
 21
-289.000000
  0
LINE
  8
A-CASE-1
 10
207.000000
 20
-312.000000
 11
202.000000
 21
-307.000000
  0
LINE
  8
A-CASE-1
 10
207.000000
 20
-302.000000
 11
202.000000
 21
-307.000000
  0
LINE
  8
A-CASE-1
 10
202.000000
 20
-280.105156
 11
202.000000
 21
-283.105156
  0
LINE
  8
A-CASE-1
 10
202.000000
 20
-311.105156
 11
202.000000
 21
-314.105156
  0
LINE
  8
A-CASE-1
 10
190.000000
 20
-314.105156
 11
190.000000
 21
-311.105156
  0
LINE
  8
A-CASE-1
 10
190.000000
 20
-283.105156
 11
190.000000
 21
-280.105156
  0
LINE
  8
A-CASE-1
 10
190.000000
 20
-280.105156
 11
202.000000
 21
-280.105156
  0
LINE
  8
A-CASE-1
 10
202.000000
 20
-314.105156
 11
190.000000
 21
-314.105156
  0
LINE
  8
A-CASE-1
 10
201.000000
 20
-309.105156
 11
196.000000
 21
-314.105156
  0
LINE
  8
A-CASE-1
 10
191.000000
 20
-309.105156
 11
196.000000
 21
-314.105156
  0
LINE
  8
A-CASE-1
 10
190.000000
 20
-280.105156
 11
190.000000
 21
-283.105156
  0
LINE
  8
A-CASE-1
 10
190.000000
 20
-311.105156
 11
190.000000
 21
-314.105156
  0
LINE
  8
A-CASE-1
 10
151.000000
 20
-314.105156
 11
151.000000
 21
-280.105156
  0
LINE
  8
A-CASE-1
 10
151.000000
 20
-280.105156
 11
190.000000
 21
-280.105156
  0
LINE
  8
A-CASE-1
 10
190.000000
 20
-314.105156
 11
151.000000
 21
-314.105156
  0
INSERT
  8
A-CASE-1
  2
FIXT-OffKit32
 10
170.500000
 20
-324.123905
 41
1.000000
 42
1.000000
 43
 1.0
 50
0.000000
  0
LINE
  8
A-CASE-1
 10
226.000000
 20
-349.000000
 11
202.000000
 21
-349.000000
  0
LINE
  8
A-CASE-1
 10
202.000000
 20
-325.000000
 11
205.000000
 21
-325.000000
  0
LINE
  8
A-CASE-1
 10
223.000000
 20
-325.000000
 11
226.000000
 21
-325.000000
  0
LINE
  8
A-CASE-1
 10
202.000000
 20
-349.000000
 11
202.000000
 21
-325.000000
  0
LINE
  8
A-CASE-1
 10
207.000000
 20
-342.000000
 11
202.000000
 21
-337.000000
  0
LINE
  8
A-CASE-1
 10
207.000000
 20
-332.000000
 11
202.000000
 21
-337.000000
  0
LINE
  8
A-CASE-1
 10
102.816497
 20
-290.305088
 11
104.937817
 21
-292.426408
  0
LINE
  8
A-CASE-1
 10
124.736807
 20
-312.225398
 11
126.858127
 21
-314.346719
  0
LINE
  8
A-CASE-1
 10
118.372846
 20
-322.832000
 11
116.251526
 21
-320.710680
  0
LINE
  8
A-CASE-1
 10
96.452536
 20
-300.911690
 11
94.331215
 21
-298.790369
  0
LINE
  8
A-CASE-1
 10
94.331215
 20
-298.790369
 11
102.816497
 21
-290.305088
  0
LINE
  8
A-CASE-1
 10
126.858127
 20
-314.346719
 11
118.372846
 21
-322.832000
  0
LINE
  8
A-CASE-1
 10
122.615487
 20
-311.518291
 11
122.615487
 21
-318.589359
  0
LINE
  8
A-CASE-1
 10
115.544419
 20
-318.589359
 11
122.615487
 21
-318.589359
  0
LINE
  8
A-CASE-1
 10
94.331215
 20
-298.790369
 11
96.452536
 21
-300.911690
  0
LINE
  8
A-CASE-1
 10
116.251526
 20
-320.710680
 11
118.372846
 21
-322.832000
  0
LINE
  8
A-CASE-1
 10
97.159643
 20
-344.045203
 11
95.038322
 21
-341.923883
  0
LINE
  8
A-CASE-1
 10
75.239332
 20
-322.124893
 11
73.118012
 21
-320.003573
  0
LINE
  8
A-CASE-1
 10
73.118012
 20
-320.003573
 11
94.331215
 21
-298.790369
  0
LINE
  8
A-CASE-1
 10
118.372846
 20
-322.832000
 11
97.159643
 21
-344.045203
  0
LINE
  8
A-CASE-1
 10
107.766244
 20
-326.367534
 11
107.766244
 21
-333.438602
  0
LINE
  8
A-CASE-1
 10
100.695177
 20
-333.438602
 11
107.766244
 21
-333.438602
  0
LINE
  8
A-CASE-1
 10
73.118012
 20
-320.003573
 11
75.239332
 21
-322.124893
  0
LINE
  8
A-CASE-1
 10
94.331215
 20
-341.216776
 11
96.452536
 21
-343.338097
  0
ARC
  8
A-CASE-1
 10
89.381468
 20
-336.267029
 40
10.000000
 50
225.000000
 51
315.000000
  0
ARC
  8
A-CASE-1
 10
80.189080
 20
-327.074641
 40
10.000000
 50
135.000000
 51
225.000000
  0
LINE
  8
A-CASE-1
 10
82.310400
 20
-343.338097
 11
73.118012
 21
-334.145708
  0
LINE
  8
A-CASE-1
 10
84.785274
 20
-338.741902
 11
77.714206
 21
-338.741902
  0
LINE
  8
A-CASE-1
 10
77.714206
 20
-331.670835
 11
77.714206
 21
-338.741902
  0
LINE
  8
A-CASE-1
 10
226.000000
 20
-289.000000
 11
223.000000
 21
-289.000000
  0
LINE
  8
A-CASE-1
 10
205.000000
 20
-289.000000
 11
202.000000
 21
-289.000000
  0
LINE
  8
A-CASE-1
 10
202.000000
 20
-259.000000
 11
204.000000
 21
-259.000000
  0
LINE
  8
A-CASE-1
 10
202.000000
 20
-289.000000
 11
202.000000
 21
-259.000000
  0
LINE
  8
A-CASE-1
 10
207.000000
 20
-279.000000
 11
202.000000
 21
-274.000000
  0
LINE
  8
A-CASE-1
 10
207.000000
 20
-269.000000
 11
202.000000
 21
-274.000000
  0
LINE
  8
A-CASE-1
  6
DASHED
 10
103.222848
 20
-415.000000
 11
103.222848
 21
-400.000000
  0
LINE
  8
A-CASE-1
  6
DASHED
 10
127.222848
 20
-400.000000
 11
127.222848
 21
-403.000000
  0
LINE
  8
A-CASE-1
  6
DASHED
 10
127.222848
 20
-412.000000
 11
127.222848
 21
-415.000000
  0
LINE
  8
A-CASE-1
  6
DASHED
 10
103.222848
 20
-400.000000
 11
127.222848
 21
-400.000000
  0
LINE
  8
A-CASE-1
  6
DASHED
 10
127.222848
 20
-415.000000
 11
127.222848
 21
-412.000000
  0
LINE
  8
A-CASE-1
  6
DASHED
 10
127.222848
 20
-394.000000
 11
127.222848
 21
-391.000000
  0
LINE
  8
A-CASE-1
  6
DASHED
 10
163.222848
 20
-391.000000
 11
163.222848
 21
-394.000000
  0
LINE
  8
A-CASE-1
  6
DASHED
 10
163.222848
 20
-412.000000
 11
163.222848
 21
-415.000000
  0
LINE
  8
A-CASE-1
  6
DASHED
 10
127.222848
 20
-391.000000
 11
163.222848
 21
-391.000000
  0
LINE
  8
A-CASE-1
  6
DASHED
 10
226.000000
 20
-391.000000
 11
223.000000
 21
-391.000000
  0
LINE
  8
A-CASE-1
  6
DASHED
 10
217.000000
 20
-391.000000
 11
214.000000
 21
-391.000000
  0
LINE
  8
A-CASE-1
  6
DASHED
 10
214.000000
 20
-379.000000
 11
226.000000
 21
-379.000000
  0
LINE
  8
A-CASE-1
  6
DASHED
 10
214.000000
 20
-391.000000
 11
214.000000
 21
-379.000000
  0
LINE
  8
A-CASE-1
  6
DASHED
 10
190.222848
 20
-415.000000
 11
190.222848
 21
-412.000000
  0
LINE
  8
A-CASE-1
  6
DASHED
 10
190.222848
 20
-406.000000
 11
190.222848
 21
-403.000000
  0
LINE
  8
A-CASE-1
  6
DASHED
 10
202.222848
 20
-403.000000
 11
202.222848
 21
-406.000000
  0
LINE
  8
A-CASE-1
  6
DASHED
 10
202.222848
 20
-412.000000
 11
202.222848
 21
-415.000000
  0
LINE
  8
A-CASE-1
  6
DASHED
 10
190.222848
 20
-403.000000
 11
202.222848
 21
-403.000000
  0
LINE
  8
A-CASE-1
  6
DASHED
 10
163.222848
 20
-415.000000
 11
163.222848
 21
-412.000000
  0
LINE
  8
A-CASE-1
  6
DASHED
 10
163.222848
 20
-400.000000
 11
163.222848
 21
-397.000000
  0
LINE
  8
A-CASE-1
  6
DASHED
 10
190.222848
 20
-397.000000
 11
190.222848
 21
-400.000000
  0
LINE
  8
A-CASE-1
  6
DASHED
 10
190.222848
 20
-412.000000
 11
190.222848
 21
-415.000000
  0
LINE
  8
A-CASE-1
  6
DASHED
 10
163.222848
 20
-397.000000
 11
190.222848
 21
-397.000000
  0
LINE
  8
A-CASE-1
  6
DASHED
 10
226.000000
 20
-379.000000
 11
214.000000
 21
-379.000000
  0
LINE
  8
A-CASE-1
  6
DASHED
 10
214.000000
 20
-349.000000
 11
217.000000
 21
-349.000000
  0
LINE
  8
A-CASE-1
  6
DASHED
 10
223.000000
 20
-349.000000
 11
226.000000
 21
-349.000000
  0
LINE
  8
A-CASE-1
  6
DASHED
 10
214.000000
 20
-379.000000
 11
214.000000
 21
-349.000000
  0
LINE
  8
A-CASE-1
  6
DASHED
 10
226.000000
 20
-349.000000
 11
223.000000
 21
-349.000000
  0
LINE
  8
A-CASE-1
  6
DASHED
 10
217.000000
 20
-349.000000
 11
214.000000
 21
-349.000000
  0
LINE
  8
A-CASE-1
  6
DASHED
 10
214.000000
 20
-319.000000
 11
217.000000
 21
-319.000000
  0
LINE
  8
A-CASE-1
  6
DASHED
 10
223.000000
 20
-319.000000
 11
226.000000
 21
-319.000000
  0
LINE
  8
A-CASE-1
  6
DASHED
 10
214.000000
 20
-349.000000
 11
214.000000
 21
-319.000000
  0
LINE
  8
A-CASE-1
  6
DASHED
 10
226.000000
 20
-319.000000
 11
223.000000
 21
-319.000000
  0
LINE
  8
A-CASE-1
  6
DASHED
 10
217.000000
 20
-319.000000
 11
214.000000
 21
-319.000000
  0
LINE
  8
A-CASE-1
  6
DASHED
 10
214.000000
 20
-289.000000
 11
217.000000
 21
-289.000000
  0
LINE
  8
A-CASE-1
  6
DASHED
 10
223.000000
 20
-289.000000
 11
226.000000
 21
-289.000000
  0
LINE
  8
A-CASE-1
  6
DASHED
 10
214.000000
 20
-319.000000
 11
214.000000
 21
-289.000000
  0
LINE
  8
A-CASE-1
  6
DASHED
 10
210.708130
 20
-412.213203
 11
208.586809
 21
-410.091883
  0
LINE
  8
A-CASE-1
  6
DASHED
 10
204.344169
 20
-405.849242
 11
202.222848
 21
-403.727922
  0
LINE
  8
A-CASE-1
  6
DASHED
 10
214.950770
 20
-391.000000
 11
217.072091
 21
-393.121320
  0
LINE
  8
A-CASE-1
  6
DASHED
 10
221.314731
 20
-397.363961
 11
223.436052
 21
-399.485281
  0
LINE
  8
A-CASE-1
  6
DASHED
 10
223.436052
 20
-399.485281
 11
210.708130
 21
-412.213203
  0
LINE
  8
A-CASE-1
  6
DASHED
 10
202.222848
 20
-403.727922
 11
214.950770
 21
-391.000000
  0
LINE
  8
A-CASE-1
  6
DASHED
 10
226.000000
 20
-289.000000
 11
223.000000
 21
-289.000000
  0
LINE
  8
A-CASE-1
  6
DASHED
 10
217.000000
 20
-289.000000
 11
214.000000
 21
-289.000000
  0
LINE
  8
A-CASE-1
  6
DASHED
 10
214.000000
 20
-289.000000
 11
214.000000
 21
-259.000000
  0
LINE
  8
A-CASE-1
 10
102.153584
 20
-292.382214
 11
100.032264
 21
-290.260894
  0
LINE
  8
A-CASE-1
 10
103.567798
 20
-293.796428
 11
101.446477
 21
-291.675107
  0
LINE
  8
A-CASE-1
 10
112.053079
 20
-281.068506
 11
114.174400
 21
-283.189826
  0
LINE
  8
A-CASE-1
 10
110.638866
 20
-279.654292
 11
112.760186
 21
-281.775612
  0
LINE
  8
A-CASE-1
 10
112.760186
 20
-281.775612
 11
102.153584
 21
-292.382214
  0
LINE
  8
A-CASE-1
 10
101.446477
 20
-291.675107
 11
112.053079
 21
-281.068506
  0
LINE
  8
A-CASE-1
 10
106.749778
 20
-293.442874
 11
106.749778
 21
-286.371807
  0
LINE
  8
A-CASE-1
 10
113.820846
 20
-286.371807
 11
106.749778
 21
-286.371807
  0
LINE
  8
A-CASE-1
 10
112.000000
 20
-281.105156
 11
112.000000
 21
-278.105156
  0
LINE
  8
A-CASE-1
 10
112.000000
 20
-283.105156
 11
112.000000
 21
-280.105156
  0
LINE
  8
A-CASE-1
 10
127.000000
 20
-280.105156
 11
127.000000
 21
-281.105156
  0
LINE
  8
A-CASE-1
 10
127.000000
 20
-281.105156
 11
112.000000
 21
-281.105156
  0
LINE
  8
A-CASE-1
 10
112.000000
 20
-280.105156
 11
127.000000
 21
-280.105156
  0
LINE
  8
A-CASE-1
 10
114.500000
 20
-285.105156
 11
119.500000
 21
-280.105156
  0
LINE
  8
A-CASE-1
 10
124.500000
 20
-285.105156
 11
119.500000
 21
-280.105156
  0
LINE
  8
A-CASE-1
  6
DASHED
 10
214.000000
 20
-377.917416
 11
204.000000
 21
-377.917416
  0
LINE
  8
A-CASE-1
  6
DASHED
 10
204.000000
 20
-347.917416
 11
214.000000
 21
-347.917416
  0
LINE
  8
A-CASE-1
  6
DASHED
 10
214.000000
 20
-347.917416
 11
214.000000
 21
-377.917416
  0
LINE
  8
A-CASE-1
  6
DASHED
 10
204.000000
 20
-377.917416
 11
204.000000
 21
-347.917416
  0
LINE
  8
A-CASE-1
  6
DASHED
 10
6.755174
 20
-99.000000
 11
6.755174
 21
-107.000000
  0
LINE
  8
A-CASE-1
  6
DASHED
 10
-47.244826
 20
-107.000000
 11
-47.244826
 21
-99.000000
  0
LINE
  8
A-CASE-1
  6
DASHED
 10
6.755174
 20
-107.000000
 11
-47.244826
 21
-107.000000
  0
LINE
  8
A-CASE-1
 10
6.636081
 20
-99.000000
 11
6.636081
 21
-102.000000
  0
LINE
  8
A-CASE-1
 10
-2.363919
 20
-102.000000
 11
-2.363919
 21
-99.000000
  0
LINE
  8
A-CASE-1
 10
6.636081
 20
-102.000000
 11
-2.363919
 21
-102.000000
  0
LINE
  8
A-CASE-1
 10
7.136081
 20
-97.000000
 11
2.136081
 21
-102.000000
  0
LINE
  8
A-CASE-1
 10
-2.863919
 20
-97.000000
 11
2.136081
 21
-102.000000
  0
LINE
  8
A-CASE-1
 10
-38.213414
 20
-99.000000
 11
-38.213414
 21
-102.000000
  0
LINE
  8
A-CASE-1
 10
-47.213414
 20
-102.000000
 11
-47.213414
 21
-99.000000
  0
LINE
  8
A-CASE-1
 10
-38.213414
 20
-102.000000
 11
-47.213414
 21
-102.000000
  0
LINE
  8
A-CASE-1
 10
-37.713414
 20
-97.000000
 11
-42.713414
 21
-102.000000
  0
LINE
  8
A-CASE-1
 10
-47.713414
 20
-97.000000
 11
-42.713414
 21
-102.000000
  0
TEXT
  8
A-NOTE-1
 10
-34.482395
 20
-583.098449
 40
5.080777
  1
LANDING
  7
STANDARD
  0
TEXT
  8
A-NOTE-1
 10
-26.893107
 20
-590.701495
 40
3.846094
  1
3'2 x 3'2
  7
STANDARD
  0
TEXT
  8
A-NOTE-1
 10
-2.992458
 20
-398.016159
 40
4.572699
  1
CLOSET
  7
STANDARD
  0
TEXT
  8
A-NOTE-1
 10
0.115091
 20
-404.128950
 40
3.365332
  1
3'10 x 1'3
  7
STANDARD
  0
TEXT
  8
A-NOTE-1
 10
-235.122854
 20
-329.335705
 40
8.129243
  1
LIVING ROOM
  7
STANDARD
  0
TEXT
  8
A-NOTE-1
 10
-214.302692
 20
-340.706129
 40
6.249902
  1
13' x 17'5
  7
STANDARD
  0
TEXT
  8
A-NOTE-1
 10
68.278494
 20
-709.170734
 40
8.129243
  1
GARAGE
  7
STANDARD
  0
TEXT
  8
A-NOTE-1
 10
74.918257
 20
-720.541157
 40
6.249902
  1
22' x 22'4
  7
STANDARD
  0
TEXT
  8
A-NOTE-1
 10
97.461847
 20
-447.477700
 40
8.129243
  1
DINING ROOM
  7
STANDARD
  0
TEXT
  8
A-NOTE-1
 10
119.736412
 20
-458.848123
 40
6.249902
  1
15'4 x 12'
  7
STANDARD
  0
TEXT
  8
A-NOTE-1
 10
44.039305
 20
-402.194167
 40
3.556544
  1
CHASE
  7
STANDARD
  0
TEXT
  8
A-NOTE-1
 10
47.841935
 20
-406.850847
 40
2.403809
  1
1'7 x 2'
  7
STANDARD
  0
TEXT
  8
A-NOTE-1
 10
43.422172
 20
-370.205837
 40
8.129243
  1
KITCHEN
  7
STANDARD
  0
TEXT
  8
A-NOTE-1
 10
53.345914
 20
-381.576261
 40
6.249902
  1
28' x 13'
  7
STANDARD
  0
TEXT
  8
A-NOTE-1
 10
-99.851525
 20
-311.938357
 40
8.129243
  1
FAMILY ROOM
  7
STANDARD
  0
TEXT
  8
A-NOTE-1
 10
-74.838385
 20
-323.308780
 40
6.249902
  1
15' x 20'
  7
STANDARD
  0
TEXT
  8
A-NOTE-1
 10
-170.549609
 20
-757.294859
 40
7.113088
  1
PORCH
  7
STANDARD
  0
TEXT
  8
A-NOTE-1
 10
-163.056461
 20
-767.209173
 40
5.288379
  1
11' x 4'
  7
STANDARD
  0
TEXT
  8
A-NOTE-1
 10
12.050616
 20
-543.347443
 40
5.080777
  1
BATH
  7
STANDARD
  0
TEXT
  8
A-NOTE-1
 10
15.757108
 20
-550.950489
 40
3.846094
  1
4' x 6'
  7
STANDARD
  0
TEXT
  8
A-NOTE-1
 10
-221.190696
 20
-535.893203
 40
5.080777
  1
OPEN ABOVE
  7
STANDARD
  0
TEXT
  8
A-NOTE-1
 10
-209.837615
 20
-543.496249
 40
3.846094
  1
7'11 x 10'11
  7
STANDARD
  0
TEXT
  8
A-NOTE-1
 10
-89.904701
 20
-889.066846
 40
9.653477
  1
LIVING AREA
  7
STANDARD
  0
TEXT
  8
A-NOTE-1
 10
-69.601029
 20
-902.020483
 40
7.211426
  1
1761 sq ft
  7
STANDARD
  0
TEXT
  8
A-NOTE-1
 10
74.704198
 20
-246.857634
 40
5.080777
  1
BREAKFAST
  7
STANDARD
  0
TEXT
  8
A-NOTE-1
 10
83.633279
 20
-254.460680
 40
3.846094
  1
10'10 x 6'10
  7
STANDARD
  0
TEXT
  8
A-NOTE-1
 10
-26.158190
 20
-437.648697
 40
7.113088
  1
ELEVATOR
  7
STANDARD
  0
TEXT
  8
A-NOTE-1
 10
-15.944124
 20
-447.563010
 40
5.288379
  1
5'10 x 4'10
  7
STANDARD
  0
TEXT
  8
A-NOTE-1
 10
-126.195064
 20
-582.020034
 40
8.129243
  1
FOYER
  7
STANDARD
  0
TEXT
  8
A-NOTE-1
 10
-127.384278
 20
-593.390458
 40
6.249902
  1
10'8 x 25'6
  7
STANDARD
  0
TEXT
  8
A-NOTE-1
 10
-27.803874
 20
-505.106091
 40
7.113088
  1
HALL
  7
STANDARD
  0
TEXT
  8
A-NOTE-1
 10
-30.778382
 20
-515.020405
 40
5.288379
  1
5'10 x 4'2
  7
STANDARD
  0
TEXT
  8
A-NOTE-1
 10
-267.611830
 20
-765.042125
 40
8.129243
  1
STUDY
  7
STANDARD
  0
TEXT
  8
A-NOTE-1
 10
-268.982843
 20
-776.412548
 40
6.249902
  1
11'8 x 15'6
  7
STANDARD
  0
TEXT
  8
A-NOTE-1
 10
-35.692041
 20
-545.731419
 40
3.556544
  1
CLOSET
  7
STANDARD
  0
TEXT
  8
A-NOTE-1
 10
-30.354210
 20
-550.388100
 40
2.403809
  1
2' x 3'1
  7
STANDARD
  0
TEXT
  8
A-TEXT-1
 10
183.212604
 20
-223.829482
 40
3.556544
  1
L129
  7
STANDARD
  0
TEXT
  8
A-TEXT-1
 10
29.736721
 20
-343.010771
 40
3.556544
  1
L134
  7
STANDARD
  0
TEXT
  8
A-TEXT-1
 10
31.046303
 20
-220.554908
 40
3.556544
  1
L132
  7
STANDARD
  0
TEXT
  8
A-TEXT-1
 10
1.820225
 20
-127.100153
 40
3.556544
  1
L131
  7
STANDARD
  0
TEXT
  8
A-TEXT-1
 10
-68.609729
 20
-373.632244
 40
3.556544
  1
L125
  7
STANDARD
  0
TEXT
  8
A-TEXT-1
 10
-3.793773
 20
-490.255640
 40
3.556544
  1
L113
  7
STANDARD
  0
TEXT
  8
A-TEXT-1
 10
-177.476832
 20
-615.167092
 40
3.556544
  1
L111
  7
STANDARD
  0
TEXT
  8
A-TEXT-1
 10
-63.793375
 20
-635.166960
 40
3.556544
  1
L106
  7
STANDARD
  0
TEXT
  8
A-TEXT-1
 10
-100.284361
 20
-659.728200
 40
3.556544
  1
L107
  7
STANDARD
  0
TEXT
  8
A-TEXT-1
 10
-99.231736
 20
-542.185120
 40
3.556544
  1
L112
  7
STANDARD
  0
TEXT
  8
A-TEXT-1
 10
172.696285
 20
-670.605321
 40
3.556544
  1
L105
  7
STANDARD
  0
TEXT
  8
A-TEXT-1
 10
-58.881127
 20
-782.534403
 40
3.556544
  1
L102
  7
STANDARD
  0
TEXT
  8
A-TEXT-1
 10
9.890347
 20
-82.539045
 40
3.556544
  1
L124
  7
STANDARD
  0
TEXT
  8
A-TEXT-1
 10
83.349279
 20
-105.334407
 40
3.556544
  1
L133
  7
STANDARD
  0
TEXT
  8
A-TEXT-1
 10
242.169508
 20
-616.570592
 40
3.556544
  1
L117
  7
STANDARD
  0
TEXT
  8
A-TEXT-1
 10
-151.536298
 20
-820.428889
 40
3.556544
  1
LOCATION TBD
  7
STANDARD
  0
TEXT
  8
A-TEXT-1
 10
-165.204846
 20
-813.060517
 40
3.556544
  1
L101  2 POST LIGHTS
  7
STANDARD
  0
TEXT
  8
A-TEXT-1
 10
-112.915856
 20
-739.727670
 40
3.556544
  1
L103
  7
STANDARD
  0
TEXT
  8
A-TEXT-1
 10
-57.126752
 20
-735.868046
 40
3.556544
  1
L104
  7
STANDARD
  0
TEXT
  8
A-TEXT-1
 10
-23.793640
 20
-846.744504
 40
3.556544
  1
L100
  7
STANDARD
  0
TEXT
  8
A-TEXT-1
 10
-391.542207
 20
-53.042456
 40
7.113088
  1
Strang / Smith 2/4/2001
  7
STANDARD
  0
TEXT
  8
A-TEXT-1
 10
116.171911
 20
-286.331123
 40
3.556544
  1
10" counter overhang on this side
  7
STANDARD
  0
TEXT
  8
A-TEXT-1
 10
-1.688524
 20
-541.132496
 40
3.556544
  1
L118
  7
STANDARD
  0
TEXT
  8
A-TEXT-1
 10
25.328841
 20
-565.693736
 40
3.556544
  1
L119
  7
STANDARD
  0
TEXT
  8
A-TEXT-1
 10
-210.108194
 20
-598.675974
 40
3.556544
  1
L135
  7
STANDARD
  0
TEXT
  8
A-TEXT-1
 10
-274.246128
 20
-740.078545
 40
3.556544
  1
L109 FLOOR OUTLET
  7
STANDARD
  0
TEXT
  8
A-TEXT-1
 10
-241.002190
 20
-703.343824
 40
3.556544
  1
L110
  7
STANDARD
  0
TEXT
  8
A-TEXT-1
 10
223.573141
 20
-514.816881
 40
3.556544
  1
L116
  7
STANDARD
  0
TEXT
  8
A-TEXT-1
 10
140.064922
 20
-492.360889
 40
3.556544
  1
L115
  7
STANDARD
  0
TEXT
  8
A-TEXT-1
 10
203.584841
 20
-558.676239
 40
3.556544
  1
L114
  7
STANDARD
  0
TEXT
  8
A-TEXT-1
 10
-222.959197
 20
-431.827277
 40
3.556544
  1
L123
  7
STANDARD
  0
TEXT
  8
A-TEXT-1
 10
18.661560
 20
-374.090291
 40
3.556544
  1
L126
  7
STANDARD
  0
TEXT
  8
A-TEXT-1
 10
94.919358
 20
-323.706869
 40
3.556544
  1
L127
  7
STANDARD
  0
TEXT
  8
A-TEXT-1
 10
-238.123300
 20
-380.758666
 40
3.556544
  1
L121
  7
STANDARD
  0
TEXT
  8
A-TEXT-1
 10
-262.485270
 20
-398.242238
 40
3.556544
  1
L120
  7
STANDARD
  0
TEXT
  8
A-TEXT-1
 10
-99.582611
 20
-200.783875
 40
3.556544
  1
L136
  7
STANDARD
  0
TEXT
  8
A-TEXT-1
 10
19.323201
 20
-201.096694
 40
3.556544
  1
L130
  7
STANDARD
  0
TEXT
  8
A-TEXT-1
 10
179.868524
 20
-410.654992
 40
3.556544
  1
L131
  7
STANDARD
  0
TEXT
  8
A-TEXT-1
 10
-198.975645
 20
-726.184706
 40
3.556544
  1
L108
  7
STANDARD
  0
TEXT
  8
A-TEXT-1
 10
-259.581550
 20
-421.835041
 40
3.556544
  1
L122
  7
STANDARD
  0
TEXT
  8
A-TEXT-1
 10
135.517896
 20
-230.139585
 40
3.556544
  1
L128
  7
STANDARD
  0
LINE
  8
A-DIMS-1
 10
-170.890313
 20
-799.000000
 11
-134.890313
 21
-799.000000
  0
LINE
  8
A-DIMS-1
 10
-136.390313
 20
-796.000000
 11
-137.890313
 21
-799.000000
  0
LINE
  8
A-DIMS-1
 10
-153.890313
 20
-775.000000
 11
-134.890313
 21
-775.000000
  0
LINE
  8
A-DIMS-1
 10
-139.390313
 20
-778.000000
 11
-137.890313
 21
-775.000000
  0
LINE
  8
A-DIMS-1
 10
-137.890313
 20
-792.878951
 11
-137.890313
 21
-799.000000
  0
LINE
  8
A-DIMS-1
 10
-137.890313
 20
-781.121049
 11
-137.890313
 21
-775.000000
  0
TEXT
  8
A-DIMS-1
 10
-135.267976
 20
-790.146804
 40
5.487240
  1
2'
 50
90.000000
  7
STANDARD
  0
LINE
  8
A-DIMS-1
 10
304.109687
 20
-839.000000
 11
320.109687
 21
-839.000000
  0
LINE
  8
A-DIMS-1
 10
318.609687
 20
-836.000000
 11
317.109687
 21
-839.000000
  0
LINE
  8
A-DIMS-1
 10
304.109687
 20
-95.000000
 11
320.109687
 21
-95.000000
  0
LINE
  8
A-DIMS-1
 10
315.609687
 20
-98.000000
 11
317.109687
 21
-95.000000
  0
LINE
  8
A-DIMS-1
 10
317.109687
 20
-475.239054
 11
317.109687
 21
-839.000000
  0
LINE
  8
A-DIMS-1
 10
317.109687
 20
-458.760946
 11
317.109687
 21
-95.000000
  0
TEXT
  8
A-DIMS-1
 10
319.732024
 20
-472.506907
 40
5.487240
  1
62'
 50
90.000000
  7
STANDARD
  0
LINE
  8
A-DIMS-1
 10
105.109687
 20
-839.000000
 11
302.109687
 21
-839.000000
  0
LINE
  8
A-DIMS-1
 10
300.609687
 20
-836.000000
 11
299.109687
 21
-839.000000
  0
LINE
  8
A-DIMS-1
 10
286.109687
 20
-811.000000
 11
302.109687
 21
-811.000000
  0
LINE
  8
A-DIMS-1
 10
300.609687
 20
-808.000000
 11
299.109687
 21
-811.000000
  0
LINE
  8
A-DIMS-1
 10
297.609687
 20
-814.000000
 11
299.109687
 21
-811.000000
  0
LINE
  8
A-DIMS-1
 10
299.109687
 20
-833.239054
 11
299.109687
 21
-839.000000
  0
LINE
  8
A-DIMS-1
 10
299.109687
 20
-816.760946
 11
299.109687
 21
-811.000000
  0
TEXT
  8
A-DIMS-1
 10
301.732024
 20
-830.506907
 40
5.487240
  1
2'4
 50
90.000000
  7
STANDARD
  0
LINE
  8
A-DIMS-1
 10
286.109687
 20
-565.000000
 11
302.109687
 21
-565.000000
  0
LINE
  8
A-DIMS-1
 10
300.609687
 20
-562.000000
 11
299.109687
 21
-565.000000
  0
LINE
  8
A-DIMS-1
 10
297.609687
 20
-568.000000
 11
299.109687
 21
-565.000000
  0
LINE
  8
A-DIMS-1
 10
299.109687
 20
-698.599157
 11
299.109687
 21
-811.000000
  0
LINE
  8
A-DIMS-1
 10
299.109687
 20
-677.400843
 11
299.109687
 21
-565.000000
  0
TEXT
  8
A-DIMS-1
 10
301.732024
 20
-695.867010
 40
5.487240
  1
20'6
 50
90.000000
  7
STANDARD
  0
LINE
  8
A-DIMS-1
 10
286.109687
 20
-417.000000
 11
302.109687
 21
-417.000000
  0
LINE
  8
A-DIMS-1
 10
300.609687
 20
-414.000000
 11
299.109687
 21
-417.000000
  0
LINE
  8
A-DIMS-1
 10
297.609687
 20
-420.000000
 11
299.109687
 21
-417.000000
  0
LINE
  8
A-DIMS-1
 10
299.109687
 20
-501.599157
 11
299.109687
 21
-565.000000
  0
LINE
  8
A-DIMS-1
 10
299.109687
 20
-480.400843
 11
299.109687
 21
-417.000000
  0
TEXT
  8
A-DIMS-1
 10
301.732024
 20
-498.867010
 40
5.487240
  1
12'4
 50
90.000000
  7
STANDARD
  0
LINE
  8
A-DIMS-1
 10
286.109687
 20
-255.000000
 11
302.109687
 21
-255.000000
  0
LINE
  8
A-DIMS-1
 10
300.609687
 20
-252.000000
 11
299.109687
 21
-255.000000
  0
LINE
  8
A-DIMS-1
 10
297.609687
 20
-258.000000
 11
299.109687
 21
-255.000000
  0
LINE
  8
A-DIMS-1
 10
299.109687
 20
-346.599157
 11
299.109687
 21
-417.000000
  0
LINE
  8
A-DIMS-1
 10
299.109687
 20
-325.400843
 11
299.109687
 21
-255.000000
  0
TEXT
  8
A-DIMS-1
 10
301.732024
 20
-343.867010
 40
5.487240
  1
13'6
 50
90.000000
  7
STANDARD
  0
LINE
  8
A-DIMS-1
 10
286.109687
 20
-171.000000
 11
302.109687
 21
-171.000000
  0
LINE
  8
A-DIMS-1
 10
300.609687
 20
-168.000000
 11
299.109687
 21
-171.000000
  0
LINE
  8
A-DIMS-1
 10
297.609687
 20
-174.000000
 11
299.109687
 21
-171.000000
  0
LINE
  8
A-DIMS-1
 10
299.109687
 20
-218.878951
 11
299.109687
 21
-255.000000
  0
LINE
  8
A-DIMS-1
 10
299.109687
 20
-207.121049
 11
299.109687
 21
-171.000000
  0
TEXT
  8
A-DIMS-1
 10
301.732024
 20
-216.146804
 40
5.487240
  1
7'
 50
90.000000
  7
STANDARD
  0
LINE
  8
A-DIMS-1
 10
286.109687
 20
-95.000000
 11
302.109687
 21
-95.000000
  0
LINE
  8
A-DIMS-1
 10
297.609687
 20
-98.000000
 11
299.109687
 21
-95.000000
  0
LINE
  8
A-DIMS-1
 10
299.109687
 20
-141.239054
 11
299.109687
 21
-171.000000
  0
LINE
  8
A-DIMS-1
 10
299.109687
 20
-124.760946
 11
299.109687
 21
-95.000000
  0
TEXT
  8
A-DIMS-1
 10
301.732024
 20
-138.506907
 40
5.487240
  1
6'4
 50
90.000000
  7
STANDARD
  0
LINE
  8
A-DIMS-1
 10
233.109687
 20
-811.000000
 11
284.109687
 21
-811.000000
  0
LINE
  8
A-DIMS-1
 10
282.609687
 20
-808.000000
 11
281.109687
 21
-811.000000
  0
LINE
  8
A-DIMS-1
 10
242.109687
 20
-589.000000
 11
284.109687
 21
-589.000000
  0
LINE
  8
A-DIMS-1
 10
282.609687
 20
-586.000000
 11
281.109687
 21
-589.000000
  0
LINE
  8
A-DIMS-1
 10
279.609687
 20
-592.000000
 11
281.109687
 21
-589.000000
  0
LINE
  8
A-DIMS-1
 10
281.109687
 20
-710.599157
 11
281.109687
 21
-811.000000
  0
LINE
  8
A-DIMS-1
 10
281.109687
 20
-689.400843
 11
281.109687
 21
-589.000000
  0
TEXT
  8
A-DIMS-1
 10
283.732024
 20
-707.867010
 40
5.487240
  1
18'6
 50
90.000000
  7
STANDARD
  0
LINE
  8
A-DIMS-1
 10
233.109687
 20
-565.000000
 11
284.109687
 21
-565.000000
  0
LINE
  8
A-DIMS-1
 10
282.609687
 20
-562.000000
 11
281.109687
 21
-565.000000
  0
LINE
  8
A-DIMS-1
 10
279.609687
 20
-568.000000
 11
281.109687
 21
-565.000000
  0
LINE
  8
A-DIMS-1
 10
281.109687
 20
-582.878951
 11
281.109687
 21
-589.000000
  0
LINE
  8
A-DIMS-1
 10
281.109687
 20
-571.121049
 11
281.109687
 21
-565.000000
  0
TEXT
  8
A-DIMS-1
 10
283.732024
 20
-580.146804
 40
5.487240
  1
2'
 50
90.000000
  7
STANDARD
  0
LINE
  8
A-DIMS-1
 10
266.109687
 20
-491.000000
 11
284.109687
 21
-491.000000
  0
LINE
  8
A-DIMS-1
 10
282.609687
 20
-488.000000
 11
281.109687
 21
-491.000000
  0
LINE
  8
A-DIMS-1
 10
279.609687
 20
-494.000000
 11
281.109687
 21
-491.000000
  0
LINE
  8
A-DIMS-1
 10
281.109687
 20
-536.239054
 11
281.109687
 21
-565.000000
  0
LINE
  8
A-DIMS-1
 10
281.109687
 20
-519.760946
 11
281.109687
 21
-491.000000
  0
TEXT
  8
A-DIMS-1
 10
283.732024
 20
-533.506907
 40
5.487240
  1
6'2
 50
90.000000
  7
STANDARD
  0
LINE
  8
A-DIMS-1
 10
233.109687
 20
-417.000000
 11
284.109687
 21
-417.000000
  0
LINE
  8
A-DIMS-1
 10
282.609687
 20
-414.000000
 11
281.109687
 21
-417.000000
  0
LINE
  8
A-DIMS-1
 10
279.609687
 20
-420.000000
 11
281.109687
 21
-417.000000
  0
LINE
  8
A-DIMS-1
 10
281.109687
 20
-462.239054
 11
281.109687
 21
-491.000000
  0
LINE
  8
A-DIMS-1
 10
281.109687
 20
-445.760946
 11
281.109687
 21
-417.000000
  0
TEXT
  8
A-DIMS-1
 10
283.732024
 20
-459.506907
 40
5.487240
  1
6'2
 50
90.000000
  7
STANDARD
  0
LINE
  8
A-DIMS-1
 10
242.109687
 20
-401.000000
 11
284.109687
 21
-401.000000
  0
LINE
  8
A-DIMS-1
 10
282.609687
 20
-398.000000
 11
281.109687
 21
-401.000000
  0
LINE
  8
A-DIMS-1
 10
279.609687
 20
-404.000000
 11
281.109687
 21
-401.000000
  0
LINE
  8
A-DIMS-1
 10
281.109687
 20
-417.239054
 11
281.109687
 21
-417.000000
  0
LINE
  8
A-DIMS-1
 10
281.109687
 20
-400.760946
 11
281.109687
 21
-401.000000
  0
TEXT
  8
A-DIMS-1
 10
283.732024
 20
-414.506907
 40
5.487240
  1
1'4
 50
90.000000
  7
STANDARD
  0
LINE
  8
A-DIMS-1
 10
242.109687
 20
-337.000000
 11
284.109687
 21
-337.000000
  0
LINE
  8
A-DIMS-1
 10
282.609687
 20
-334.000000
 11
281.109687
 21
-337.000000
  0
LINE
  8
A-DIMS-1
 10
279.609687
 20
-340.000000
 11
281.109687
 21
-337.000000
  0
LINE
  8
A-DIMS-1
 10
281.109687
 20
-377.239054
 11
281.109687
 21
-401.000000
  0
LINE
  8
A-DIMS-1
 10
281.109687
 20
-360.760946
 11
281.109687
 21
-337.000000
  0
TEXT
  8
A-DIMS-1
 10
283.732024
 20
-374.506907
 40
5.487240
  1
5'4
 50
90.000000
  7
STANDARD
  0
LINE
  8
A-DIMS-1
 10
242.109687
 20
-273.000000
 11
284.109687
 21
-273.000000
  0
LINE
  8
A-DIMS-1
 10
282.609687
 20
-270.000000
 11
281.109687
 21
-273.000000
  0
LINE
  8
A-DIMS-1
 10
279.609687
 20
-276.000000
 11
281.109687
 21
-273.000000
  0
LINE
  8
A-DIMS-1
 10
281.109687
 20
-313.239054
 11
281.109687
 21
-337.000000
  0
LINE
  8
A-DIMS-1
 10
281.109687
 20
-296.760946
 11
281.109687
 21
-273.000000
  0
TEXT
  8
A-DIMS-1
 10
283.732024
 20
-310.506907
 40
5.487240
  1
5'4
 50
90.000000
  7
STANDARD
  0
LINE
  8
A-DIMS-1
 10
233.109687
 20
-255.000000
 11
284.109687
 21
-255.000000
  0
LINE
  8
A-DIMS-1
 10
282.609687
 20
-252.000000
 11
281.109687
 21
-255.000000
  0
LINE
  8
A-DIMS-1
 10
279.609687
 20
-258.000000
 11
281.109687
 21
-255.000000
  0
LINE
  8
A-DIMS-1
 10
281.109687
 20
-272.239054
 11
281.109687
 21
-273.000000
  0
LINE
  8
A-DIMS-1
 10
281.109687
 20
-255.760946
 11
281.109687
 21
-255.000000
  0
TEXT
  8
A-DIMS-1
 10
283.732024
 20
-269.506907
 40
5.487240
  1
1'6
 50
90.000000
  7
STANDARD
  0
LINE
  8
A-DIMS-1
 10
218.109687
 20
-215.000000
 11
284.109687
 21
-215.000000
  0
LINE
  8
A-DIMS-1
 10
282.609687
 20
-212.000000
 11
281.109687
 21
-215.000000
  0
LINE
  8
A-DIMS-1
 10
279.609687
 20
-218.000000
 11
281.109687
 21
-215.000000
  0
LINE
  8
A-DIMS-1
 10
281.109687
 20
-243.239054
 11
281.109687
 21
-255.000000
  0
LINE
  8
A-DIMS-1
 10
281.109687
 20
-226.760946
 11
281.109687
 21
-215.000000
  0
TEXT
  8
A-DIMS-1
 10
283.732024
 20
-240.506907
 40
5.487240
  1
3'4
 50
90.000000
  7
STANDARD
  0
LINE
  8
A-DIMS-1
 10
209.109687
 20
-171.000000
 11
284.109687
 21
-171.000000
  0
LINE
  8
A-DIMS-1
 10
282.609687
 20
-168.000000
 11
281.109687
 21
-171.000000
  0
LINE
  8
A-DIMS-1
 10
279.609687
 20
-174.000000
 11
281.109687
 21
-171.000000
  0
LINE
  8
A-DIMS-1
 10
281.109687
 20
-201.239054
 11
281.109687
 21
-215.000000
  0
LINE
  8
A-DIMS-1
 10
281.109687
 20
-184.760946
 11
281.109687
 21
-171.000000
  0
TEXT
  8
A-DIMS-1
 10
283.732024
 20
-198.506907
 40
5.487240
  1
3'8
 50
90.000000
  7
STANDARD
  0
LINE
  8
A-DIMS-1
 10
86.109687
 20
-123.000000
 11
284.109687
 21
-123.000000
  0
LINE
  8
A-DIMS-1
 10
282.609687
 20
-120.000000
 11
281.109687
 21
-123.000000
  0
LINE
  8
A-DIMS-1
 10
279.609687
 20
-126.000000
 11
281.109687
 21
-123.000000
  0
LINE
  8
A-DIMS-1
 10
281.109687
 20
-152.878951
 11
281.109687
 21
-171.000000
  0
LINE
  8
A-DIMS-1
 10
281.109687
 20
-141.121049
 11
281.109687
 21
-123.000000
  0
TEXT
  8
A-DIMS-1
 10
283.732024
 20
-150.146804
 40
5.487240
  1
4'
 50
90.000000
  7
STANDARD
  0
LINE
  8
A-DIMS-1
 10
77.109687
 20
-95.000000
 11
284.109687
 21
-95.000000
  0
LINE
  8
A-DIMS-1
 10
279.609687
 20
-98.000000
 11
281.109687
 21
-95.000000
  0
LINE
  8
A-DIMS-1
 10
281.109687
 20
-117.239054
 11
281.109687
 21
-123.000000
  0
LINE
  8
A-DIMS-1
 10
281.109687
 20
-100.760946
 11
281.109687
 21
-95.000000
  0
TEXT
  8
A-DIMS-1
 10
283.732024
 20
-114.506907
 40
5.487240
  1
2'4
 50
90.000000
  7
STANDARD
  0
LINE
  8
A-DIMS-1
 10
-322.000000
 20
-897.892242
 11
-322.000000
 21
-913.892242
  0
LINE
  8
A-DIMS-1
 10
-319.000000
 20
-912.392242
 11
-322.000000
 21
-910.892242
  0
LINE
  8
A-DIMS-1
 10
230.000000
 20
-897.892242
 11
230.000000
 21
-913.892242
  0
LINE
  8
A-DIMS-1
 10
227.000000
 20
-909.392242
 11
230.000000
 21
-910.892242
  0
LINE
  8
A-DIMS-1
 10
-54.239054
 20
-910.892242
 11
-322.000000
 21
-910.892242
  0
LINE
  8
A-DIMS-1
 10
-37.760946
 20
-910.892242
 11
230.000000
 21
-910.892242
  0
TEXT
  8
A-DIMS-1
 10
-51.506907
 20
-913.514579
 40
5.487240
  1
46'
  7
STANDARD
  0
LINE
  8
A-DIMS-1
 10
-322.000000
 20
-879.892242
 11
-322.000000
 21
-895.892242
  0
LINE
  8
A-DIMS-1
 10
-319.000000
 20
-894.392242
 11
-322.000000
 21
-892.892242
  0
LINE
  8
A-DIMS-1
 10
-174.000000
 20
-879.892242
 11
-174.000000
 21
-895.892242
  0
LINE
  8
A-DIMS-1
 10
-171.000000
 20
-894.392242
 11
-174.000000
 21
-892.892242
  0
LINE
  8
A-DIMS-1
 10
-177.000000
 20
-891.392242
 11
-174.000000
 21
-892.892242
  0
LINE
  8
A-DIMS-1
 10
-258.599157
 20
-892.892242
 11
-322.000000
 21
-892.892242
  0
LINE
  8
A-DIMS-1
 10
-237.400843
 20
-892.892242
 11
-174.000000
 21
-892.892242
  0
TEXT
  8
A-DIMS-1
 10
-255.867010
 20
-895.514579
 40
5.487240
  1
12'4
  7
STANDARD
  0
LINE
  8
A-DIMS-1
 10
-57.256226
 20
-780.892242
 11
-57.256226
 21
-895.892242
  0
LINE
  8
A-DIMS-1
 10
-54.256226
 20
-894.392242
 11
-57.256226
 21
-892.892242
  0
LINE
  8
A-DIMS-1
 10
-60.256226
 20
-891.392242
 11
-57.256226
 21
-892.892242
  0
LINE
  8
A-DIMS-1
 10
-127.800671
 20
-892.892242
 11
-174.000000
 21
-892.892242
  0
LINE
  8
A-DIMS-1
 10
-103.455554
 20
-892.892242
 11
-57.256226
 21
-892.892242
  0
TEXT
  8
A-DIMS-1
 10
-125.068524
 20
-895.514579
 40
5.487240
  1
9'8"6
  7
STANDARD
  0
LINE
  8
A-DIMS-1
 10
-42.000000
 20
-879.892242
 11
-42.000000
 21
-895.892242
  0
LINE
  8
A-DIMS-1
 10
-39.000000
 20
-894.392242
 11
-42.000000
 21
-892.892242
  0
LINE
  8
A-DIMS-1
 10
-45.000000
 20
-891.392242
 11
-42.000000
 21
-892.892242
  0
TEXT
  8
A-DIMS-1
 10
-37.279794
 20
-889.942113
 40
5.487240
  1
1'3"2
  7
STANDARD
  0
LINE
  8
A-DIMS-1
 10
-57.256226
 20
-892.892242
 11
-42.000000
 21
-892.892242
  0
LINE
  8
A-DIMS-1
 10
102.000000
 20
-879.892242
 11
102.000000
 21
-895.892242
  0
LINE
  8
A-DIMS-1
 10
105.000000
 20
-894.392242
 11
102.000000
 21
-892.892242
  0
LINE
  8
A-DIMS-1
 10
99.000000
 20
-891.392242
 11
102.000000
 21
-892.892242
  0
LINE
  8
A-DIMS-1
 10
21.760946
 20
-892.892242
 11
-42.000000
 21
-892.892242
  0
LINE
  8
A-DIMS-1
 10
38.239054
 20
-892.892242
 11
102.000000
 21
-892.892242
  0
TEXT
  8
A-DIMS-1
 10
24.493093
 20
-895.514579
 40
5.487240
  1
12'
  7
STANDARD
  0
LINE
  8
A-DIMS-1
 10
230.000000
 20
-879.892242
 11
230.000000
 21
-895.892242
  0
LINE
  8
A-DIMS-1
 10
227.000000
 20
-891.392242
 11
230.000000
 21
-892.892242
  0
LINE
  8
A-DIMS-1
 10
155.400843
 20
-892.892242
 11
102.000000
 21
-892.892242
  0
LINE
  8
A-DIMS-1
 10
176.599157
 20
-892.892242
 11
230.000000
 21
-892.892242
  0
TEXT
  8
A-DIMS-1
 10
158.132990
 20
-895.514579
 40
5.487240
  1
10'8
  7
STANDARD
  0
LINE
  8
A-DIMS-1
 10
-42.000000
 20
-842.892242
 11
-42.000000
 21
-877.892242
  0
LINE
  8
A-DIMS-1
 10
-39.000000
 20
-876.392242
 11
-42.000000
 21
-874.892242
  0
LINE
  8
A-DIMS-1
 10
30.000000
 20
-851.892242
 11
30.000000
 21
-877.892242
  0
LINE
  8
A-DIMS-1
 10
33.000000
 20
-876.392242
 11
30.000000
 21
-874.892242
  0
LINE
  8
A-DIMS-1
 10
27.000000
 20
-873.392242
 11
30.000000
 21
-874.892242
  0
LINE
  8
A-DIMS-1
 10
-11.878951
 20
-874.892242
 11
-42.000000
 21
-874.892242
  0
LINE
  8
A-DIMS-1
 10
-0.121049
 20
-874.892242
 11
30.000000
 21
-874.892242
  0
TEXT
  8
A-DIMS-1
 10
-9.146804
 20
-877.514579
 40
5.487240
  1
6'
  7
STANDARD
  0
LINE
  8
A-DIMS-1
 10
101.999985
 20
-842.892242
 11
101.999985
 21
-877.892242
  0
LINE
  8
A-DIMS-1
 10
104.999985
 20
-876.392242
 11
101.999985
 21
-874.892242
  0
LINE
  8
A-DIMS-1
 10
98.999985
 20
-873.392242
 11
101.999985
 21
-874.892242
  0
LINE
  8
A-DIMS-1
 10
60.121042
 20
-874.892242
 11
30.000000
 21
-874.892242
  0
LINE
  8
A-DIMS-1
 10
71.878943
 20
-874.892242
 11
101.999985
 21
-874.892242
  0
TEXT
  8
A-DIMS-1
 10
62.853188
 20
-877.514579
 40
5.487240
  1
6'
  7
STANDARD
  0
LINE
  8
A-DIMS-1
 10
163.999985
 20
-823.892242
 11
163.999985
 21
-877.892242
  0
LINE
  8
A-DIMS-1
 10
166.999985
 20
-876.392242
 11
163.999985
 21
-874.892242
  0
LINE
  8
A-DIMS-1
 10
160.999985
 20
-873.392242
 11
163.999985
 21
-874.892242
  0
LINE
  8
A-DIMS-1
 10
124.760931
 20
-874.892242
 11
101.999985
 21
-874.892242
  0
LINE
  8
A-DIMS-1
 10
141.239038
 20
-874.892242
 11
163.999985
 21
-874.892242
  0
TEXT
  8
A-DIMS-1
 10
127.493078
 20
-877.514579
 40
5.487240
  1
5'2
  7
STANDARD
  0
LINE
  8
A-DIMS-1
 10
229.999985
 20
-814.892242
 11
229.999985
 21
-877.892242
  0
LINE
  8
A-DIMS-1
 10
226.999985
 20
-873.392242
 11
229.999985
 21
-874.892242
  0
LINE
  8
A-DIMS-1
 10
188.760931
 20
-874.892242
 11
163.999985
 21
-874.892242
  0
LINE
  8
A-DIMS-1
 10
205.239038
 20
-874.892242
 11
229.999985
 21
-874.892242
  0
TEXT
  8
A-DIMS-1
 10
191.493078
 20
-877.514579
 40
5.487240
  1
5'6
  7
STANDARD
  0
LINE
  8
A-DIMS-1
 10
-322.000000
 20
-802.892242
 11
-322.000000
 21
-877.892242
  0
LINE
  8
A-DIMS-1
 10
-319.000000
 20
-876.392242
 11
-322.000000
 21
-874.892242
  0
LINE
  8
A-DIMS-1
 10
-283.000000
 20
-811.892242
 11
-283.000000
 21
-877.892242
  0
LINE
  8
A-DIMS-1
 10
-280.000000
 20
-876.392242
 11
-283.000000
 21
-874.892242
  0
LINE
  8
A-DIMS-1
 10
-286.000000
 20
-873.392242
 11
-283.000000
 21
-874.892242
  0
LINE
  8
A-DIMS-1
 10
-310.739054
 20
-874.892242
 11
-322.000000
 21
-874.892242
  0
LINE
  8
A-DIMS-1
 10
-294.260946
 20
-874.892242
 11
-283.000000
 21
-874.892242
  0
TEXT
  8
A-DIMS-1
 10
-308.006907
 20
-877.514579
 40
5.487240
  1
3'3
  7
STANDARD
  0
LINE
  8
A-DIMS-1
 10
-248.000000
 20
-811.892242
 11
-248.000000
 21
-877.892242
  0
LINE
  8
A-DIMS-1
 10
-245.000000
 20
-876.392242
 11
-248.000000
 21
-874.892242
  0
LINE
  8
A-DIMS-1
 10
-251.000000
 20
-873.392242
 11
-248.000000
 21
-874.892242
  0
LINE
  8
A-DIMS-1
 10
-276.099157
 20
-874.892242
 11
-283.000000
 21
-874.892242
  0
LINE
  8
A-DIMS-1
 10
-254.900843
 20
-874.892242
 11
-248.000000
 21
-874.892242
  0
TEXT
  8
A-DIMS-1
 10
-273.367010
 20
-877.514579
 40
5.487240
  1
2'11
  7
STANDARD
  0
LINE
  8
A-DIMS-1
 10
-213.000000
 20
-811.892242
 11
-213.000000
 21
-877.892242
  0
LINE
  8
A-DIMS-1
 10
-210.000000
 20
-876.392242
 11
-213.000000
 21
-874.892242
  0
LINE
  8
A-DIMS-1
 10
-216.000000
 20
-873.392242
 11
-213.000000
 21
-874.892242
  0
LINE
  8
A-DIMS-1
 10
-241.099157
 20
-874.892242
 11
-248.000000
 21
-874.892242
  0
LINE
  8
A-DIMS-1
 10
-219.900843
 20
-874.892242
 11
-213.000000
 21
-874.892242
  0
TEXT
  8
A-DIMS-1
 10
-238.367010
 20
-877.514579
 40
5.487240
  1
2'11
  7
STANDARD
  0
LINE
  8
A-DIMS-1
 10
-174.000000
 20
-802.892242
 11
-174.000000
 21
-877.892242
  0
LINE
  8
A-DIMS-1
 10
-177.000000
 20
-873.392242
 11
-174.000000
 21
-874.892242
  0
LINE
  8
A-DIMS-1
 10
-201.739054
 20
-874.892242
 11
-213.000000
 21
-874.892242
  0
LINE
  8
A-DIMS-1
 10
-185.260946
 20
-874.892242
 11
-174.000000
 21
-874.892242
  0
TEXT
  8
A-DIMS-1
 10
-199.006907
 20
-877.514579
 40
5.487240
  1
3'3
  7
STANDARD
  0
LINE
  8
A-DIMS-1
 10
-277.000000
 20
-566.392242
 11
-274.000000
 21
-567.892242
  0
LINE
  8
A-DIMS-1
 10
-285.979007
 20
-599.892242
 11
-285.979007
 21
-564.892242
  0
LINE
  8
A-DIMS-1
 10
-282.979007
 20
-569.392242
 11
-285.979007
 21
-567.892242
  0
LINE
  8
A-DIMS-1
 10
-274.110553
 20
-567.892242
 11
-274.000000
 21
-567.892242
  0
LINE
  8
A-DIMS-1
 10
-285.868454
 20
-567.892242
 11
-285.979007
 21
-567.892242
  0
TEXT
  8
A-DIMS-1
 10
-283.136307
 20
-570.514579
 40
5.487240
  1
1'
  7
STANDARD
  0
LINE
  8
A-DIMS-1
 10
230.000000
 20
-36.892242
 11
230.000000
 21
-20.892242
  0
LINE
  8
A-DIMS-1
 10
227.000000
 20
-22.392242
 11
230.000000
 21
-23.892242
  0
LINE
  8
A-DIMS-1
 10
-274.000000
 20
-36.892242
 11
-274.000000
 21
-20.892242
  0
LINE
  8
A-DIMS-1
 10
-271.000000
 20
-25.392242
 11
-274.000000
 21
-23.892242
  0
LINE
  8
A-DIMS-1
 10
-13.760946
 20
-23.892242
 11
230.000000
 21
-23.892242
  0
LINE
  8
A-DIMS-1
 10
-30.239054
 20
-23.892242
 11
-274.000000
 21
-23.892242
  0
TEXT
  8
A-DIMS-1
 10
-27.506907
 20
-26.514579
 40
5.487240
  1
42'
  7
STANDARD
  0
LINE
  8
A-DIMS-1
 10
230.000000
 20
-251.892242
 11
230.000000
 21
-38.892242
  0
LINE
  8
A-DIMS-1
 10
227.000000
 20
-40.392242
 11
230.000000
 21
-41.892242
  0
LINE
  8
A-DIMS-1
 10
206.000000
 20
-54.892242
 11
206.000000
 21
-38.892242
  0
LINE
  8
A-DIMS-1
 10
203.000000
 20
-40.392242
 11
206.000000
 21
-41.892242
  0
LINE
  8
A-DIMS-1
 10
209.000000
 20
-43.392242
 11
206.000000
 21
-41.892242
  0
LINE
  8
A-DIMS-1
 10
223.878951
 20
-41.892242
 11
230.000000
 21
-41.892242
  0
LINE
  8
A-DIMS-1
 10
212.121049
 20
-41.892242
 11
206.000000
 21
-41.892242
  0
TEXT
  8
A-DIMS-1
 10
214.853196
 20
-44.514579
 40
5.487240
  1
2'
  7
STANDARD
  0
LINE
  8
A-DIMS-1
 10
74.000000
 20
-54.892242
 11
74.000000
 21
-38.892242
  0
LINE
  8
A-DIMS-1
 10
71.000000
 20
-40.392242
 11
74.000000
 21
-41.892242
  0
LINE
  8
A-DIMS-1
 10
77.000000
 20
-43.392242
 11
74.000000
 21
-41.892242
  0
LINE
  8
A-DIMS-1
 10
148.239054
 20
-41.892242
 11
206.000000
 21
-41.892242
  0
LINE
  8
A-DIMS-1
 10
131.760946
 20
-41.892242
 11
74.000000
 21
-41.892242
  0
TEXT
  8
A-DIMS-1
 10
134.493093
 20
-44.514579
 40
5.487240
  1
11'
  7
STANDARD
  0
LINE
  8
A-DIMS-1
 10
-114.000000
 20
-54.892242
 11
-114.000000
 21
-38.892242
  0
LINE
  8
A-DIMS-1
 10
-117.000000
 20
-40.392242
 11
-114.000000
 21
-41.892242
  0
LINE
  8
A-DIMS-1
 10
-111.000000
 20
-43.392242
 11
-114.000000
 21
-41.892242
  0
LINE
  8
A-DIMS-1
 10
-9.400843
 20
-41.892242
 11
74.000000
 21
-41.892242
  0
LINE
  8
A-DIMS-1
 10
-30.599157
 20
-41.892242
 11
-114.000000
 21
-41.892242
  0
TEXT
  8
A-DIMS-1
 10
-27.867010
 20
-44.514579
 40
5.487240
  1
15'8
  7
STANDARD
  0
LINE
  8
A-DIMS-1
 10
-274.000000
 20
-54.892242
 11
-274.000000
 21
-38.892242
  0
LINE
  8
A-DIMS-1
 10
-271.000000
 20
-43.392242
 11
-274.000000
 21
-41.892242
  0
LINE
  8
A-DIMS-1
 10
-183.400843
 20
-41.892242
 11
-114.000000
 21
-41.892242
  0
LINE
  8
A-DIMS-1
 10
-204.599157
 20
-41.892242
 11
-274.000000
 21
-41.892242
  0
TEXT
  8
A-DIMS-1
 10
-201.867010
 20
-44.514579
 40
5.487240
  1
13'4
  7
STANDARD
  0
LINE
  8
A-DIMS-1
 10
206.000000
 20
-167.892242
 11
206.000000
 21
-56.892242
  0
LINE
  8
A-DIMS-1
 10
203.000000
 20
-58.392242
 11
206.000000
 21
-59.892242
  0
LINE
  8
A-DIMS-1
 10
172.000000
 20
-158.892242
 11
172.000000
 21
-56.892242
  0
LINE
  8
A-DIMS-1
 10
169.000000
 20
-58.392242
 11
172.000000
 21
-59.892242
  0
LINE
  8
A-DIMS-1
 10
175.000000
 20
-61.392242
 11
172.000000
 21
-59.892242
  0
LINE
  8
A-DIMS-1
 10
199.599157
 20
-59.892242
 11
206.000000
 21
-59.892242
  0
LINE
  8
A-DIMS-1
 10
178.400843
 20
-59.892242
 11
172.000000
 21
-59.892242
  0
TEXT
  8
A-DIMS-1
 10
181.132990
 20
-62.514579
 40
5.487240
  1
2'10
  7
STANDARD
  0
LINE
  8
A-DIMS-1
 10
124.000000
 20
-158.892242
 11
124.000000
 21
-56.892242
  0
LINE
  8
A-DIMS-1
 10
121.000000
 20
-58.392242
 11
124.000000
 21
-59.892242
  0
LINE
  8
A-DIMS-1
 10
127.000000
 20
-61.392242
 11
124.000000
 21
-59.892242
  0
LINE
  8
A-DIMS-1
 10
153.878951
 20
-59.892242
 11
172.000000
 21
-59.892242
  0
LINE
  8
A-DIMS-1
 10
142.121049
 20
-59.892242
 11
124.000000
 21
-59.892242
  0
TEXT
  8
A-DIMS-1
 10
144.853196
 20
-62.514579
 40
5.487240
  1
4'
  7
STANDARD
  0
LINE
  8
A-DIMS-1
 10
74.000000
 20
-91.892242
 11
74.000000
 21
-56.892242
  0
LINE
  8
A-DIMS-1
 10
71.000000
 20
-58.392242
 11
74.000000
 21
-59.892242
  0
LINE
  8
A-DIMS-1
 10
77.000000
 20
-61.392242
 11
74.000000
 21
-59.892242
  0
LINE
  8
A-DIMS-1
 10
107.239054
 20
-59.892242
 11
124.000000
 21
-59.892242
  0
LINE
  8
A-DIMS-1
 10
90.760946
 20
-59.892242
 11
74.000000
 21
-59.892242
  0
TEXT
  8
A-DIMS-1
 10
93.493093
 20
-62.514579
 40
5.487240
  1
4'2
  7
STANDARD
  0
LINE
  8
A-DIMS-1
 10
40.000000
 20
-82.892242
 11
40.000000
 21
-56.892242
  0
LINE
  8
A-DIMS-1
 10
37.000000
 20
-58.392242
 11
40.000000
 21
-59.892242
  0
LINE
  8
A-DIMS-1
 10
43.000000
 20
-61.392242
 11
40.000000
 21
-59.892242
  0
LINE
  8
A-DIMS-1
 10
67.599157
 20
-59.892242
 11
74.000000
 21
-59.892242
  0
LINE
  8
A-DIMS-1
 10
46.400843
 20
-59.892242
 11
40.000000
 21
-59.892242
  0
TEXT
  8
A-DIMS-1
 10
49.132990
 20
-62.514579
 40
5.487240
  1
2'10
  7
STANDARD
  0
LINE
  8
A-DIMS-1
 10
-80.000000
 20
-82.892242
 11
-80.000000
 21
-56.892242
  0
LINE
  8
A-DIMS-1
 10
-83.000000
 20
-58.392242
 11
-80.000000
 21
-59.892242
  0
LINE
  8
A-DIMS-1
 10
-77.000000
 20
-61.392242
 11
-80.000000
 21
-59.892242
  0
LINE
  8
A-DIMS-1
 10
-11.760946
 20
-59.892242
 11
40.000000
 21
-59.892242
  0
LINE
  8
A-DIMS-1
 10
-28.239054
 20
-59.892242
 11
-80.000000
 21
-59.892242
  0
TEXT
  8
A-DIMS-1
 10
-25.506907
 20
-62.514579
 40
5.487240
  1
10'
  7
STANDARD
  0
LINE
  8
A-DIMS-1
 10
-114.000000
 20
-91.892242
 11
-114.000000
 21
-56.892242
  0
LINE
  8
A-DIMS-1
 10
-117.000000
 20
-58.392242
 11
-114.000000
 21
-59.892242
  0
LINE
  8
A-DIMS-1
 10
-111.000000
 20
-61.392242
 11
-114.000000
 21
-59.892242
  0
LINE
  8
A-DIMS-1
 10
-86.400843
 20
-59.892242
 11
-80.000000
 21
-59.892242
  0
LINE
  8
A-DIMS-1
 10
-107.599157
 20
-59.892242
 11
-114.000000
 21
-59.892242
  0
TEXT
  8
A-DIMS-1
 10
-104.867010
 20
-62.514579
 40
5.487240
  1
2'10
  7
STANDARD
  0
LINE
  8
A-DIMS-1
 10
-144.000000
 20
-242.892242
 11
-144.000000
 21
-56.892242
  0
LINE
  8
A-DIMS-1
 10
-147.000000
 20
-58.392242
 11
-144.000000
 21
-59.892242
  0
LINE
  8
A-DIMS-1
 10
-141.000000
 20
-61.392242
 11
-144.000000
 21
-59.892242
  0
LINE
  8
A-DIMS-1
 10
-120.760946
 20
-59.892242
 11
-114.000000
 21
-59.892242
  0
LINE
  8
A-DIMS-1
 10
-137.239054
 20
-59.892242
 11
-144.000000
 21
-59.892242
  0
TEXT
  8
A-DIMS-1
 10
-134.506907
 20
-62.514579
 40
5.487240
  1
2'6
  7
STANDARD
  0
LINE
  8
A-DIMS-1
 10
-192.000000
 20
-242.892242
 11
-192.000000
 21
-56.892242
  0
LINE
  8
A-DIMS-1
 10
-195.000000
 20
-58.392242
 11
-192.000000
 21
-59.892242
  0
LINE
  8
A-DIMS-1
 10
-189.000000
 20
-61.392242
 11
-192.000000
 21
-59.892242
  0
LINE
  8
A-DIMS-1
 10
-162.121049
 20
-59.892242
 11
-144.000000
 21
-59.892242
  0
LINE
  8
A-DIMS-1
 10
-173.878951
 20
-59.892242
 11
-192.000000
 21
-59.892242
  0
TEXT
  8
A-DIMS-1
 10
-171.146804
 20
-62.514579
 40
5.487240
  1
4'
  7
STANDARD
  0
LINE
  8
A-DIMS-1
 10
-240.000000
 20
-242.892242
 11
-240.000000
 21
-56.892242
  0
LINE
  8
A-DIMS-1
 10
-243.000000
 20
-58.392242
 11
-240.000000
 21
-59.892242
  0
LINE
  8
A-DIMS-1
 10
-237.000000
 20
-61.392242
 11
-240.000000
 21
-59.892242
  0
LINE
  8
A-DIMS-1
 10
-210.121049
 20
-59.892242
 11
-192.000000
 21
-59.892242
  0
LINE
  8
A-DIMS-1
 10
-221.878951
 20
-59.892242
 11
-240.000000
 21
-59.892242
  0
TEXT
  8
A-DIMS-1
 10
-219.146804
 20
-62.514579
 40
5.487240
  1
4'
  7
STANDARD
  0
LINE
  8
A-DIMS-1
 10
-274.000000
 20
-251.892242
 11
-274.000000
 21
-56.892242
  0
LINE
  8
A-DIMS-1
 10
-271.000000
 20
-61.392242
 11
-274.000000
 21
-59.892242
  0
LINE
  8
A-DIMS-1
 10
-246.400843
 20
-59.892242
 11
-240.000000
 21
-59.892242
  0
LINE
  8
A-DIMS-1
 10
-267.599157
 20
-59.892242
 11
-274.000000
 21
-59.892242
  0
TEXT
  8
A-DIMS-1
 10
-264.867010
 20
-62.514579
 40
5.487240
  1
2'10
  7
STANDARD
  0
LINE
  8
A-DIMS-1
 10
-62.890313
 20
-775.000000
 11
-80.890313
 21
-775.000000
  0
LINE
  8
A-DIMS-1
 10
-79.390313
 20
-778.000000
 11
-77.890313
 21
-775.000000
  0
LINE
  8
A-DIMS-1
 10
-45.890313
 20
-839.000000
 11
-80.890313
 21
-839.000000
  0
LINE
  8
A-DIMS-1
 10
-76.390313
 20
-836.000000
 11
-77.890313
 21
-839.000000
  0
LINE
  8
A-DIMS-1
 10
-77.890313
 20
-798.760946
 11
-77.890313
 21
-775.000000
  0
LINE
  8
A-DIMS-1
 10
-77.890313
 20
-815.239054
 11
-77.890313
 21
-839.000000
  0
TEXT
  8
A-DIMS-1
 10
-75.267976
 20
-812.506907
 40
5.487240
  1
5'4
 50
90.000000
  7
STANDARD
  0
LINE
  8
A-DIMS-1
 10
-154.890313
 20
-95.000000
 11
-170.890313
 21
-95.000000
  0
LINE
  8
A-DIMS-1
 10
-169.390313
 20
-98.000000
 11
-167.890313
 21
-95.000000
  0
LINE
  8
A-DIMS-1
 10
-166.390313
 20
-252.000000
 11
-167.890313
 21
-255.000000
  0
LINE
  8
A-DIMS-1
 10
-167.890313
 20
-164.400843
 11
-167.890313
 21
-95.000000
  0
LINE
  8
A-DIMS-1
 10
-167.890313
 20
-185.599157
 11
-167.890313
 21
-255.000000
  0
TEXT
  8
A-DIMS-1
 10
-165.267976
 20
-182.867010
 40
5.487240
  1
13'4
 50
90.000000
  7
STANDARD
  0
LINE
  8
A-DIMS-1
 10
-117.890313
 20
-95.000000
 11
-152.890313
 21
-95.000000
  0
LINE
  8
A-DIMS-1
 10
-151.390313
 20
-98.000000
 11
-149.890313
 21
-95.000000
  0
LINE
  8
A-DIMS-1
 10
-126.890313
 20
-123.000000
 11
-152.890313
 21
-123.000000
  0
LINE
  8
A-DIMS-1
 10
-151.390313
 20
-126.000000
 11
-149.890313
 21
-123.000000
  0
LINE
  8
A-DIMS-1
 10
-148.390313
 20
-120.000000
 11
-149.890313
 21
-123.000000
  0
LINE
  8
A-DIMS-1
 10
-149.890313
 20
-100.760946
 11
-149.890313
 21
-95.000000
  0
LINE
  8
A-DIMS-1
 10
-149.890313
 20
-117.239054
 11
-149.890313
 21
-123.000000
  0
TEXT
  8
A-DIMS-1
 10
-147.267976
 20
-114.506907
 40
5.487240
  1
2'4
 50
90.000000
  7
STANDARD
  0
LINE
  8
A-DIMS-1
 10
-148.390313
 20
-252.000000
 11
-149.890313
 21
-255.000000
  0
LINE
  8
A-DIMS-1
 10
-149.890313
 20
-180.760946
 11
-149.890313
 21
-123.000000
  0
LINE
  8
A-DIMS-1
 10
-149.890313
 20
-197.239054
 11
-149.890313
 21
-255.000000
  0
TEXT
  8
A-DIMS-1
 10
-147.267976
 20
-194.506907
 40
5.487240
  1
11'
 50
90.000000
  7
STANDARD
  0
LINE
  8
A-DIMS-1
 10
-172.890313
 20
-95.000000
 11
-396.890313
 21
-95.000000
  0
LINE
  8
A-DIMS-1
 10
-395.390313
 20
-98.000000
 11
-393.890313
 21
-95.000000
  0
LINE
  8
A-DIMS-1
 10
-82.890313
 20
-839.000000
 11
-396.890313
 21
-839.000000
  0
LINE
  8
A-DIMS-1
 10
-392.390313
 20
-836.000000
 11
-393.890313
 21
-839.000000
  0
LINE
  8
A-DIMS-1
 10
-393.890313
 20
-458.760946
 11
-393.890313
 21
-95.000000
  0
LINE
  8
A-DIMS-1
 10
-393.890313
 20
-475.239054
 11
-393.890313
 21
-839.000000
  0
TEXT
  8
A-DIMS-1
 10
-391.267976
 20
-472.506907
 40
5.487240
  1
62'
 50
90.000000
  7
STANDARD
  0
LINE
  8
A-DIMS-1
 10
-362.890313
 20
-254.999999
 11
-378.890313
 21
-254.999999
  0
LINE
  8
A-DIMS-1
 10
-377.390313
 20
-257.999999
 11
-375.890313
 21
-254.999999
  0
LINE
  8
A-DIMS-1
 10
-362.890313
 20
-469.999999
 11
-378.890313
 21
-469.999999
  0
LINE
  8
A-DIMS-1
 10
-377.390313
 20
-472.999999
 11
-375.890313
 21
-469.999999
  0
LINE
  8
A-DIMS-1
 10
-374.390313
 20
-466.999999
 11
-375.890313
 21
-469.999999
  0
LINE
  8
A-DIMS-1
 10
-375.890313
 20
-349.540740
 11
-375.890313
 21
-254.999999
  0
LINE
  8
A-DIMS-1
 10
-375.890313
 20
-375.459259
 11
-375.890313
 21
-469.999999
  0
TEXT
  8
A-DIMS-1
 10
-373.267976
 20
-372.727112
 40
5.487240
  1
17'11
 50
90.000000
  7
STANDARD
  0
LINE
  8
A-DIMS-1
 10
-362.890313
 20
-604.999999
 11
-378.890313
 21
-604.999999
  0
LINE
  8
A-DIMS-1
 10
-377.390313
 20
-607.999999
 11
-375.890313
 21
-604.999999
  0
LINE
  8
A-DIMS-1
 10
-374.390313
 20
-601.999999
 11
-375.890313
 21
-604.999999
  0
LINE
  8
A-DIMS-1
 10
-375.890313
 20
-526.900843
 11
-375.890313
 21
-469.999999
  0
LINE
  8
A-DIMS-1
 10
-375.890313
 20
-548.099156
 11
-375.890313
 21
-604.999999
  0
TEXT
  8
A-DIMS-1
 10
-373.267976
 20
-545.367009
 40
5.487240
  1
11'3
 50
90.000000
  7
STANDARD
  0
LINE
  8
A-DIMS-1
 10
-362.890313
 20
-641.020995
 11
-378.890313
 21
-641.020995
  0
LINE
  8
A-DIMS-1
 10
-377.390313
 20
-644.020995
 11
-375.890313
 21
-641.020995
  0
LINE
  8
A-DIMS-1
 10
-374.390313
 20
-638.020995
 11
-375.890313
 21
-641.020995
  0
LINE
  8
A-DIMS-1
 10
-375.890313
 20
-617.131547
 11
-375.890313
 21
-604.999999
  0
LINE
  8
A-DIMS-1
 10
-375.890313
 20
-628.889448
 11
-375.890313
 21
-641.020995
  0
TEXT
  8
A-DIMS-1
 10
-373.267976
 20
-626.157301
 40
5.487240
  1
3'
 50
90.000000
  7
STANDARD
  0
LINE
  8
A-DIMS-1
 10
-362.890313
 20
-798.999999
 11
-378.890313
 21
-798.999999
  0
LINE
  8
A-DIMS-1
 10
-374.390313
 20
-795.999999
 11
-375.890313
 21
-798.999999
  0
LINE
  8
A-DIMS-1
 10
-375.890313
 20
-709.411341
 11
-375.890313
 21
-641.020995
  0
LINE
  8
A-DIMS-1
 10
-375.890313
 20
-730.609654
 11
-375.890313
 21
-798.999999
  0
TEXT
  8
A-DIMS-1
 10
-373.267976
 20
-727.877507
 40
5.487240
  1
13'2
 50
90.000000
  7
STANDARD
  0
LINE
  8
A-DIMS-1
 10
-327.890313
 20
-641.020995
 11
-360.890313
 21
-641.020995
  0
LINE
  8
A-DIMS-1
 10
-359.390313
 20
-644.020995
 11
-357.890313
 21
-641.020995
  0
LINE
  8
A-DIMS-1
 10
-334.890313
 20
-770.999999
 11
-360.890313
 21
-770.999999
  0
LINE
  8
A-DIMS-1
 10
-359.390313
 20
-773.999999
 11
-357.890313
 21
-770.999999
  0
LINE
  8
A-DIMS-1
 10
-356.390313
 20
-767.999999
 11
-357.890313
 21
-770.999999
  0
LINE
  8
A-DIMS-1
 10
-357.890313
 20
-693.051238
 11
-357.890313
 21
-641.020995
  0
LINE
  8
A-DIMS-1
 10
-357.890313
 20
-718.969757
 11
-357.890313
 21
-770.999999
  0
TEXT
  8
A-DIMS-1
 10
-355.267976
 20
-716.237610
 40
5.487240
  1
10'10
 50
90.000000
  7
STANDARD
  0
LINE
  8
A-DIMS-1
 10
-325.890313
 20
-798.999999
 11
-360.890313
 21
-798.999999
  0
LINE
  8
A-DIMS-1
 10
-356.390313
 20
-795.999999
 11
-357.890313
 21
-798.999999
  0
LINE
  8
A-DIMS-1
 10
-357.890313
 20
-776.760946
 11
-357.890313
 21
-770.999999
  0
LINE
  8
A-DIMS-1
 10
-357.890313
 20
-793.239053
 11
-357.890313
 21
-798.999999
  0
TEXT
  8
A-DIMS-1
 10
-355.267976
 20
-790.506906
 40
5.487240
  1
2'4
 50
90.000000
  7
STANDARD
  0
LINE
  8
A-DIMS-1
 10
-277.890313
 20
-254.999999
 11
-360.890313
 21
-254.999999
  0
LINE
  8
A-DIMS-1
 10
-359.390313
 20
-257.999999
 11
-357.890313
 21
-254.999999
  0
LINE
  8
A-DIMS-1
 10
-286.890313
 20
-295.999999
 11
-360.890313
 21
-295.999999
  0
LINE
  8
A-DIMS-1
 10
-359.390313
 20
-298.999999
 11
-357.890313
 21
-295.999999
  0
LINE
  8
A-DIMS-1
 10
-356.390313
 20
-292.999999
 11
-357.890313
 21
-295.999999
  0
LINE
  8
A-DIMS-1
 10
-357.890313
 20
-267.260946
 11
-357.890313
 21
-254.999999
  0
LINE
  8
A-DIMS-1
 10
-357.890313
 20
-283.739053
 11
-357.890313
 21
-295.999999
  0
TEXT
  8
A-DIMS-1
 10
-355.267976
 20
-281.006906
 40
5.487240
  1
3'5
 50
90.000000
  7
STANDARD
  0
LINE
  8
A-DIMS-1
 10
-286.890313
 20
-431.999999
 11
-360.890313
 21
-431.999999
  0
LINE
  8
A-DIMS-1
 10
-359.390313
 20
-434.999999
 11
-357.890313
 21
-431.999999
  0
LINE
  8
A-DIMS-1
 10
-356.390313
 20
-428.999999
 11
-357.890313
 21
-431.999999
  0
LINE
  8
A-DIMS-1
 10
-357.890313
 20
-353.400843
 11
-357.890313
 21
-295.999999
  0
LINE
  8
A-DIMS-1
 10
-357.890313
 20
-374.599156
 11
-357.890313
 21
-431.999999
  0
TEXT
  8
A-DIMS-1
 10
-355.267976
 20
-371.867009
 40
5.487240
  1
11'4
 50
90.000000
  7
STANDARD
  0
LINE
  8
A-DIMS-1
 10
-277.890313
 20
-469.999999
 11
-360.890313
 21
-469.999999
  0
LINE
  8
A-DIMS-1
 10
-359.390313
 20
-472.999999
 11
-357.890313
 21
-469.999999
  0
LINE
  8
A-DIMS-1
 10
-356.390313
 20
-466.999999
 11
-357.890313
 21
-469.999999
  0
LINE
  8
A-DIMS-1
 10
-357.890313
 20
-442.760946
 11
-357.890313
 21
-431.999999
  0
LINE
  8
A-DIMS-1
 10
-357.890313
 20
-459.239053
 11
-357.890313
 21
-469.999999
  0
TEXT
  8
A-DIMS-1
 10
-355.267976
 20
-456.506906
 40
5.487240
  1
3'2
 50
90.000000
  7
STANDARD
  0
LINE
  8
A-DIMS-1
 10
-286.890313
 20
-538.999999
 11
-360.890313
 21
-538.999999
  0
LINE
  8
A-DIMS-1
 10
-359.390313
 20
-541.999999
 11
-357.890313
 21
-538.999999
  0
LINE
  8
A-DIMS-1
 10
-356.390313
 20
-535.999999
 11
-357.890313
 21
-538.999999
  0
LINE
  8
A-DIMS-1
 10
-357.890313
 20
-496.260946
 11
-357.890313
 21
-469.999999
  0
LINE
  8
A-DIMS-1
 10
-357.890313
 20
-512.739053
 11
-357.890313
 21
-538.999999
  0
TEXT
  8
A-DIMS-1
 10
-355.267976
 20
-510.006906
 40
5.487240
  1
5'9
 50
90.000000
  7
STANDARD
  0
LINE
  8
A-DIMS-1
 10
-289.890313
 20
-604.999999
 11
-360.890313
 21
-604.999999
  0
LINE
  8
A-DIMS-1
 10
-356.390313
 20
-601.999999
 11
-357.890313
 21
-604.999999
  0
LINE
  8
A-DIMS-1
 10
-357.890313
 20
-563.760946
 11
-357.890313
 21
-538.999999
  0
LINE
  8
A-DIMS-1
 10
-357.890313
 20
-580.239053
 11
-357.890313
 21
-604.999999
  0
TEXT
  8
A-DIMS-1
 10
-355.267976
 20
-577.506906
 40
5.487240
  1
5'6
 50
90.000000
  7
STANDARD
  0
LINE
  8
A-DIMS-1
 10
-315.546054
 20
-575.415948
 11
-326.152656
 21
-564.809347
  0
LINE
  8
A-DIMS-1
 10
-327.213316
 20
-567.991327
 11
-324.031335
 21
-566.930667
  0
LINE
  8
A-DIMS-1
 10
-351.556321
 20
-611.426216
 11
-362.162923
 21
-600.819614
  0
LINE
  8
A-DIMS-1
 10
-356.859622
 20
-601.880274
 11
-360.041603
 21
-602.940934
  0
LINE
  8
A-DIMS-1
 10
-333.429170
 20
-576.328502
 11
-324.031335
 21
-566.930667
  0
LINE
  8
A-DIMS-1
 10
-350.643768
 20
-593.543099
 11
-360.041603
 21
-602.940934
  0
TEXT
  8
A-DIMS-1
 10
-346.857576
 20
-593.465452
 40
5.487240
  1
4'2"7
 50
45.000000
  7
STANDARD
  0
LINE
  8
A-DIMS-1
 10
-290.090210
 20
-600.871792
 11
-313.424734
 21
-577.537269
  0
LINE
  8
A-DIMS-1
 10
-314.485394
 20
-580.719249
 11
-311.303413
 21
-579.658589
  0
LINE
  8
A-DIMS-1
 10
-313.016968
 20
-613.899056
 11
-331.401744
 21
-595.514279
  0
LINE
  8
A-DIMS-1
 10
-332.462405
 20
-598.696260
 11
-329.280424
 21
-597.635600
  0
LINE
  8
A-DIMS-1
 10
-326.098443
 20
-596.574939
 11
-329.280424
 21
-597.635600
  0
LINE
  8
A-DIMS-1
 10
-311.684620
 20
-580.039796
 11
-311.303413
 21
-579.658589
  0
LINE
  8
A-DIMS-1
 10
-328.899217
 20
-597.254393
 11
-329.280424
 21
-597.635600
  0
TEXT
  8
A-DIMS-1
 10
-325.113026
 20
-597.176746
 40
5.487240
  1
2'1"3
 50
45.000000
  7
STANDARD
  0
LINE
  8
A-DIMS-1
 10
-326.100477
 20
-636.882060
 11
-349.435001
 21
-613.547536
  0
LINE
  8
A-DIMS-1
 10
-344.131700
 20
-614.608196
 11
-347.313681
 21
-615.668856
  0
LINE
  8
A-DIMS-1
 10
-329.689754
 20
-598.044929
 11
-329.280424
 21
-597.635600
  0
LINE
  8
A-DIMS-1
 10
-346.904351
 20
-615.259527
 11
-347.313681
 21
-615.668856
  0
TEXT
  8
A-DIMS-1
 10
-343.118159
 20
-615.181879
 40
5.487240
  1
2'1"4
 50
45.000000
  7
STANDARD
  0
LINE
  8
A-DIMS-1
 10
-13.227506
 20
-344.097546
 11
-11.727506
 21
-341.097546
  0
LINE
  8
A-DIMS-1
 10
-10.227506
 20
-384.000001
 11
-11.727506
 21
-387.000001
  0
LINE
  8
A-DIMS-1
 10
-11.727506
 20
-351.876215
 11
-11.727506
 21
-341.097546
  0
LINE
  8
A-DIMS-1
 10
-11.727506
 20
-376.221332
 11
-11.727506
 21
-387.000001
  0
TEXT
  8
A-DIMS-1
 10
-9.105169
 20
-373.489185
 40
5.487240
  1
3'9"7
 50
90.000000
  7
STANDARD
  0
LINE
  8
A-DIMS-1
 10
-208.794918
 20
-609.000000
 11
-266.794918
 21
-609.000000
  0
LINE
  8
A-DIMS-1
 10
-213.294918
 20
-612.000000
 11
-211.794918
 21
-609.000000
  0
LINE
  8
A-DIMS-1
 10
-210.294918
 20
-792.000000
 11
-211.794918
 21
-795.000000
  0
LINE
  8
A-DIMS-1
 10
-211.794918
 20
-691.400843
 11
-211.794918
 21
-609.000000
  0
LINE
  8
A-DIMS-1
 10
-211.794918
 20
-712.599157
 11
-211.794918
 21
-795.000000
  0
TEXT
  8
A-DIMS-1
 10
-209.172581
 20
-709.867010
 40
5.487240
  1
15'6
 50
90.000000
  7
STANDARD
  0
LINE
  8
A-DIMS-1
 10
-285.798435
 20
-612.000000
 11
-284.298435
 21
-609.000000
  0
LINE
  8
A-DIMS-1
 10
-282.798435
 20
-792.000000
 11
-284.298435
 21
-795.000000
  0
LINE
  8
A-DIMS-1
 10
-284.298435
 20
-691.400843
 11
-284.298435
 21
-609.000000
  0
LINE
  8
A-DIMS-1
 10
-284.298435
 20
-712.599157
 11
-284.298435
 21
-795.000000
  0
TEXT
  8
A-DIMS-1
 10
-281.676098
 20
-709.867010
 40
5.487240
  1
15'6
 50
90.000000
  7
STANDARD
  0
ENDSEC
  0
EOF
