  0
SECTION
  2
HEADER
  9
$ACADVER
  1
AC1006
  9
$EXTMIN
 10
-708.778200
 20
-941.833905
  9
$EXTMAX
 10
632.546961
 20
-13.745283
  9
$ANGDIR
 70
   0
  9
$LUNITS
 70
   2
  0
ENDSEC
  0
SECTION
  2
TABLES
  0
TABLE
  2
LTYPE
 70
   3
  0
LTYPE
  2
CONTINUOUS
 70
64
  3
SOLID LINE
 72
65
 73
0
 40
0.
  0
LTYPE
  2
DASHED
 70
64
  3
DASHED LINE
 72
65
 73
2
 40
8.
 49
5.
 49
-3.
  0
LTYPE
  2
DOTTED
 70
64
  3
DOTTED LINE
 72
65
 73
2
 40
4.
 49
2.
 49
-2.
  0
ENDTAB
  0
TABLE
  2
LAYER
 70
   15
  0
LAYER
  2
A-WALL-0
 70
64
 62
   7
  6
CONTINUOUS
  0
LAYER
  2
A-CASE-0
 70
64
 62
   7
  6
CONTINUOUS
  0
LAYER
  2
A-DIMS-0
 70
64
 62
   7
  6
CONTINUOUS
  0
LAYER
  2
A-POWR-0
 70
64
 62
   7
  6
CONTINUOUS
  0
LAYER
  2
A-NOTE-0
 70
64
 62
   7
  6
CONTINUOUS
  0
LAYER
  2
A-TEXT-0
 70
64
 62
   7
  6
CONTINUOUS
  0
LAYER
  2
A-FURN-0
 70
64
 62
   7
  6
CONTINUOUS
  0
LAYER
  2
A-GLAZ-0
 70
64
 62
   7
  6
CONTINUOUS
  0
LAYER
  2
A-STAR-0
 70
64
 62
   7
  6
CONTINUOUS
  0
LAYER
  2
A-ROOF-0
 70
64
 62
   7
  6
CONTINUOUS
  0
LAYER
  2
A-C000-0
 70
64
 62
   7
  6
CONTINUOUS
  0
ENDTAB
  0
ENDSEC
  0
SECTION
  2
BLOCKS
  0
BLOCK
  8
A-CASE-0
  2
FIXT-Toilet
 70
64
 10
0.0
 20
0.0
  0
ARC
  8
A-CASE-0
 10
9.046126
 20
27.780609
 40
1.431891
 50
0.000000
 51
90.000000
  0
LINE
  8
A-CASE-0
 10
9.046126
 20
29.212500
 11
-9.046126
 21
29.212500
  0
ARC
  8
A-CASE-0
 10
-9.046126
 20
27.780609
 40
1.431891
 50
90.000000
 51
180.000000
  0
LINE
  8
A-CASE-0
 10
-10.478017
 20
27.780609
 11
-10.478017
 21
21.731952
  0
ARC
  8
A-CASE-0
 10
-9.046126
 20
21.731952
 40
1.431891
 50
180.000000
 51
270.000000
  0
LINE
  8
A-CASE-0
 10
-9.046126
 20
20.300061
 11
9.046126
 21
20.300061
  0
ARC
  8
A-CASE-0
 10
9.046126
 20
21.731952
 40
1.431891
 50
270.000000
 51
0.000000
  0
LINE
  8
A-CASE-0
 10
10.478017
 20
21.731952
 11
10.478017
 21
27.780609
  0
ARC
  8
A-CASE-0
 10
0.029649
 20
13.174761
 40
6.001594
 50
38.796550
 51
141.203450
  0
ARC
  8
A-CASE-0
 10
0.029649
 20
7.965448
 40
6.001594
 50
218.796550
 51
321.203450
  0
ARC
  8
A-CASE-0
 10
3.269587
 20
10.570105
 40
10.158689
 50
141.203449
 51
218.796551
  0
ARC
  8
A-CASE-0
 10
-3.210289
 20
10.570105
 40
10.158689
 50
321.203449
 51
38.796551
  0
ENDBLK
  0
BLOCK
  8
A-CASE-0
  2
FIXT-WaterHG
 70
64
 10
0.0
 20
0.0
  0
CIRCLE
  8
A-CASE-0
 10
-0.000000
 20
12.479368
 40
12.520632
  0
LINE
  8
A-CASE-0
 10
-6.458884
 20
15.850779
 11
-4.568376
 21
8.795307
  0
LINE
  8
A-CASE-0
 10
-4.568376
 20
8.795307
 11
-3.313710
 21
13.477785
  0
LINE
  8
A-CASE-0
 10
-3.313710
 20
13.477785
 11
-2.055941
 21
8.783728
  0
LINE
  8
A-CASE-0
 10
-2.055941
 20
8.783728
 11
-0.165146
 21
15.840274
  0
LINE
  8
A-CASE-0
 10
1.074278
 20
8.789207
 11
1.074278
 21
15.858361
  0
LINE
  8
A-CASE-0
 10
1.074278
 20
12.090279
 11
5.207015
 21
12.090279
  0
LINE
  8
A-CASE-0
 10
5.246801
 20
8.845993
 11
5.246801
 21
15.896207
  0
ENDBLK
  0
BLOCK
  8
A-CASE-0
  2
FIXT-FrnG2920
 70
64
 10
0.0
 20
0.0
  0
LINE
  8
A-CASE-0
 10
9.947191
 20
39.000000
 11
-9.947191
 21
39.000000
  0
LINE
  8
A-CASE-0
 10
-9.947191
 20
39.000000
 11
-9.947191
 21
11.079557
  0
LINE
  8
A-CASE-0
 10
-9.947191
 20
11.079557
 11
9.947191
 21
11.079557
  0
LINE
  8
A-CASE-0
 10
9.947191
 20
11.079557
 11
9.947191
 21
39.000000
  0
LINE
  8
A-CASE-0
 10
-7.001456
 20
11.079557
 11
-7.001456
 21
10.054955
  0
LINE
  8
A-CASE-0
 10
-7.001456
 20
10.054955
 11
-0.512302
 21
10.054955
  0
LINE
  8
A-CASE-0
 10
-0.512302
 20
10.054955
 11
-0.512302
 21
11.079557
  0
ENDBLK
  0
BLOCK
  8
A-CASE-0
  2
FIXT-OvalBath
 70
64
 10
0.0
 20
0.0
  0
ARC
  8
A-CASE-0
 10
-3.083726
 20
15.991947
 40
6.926340
 50
128.659806
 51
231.340191
  0
ARC
  8
A-CASE-0
 10
3.083726
 20
15.991947
 40
6.926340
 50
308.659809
 51
51.340194
  0
ARC
  8
A-CASE-0
 10
-0.000000
 20
19.846604
 40
11.862710
 50
231.340192
 51
308.659808
  0
ARC
  8
A-CASE-0
 10
-0.000000
 20
12.137290
 40
11.862710
 50
51.340193
 51
128.659807
  0
ARC
  8
A-CASE-0
 10
-3.083726
 20
15.991947
 40
5.029696
 50
128.659805
 51
231.340188
  0
ARC
  8
A-CASE-0
 10
3.083726
 20
15.991947
 40
5.029696
 50
308.659812
 51
51.340195
  0
ARC
  8
A-CASE-0
 10
0.000000
 20
19.846604
 40
9.966065
 50
231.340190
 51
308.659810
  0
ARC
  8
A-CASE-0
 10
0.000000
 20
12.137290
 40
9.966065
 50
51.340193
 51
128.659807
  0
CIRCLE
  8
A-CASE-0
 10
-0.052685
 20
16.966612
 40
0.605872
  0
CIRCLE
  8
A-CASE-0
 10
-0.052685
 20
16.966612
 40
1.027349
  0
ENDBLK
  0
BLOCK
  8
A-CASE-0
  2
FIXT-Shwr60
 70
64
 10
0.0
 20
0.0
  0
LINE
  8
A-CASE-0
 10
-29.963196
 20
-0.028080
 11
29.987392
 21
-0.028080
  0
LINE
  8
A-CASE-0
 10
-27.265932
 20
3.097593
 11
-5.551453
 21
15.634455
  0
LINE
  8
A-CASE-0
 10
27.385593
 20
30.365020
 11
-27.385593
 21
30.365020
  0
LINE
  8
A-CASE-0
 10
-27.385593
 20
30.365020
 11
-27.385593
 21
2.977932
  0
LINE
  8
A-CASE-0
 10
-27.385593
 20
2.977932
 11
27.385593
 21
2.977932
  0
LINE
  8
A-CASE-0
 10
27.385593
 20
2.977932
 11
27.385593
 21
30.365020
  0
CIRCLE
  8
A-CASE-0
 10
0.082513
 20
16.722193
 40
1.102624
  0
LINE
  8
A-CASE-0
 10
27.146271
 20
30.125696
 11
5.343473
 21
17.537846
  0
LINE
  8
A-CASE-0
 10
27.265932
 20
3.097593
 11
5.557290
 21
15.631084
  0
LINE
  8
A-CASE-0
 10
-27.182060
 20
30.073641
 11
-5.719962
 21
17.682493
  0
ENDBLK
  0
BLOCK
  8
A-FURN-0
  2
FIXT-esqr26
 70
64
 10
0.0
 20
0.0
  0
ARC
  8
A-FURN-0
 10
10.237361
 20
26.250386
 40
2.749614
 50
0.000000
 51
90.000000
  0
LINE
  8
A-FURN-0
 10
10.237361
 20
29.000000
 11
-10.237361
 21
29.000000
  0
ARC
  8
A-FURN-0
 10
-10.237361
 20
26.250386
 40
2.749614
 50
90.000000
 51
180.000000
  0
LINE
  8
A-FURN-0
 10
-12.986976
 20
26.250386
 11
-12.986976
 21
5.775663
  0
ARC
  8
A-FURN-0
 10
-10.237361
 20
5.775663
 40
2.749614
 50
180.000000
 51
270.000000
  0
LINE
  8
A-FURN-0
 10
-10.237361
 20
3.026049
 11
10.237361
 21
3.026049
  0
ARC
  8
A-FURN-0
 10
10.237361
 20
5.775663
 40
2.749614
 50
270.000000
 51
0.000000
  0
LINE
  8
A-FURN-0
 10
12.986976
 20
5.775663
 11
12.986976
 21
26.250386
  0
ENDBLK
  0
BLOCK
  8
A-FURN-0
  2
FIXT-Sidchar3
 70
64
 10
0.0
 20
0.0
  0
ARC
  8
A-FURN-0
 10
12.802023
 20
11.545657
 40
21.014664
 50
165.000000
 51
176.344092
  0
ARC
  8
A-FURN-0
 10
193.163010
 20
0.021605
 40
201.743439
 50
176.344092
 51
180.000000
  0
LINE
  8
A-FURN-0
 10
-7.496583
 20
16.984653
 11
7.496583
 21
16.984653
  0
ARC
  8
A-FURN-0
 10
-193.163010
 20
0.021605
 40
201.743439
 50
0.000000
 51
3.655908
  0
ARC
  8
A-FURN-0
 10
-12.802023
 20
11.545657
 40
21.014664
 50
3.655908
 51
15.000000
  0
LINE
  8
A-FURN-0
 10
8.580427
 20
0.021605
 11
-8.580427
 21
0.021605
  0
LINE
  8
A-FURN-0
 10
6.398632
 20
16.978707
 11
6.398632
 21
16.417537
  0
LINE
  8
A-FURN-0
 10
6.398632
 20
16.417537
 11
-6.502366
 21
16.417537
  0
LINE
  8
A-FURN-0
 10
-6.502366
 20
16.417537
 11
-6.502366
 21
18.000000
  0
LINE
  8
A-FURN-0
 10
-6.502366
 20
18.000000
 11
6.407324
 21
18.000000
  0
LINE
  8
A-FURN-0
 10
6.407324
 20
18.000000
 11
6.407324
 21
16.975421
  0
LINE
  8
A-FURN-0
 10
-4.700047
 20
16.978707
 11
-4.700047
 21
16.417537
  0
LINE
  8
A-FURN-0
 10
-3.993390
 20
16.978707
 11
-3.993390
 21
16.417537
  0
LINE
  8
A-FURN-0
 10
-0.730295
 20
16.978707
 11
-0.730295
 21
16.417537
  0
LINE
  8
A-FURN-0
 10
-0.002854
 20
16.978707
 11
-0.002854
 21
16.396753
  0
LINE
  8
A-FURN-0
 10
4.819045
 20
16.978707
 11
4.819045
 21
16.417537
  0
LINE
  8
A-FURN-0
 10
4.257875
 20
16.978707
 11
4.257875
 21
16.417537
  0
ENDBLK
  0
BLOCK
  8
A-POWR-0
  2
FIXT-GFI_Out
 70
64
 10
0.0
 20
0.0
  0
CIRCLE
  8
A-POWR-0
 10
-0.006993
 20
-5.734540
 40
3.254864
  0
LINE
  8
A-POWR-0
 10
-1.973961
 20
-8.380580
 11
-1.973961
 21
-0.000000
  0
LINE
  8
A-POWR-0
 10
2.006808
 20
-8.286915
 11
2.006808
 21
-0.000000
  0
TEXT
  8
A-POWR-0
 10
-2.388809
 20
-15.531415
 40
2.286350
  1
GFI
  7
STANDARD
  0
ENDBLK
  0
BLOCK
  8
A-POWR-0
  2
FIXT-WP_Out
 70
64
 10
0.0
 20
0.0
  0
CIRCLE
  8
A-POWR-0
 10
-0.006993
 20
-5.734540
 40
3.254864
  0
LINE
  8
A-POWR-0
 10
-1.973961
 20
-8.380580
 11
-1.973961
 21
-0.000000
  0
LINE
  8
A-POWR-0
 10
2.006808
 20
-8.286915
 11
2.006808
 21
-0.000000
  0
TEXT
  8
A-POWR-0
 10
-2.432515
 20
-15.531415
 40
2.286350
  1
WP
  7
STANDARD
  0
ENDBLK
  0
BLOCK
  8
A-POWR-0
  2
FIXT-Light
 70
64
 10
0.0
 20
0.0
  0
LINE
  8
A-POWR-0
 10
-0.014999
 20
-9.119638
 11
-0.014999
 21
-11.759534
  0
CIRCLE
  8
A-POWR-0
 10
-0.006993
 20
-5.860310
 40
3.254864
  0
LINE
  8
A-POWR-0
 10
-0.024039
 20
-2.609896
 11
-0.024039
 21
0.000000
  0
LINE
  8
A-POWR-0
 10
3.254871
 20
-5.849768
 11
5.864768
 21
-5.849768
  0
LINE
  8
A-POWR-0
 10
-3.254871
 20
-5.909766
 11
-5.864768
 21
-5.909766
  0
ENDBLK
  0
BLOCK
  8
A-POWR-0
  2
FIXT-RecLight
 70
64
 10
0.0
 20
0.0
  0
CIRCLE
  8
A-POWR-0
 10
-0.000000
 20
-3.524853
 40
3.524853
  0
ENDBLK
  0
BLOCK
  8
A-POWR-0
  2
FIXT-DualSpot
 70
64
 10
0.0
 20
0.0
  0
CIRCLE
  8
A-POWR-0
 10
-0.022810
 20
-0.719971
 40
0.719971
  0
LINE
  8
A-POWR-0
 10
0.937152
 20
-0.959962
 11
9.454506
 21
-3.242180
  0
LINE
  8
A-POWR-0
 10
9.454506
 20
-3.242180
 11
4.472240
 21
-8.224445
  0
LINE
  8
A-POWR-0
 10
4.472240
 20
-8.224445
 11
0.607165
 21
-1.529939
  0
LINE
  8
A-POWR-0
 10
-1.155265
 20
-1.004027
 11
-9.454506
 21
-3.227802
  0
LINE
  8
A-POWR-0
 10
-9.454506
 20
-3.227802
 11
-4.571973
 21
-8.110334
  0
LINE
  8
A-POWR-0
 10
-4.571973
 20
-8.110334
 11
-0.772780
 21
-1.529939
  0
ENDBLK
  0
BLOCK
  8
A-POWR-0
  2
FIXT-RecExFan
 70
64
 10
0.0
 20
0.0
  0
CIRCLE
  8
A-POWR-0
 10
-0.000000
 20
-3.884839
 40
3.884839
  0
ARC
  8
A-POWR-0
 10
2.327786
 20
-1.592827
 40
3.304456
 50
224.999998
 51
264.898271
  0
ARC
  8
A-POWR-0
 10
2.224729
 20
-2.747166
 40
2.145526
 50
264.898272
 51
315.000000
  0
ARC
  8
A-POWR-0
 10
2.374045
 20
-4.546449
 40
1.721091
 50
44.999994
 51
99.462325
  0
ARC
  8
A-POWR-0
 10
2.727214
 20
-6.665462
 40
3.869332
 50
99.462323
 51
134.999999
  0
ARC
  8
A-POWR-0
 10
-2.386747
 20
-3.343154
 40
1.684494
 50
225.000000
 51
279.573780
  0
ARC
  8
A-POWR-0
 10
-2.742678
 20
-1.232889
 40
3.824566
 50
279.573776
 51
314.999999
  0
ARC
  8
A-POWR-0
 10
-2.342464
 20
-6.241427
 40
3.258577
 50
44.999999
 51
84.289404
  0
ARC
  8
A-POWR-0
 10
-2.218059
 20
-4.997380
 40
2.008325
 50
84.289407
 51
135.000000
  0
ENDBLK
  0
BLOCK
  8
A-POWR-0
  2
FIXT-RLiteFan
 70
64
 10
0.0
 20
0.0
  0
LINE
  8
A-POWR-0
 10
-0.014999
 20
-9.749613
 11
-0.014999
 21
-11.759534
  0
CIRCLE
  8
A-POWR-0
 10
-0.006993
 20
-5.860310
 40
3.884839
  0
LINE
  8
A-POWR-0
 10
-0.024039
 20
-1.979921
 11
-0.024039
 21
0.000000
  0
LINE
  8
A-POWR-0
 10
3.884846
 20
-5.849768
 11
5.864768
 21
-5.849768
  0
LINE
  8
A-POWR-0
 10
-3.884846
 20
-5.909766
 11
-5.864768
 21
-5.909766
  0
ARC
  8
A-POWR-0
 10
2.320793
 20
-3.568298
 40
3.304456
 50
225.000001
 51
264.898271
  0
ARC
  8
A-POWR-0
 10
2.217736
 20
-4.722637
 40
2.145526
 50
264.898271
 51
315.000005
  0
ARC
  8
A-POWR-0
 10
2.367052
 20
-6.521920
 40
1.721091
 50
45.000006
 51
99.462325
  0
ARC
  8
A-POWR-0
 10
2.720221
 20
-8.640932
 40
3.869332
 50
99.462323
 51
134.999999
  0
ARC
  8
A-POWR-0
 10
-2.393740
 20
-5.318624
 40
1.684494
 50
225.000000
 51
279.573780
  0
ARC
  8
A-POWR-0
 10
-2.749672
 20
-3.208359
 40
3.824566
 50
279.573779
 51
315.000000
  0
ARC
  8
A-POWR-0
 10
-2.349457
 20
-8.216898
 40
3.258577
 50
45.000000
 51
84.289405
  0
ARC
  8
A-POWR-0
 10
-2.225052
 20
-6.972850
 40
2.008325
 50
84.289407
 51
135.000005
  0
ENDBLK
  0
BLOCK
  8
A-POWR-0
  2
FIXT-CeilFan
 70
64
 10
0.0
 20
0.0
  0
CIRCLE
  8
A-POWR-0
 10
0.059998
 20
-17.043396
 40
1.272742
  0
CIRCLE
  8
A-POWR-0
 10
0.059998
 20
-17.043396
 40
2.924427
  0
ARC
  8
A-POWR-0
 10
13.759789
 20
-3.195919
 40
3.157881
 50
44.999995
 51
68.497820
  0
ARC
  8
A-POWR-0
 10
-13.759789
 20
-3.195919
 40
3.157881
 50
111.502180
 51
135.000005
  0
ARC
  8
A-POWR-0
 10
-13.787480
 20
-30.743187
 40
3.157881
 50
201.502202
 51
225.000012
  0
ARC
  8
A-POWR-0
 10
13.787480
 20
-30.743187
 40
3.157881
 50
314.999988
 51
338.497798
  0
ARC
  8
A-POWR-0
 10
13.787480
 20
-3.223610
 40
3.157881
 50
21.502174
 51
45.000006
  0
ARC
  8
A-POWR-0
 10
-13.787480
 20
-3.223610
 40
3.157881
 50
134.999994
 51
158.497826
  0
ARC
  8
A-POWR-0
 10
-13.759789
 20
-30.770880
 40
3.157881
 50
224.999976
 51
248.497821
  0
ARC
  8
A-POWR-0
 10
13.759789
 20
-30.770880
 40
3.157881
 50
291.502179
 51
315.000024
  0
ARC
  8
A-POWR-0
 10
13.559463
 20
-3.704422
 40
3.704422
 50
68.497835
 51
91.982695
  0
ARC
  8
A-POWR-0
 10
-13.559463
 20
-3.704422
 40
3.704422
 50
88.017305
 51
111.502165
  0
ARC
  8
A-POWR-0
 10
-13.278977
 20
-30.542860
 40
3.704422
 50
178.017334
 51
201.502197
  0
ARC
  8
A-POWR-0
 10
13.278977
 20
-30.542860
 40
3.704422
 50
338.497803
 51
1.982666
  0
ARC
  8
A-POWR-0
 10
13.278977
 20
-3.423937
 40
3.704422
 50
358.017315
 51
21.502173
  0
ARC
  8
A-POWR-0
 10
-13.278977
 20
-3.423937
 40
3.704422
 50
158.497827
 51
181.982685
  0
ARC
  8
A-POWR-0
 10
-13.559463
 20
-30.262377
 40
3.704422
 50
248.497835
 51
271.982695
  0
ARC
  8
A-POWR-0
 10
13.559463
 20
-30.262377
 40
3.704422
 50
268.017305
 51
291.502165
  0
LINE
  8
A-POWR-0
 10
13.431298
 20
-0.002218
 11
2.343979
 21
-11.089537
  0
LINE
  8
A-POWR-0
 10
-13.431298
 20
-0.002218
 11
-2.343979
 21
-11.089537
  0
LINE
  8
A-POWR-0
 10
-16.981180
 20
-30.414698
 11
-5.893862
 21
-19.327377
  0
LINE
  8
A-POWR-0
 10
16.981180
 20
-30.414698
 11
5.893862
 21
-19.327377
  0
LINE
  8
A-POWR-0
 10
16.981180
 20
-3.552100
 11
5.893862
 21
-14.639420
  0
LINE
  8
A-POWR-0
 10
-16.981180
 20
-3.552100
 11
-5.893862
 21
-14.639420
  0
LINE
  8
A-POWR-0
 10
-13.431298
 20
-33.964581
 11
-2.343979
 21
-22.877260
  0
LINE
  8
A-POWR-0
 10
13.431298
 20
-33.964581
 11
2.343979
 21
-22.877260
  0
LINE
  8
A-POWR-0
 10
2.343979
 20
-11.089537
 11
2.343979
 21
-13.427375
  0
LINE
  8
A-POWR-0
 10
-2.343979
 20
-11.089537
 11
-2.343979
 21
-13.427375
  0
LINE
  8
A-POWR-0
 10
-5.893862
 20
-19.327377
 11
-3.556024
 21
-19.327377
  0
LINE
  8
A-POWR-0
 10
5.893862
 20
-19.327377
 11
3.556024
 21
-19.327377
  0
LINE
  8
A-POWR-0
 10
5.893862
 20
-14.639420
 11
3.556024
 21
-14.639420
  0
LINE
  8
A-POWR-0
 10
-5.893862
 20
-14.639420
 11
-3.556024
 21
-14.639420
  0
LINE
  8
A-POWR-0
 10
-2.343979
 20
-22.877260
 11
-2.343979
 21
-20.539423
  0
LINE
  8
A-POWR-0
 10
2.343979
 20
-22.877260
 11
2.343979
 21
-20.539423
  0
LINE
  8
A-POWR-0
 10
2.343979
 20
-13.427375
 11
2.967628
 21
-14.051023
  0
LINE
  8
A-POWR-0
 10
-2.343979
 20
-13.427375
 11
-2.967628
 21
-14.051023
  0
LINE
  8
A-POWR-0
 10
-3.556024
 20
-19.327377
 11
-2.932375
 21
-19.951027
  0
LINE
  8
A-POWR-0
 10
3.556024
 20
-19.327377
 11
2.932375
 21
-19.951027
  0
LINE
  8
A-POWR-0
 10
3.556024
 20
-14.639420
 11
2.932375
 21
-14.015770
  0
LINE
  8
A-POWR-0
 10
-3.556024
 20
-14.639420
 11
-2.932375
 21
-14.015770
  0
LINE
  8
A-POWR-0
 10
-2.343979
 20
-20.539423
 11
-2.967628
 21
-19.915773
  0
LINE
  8
A-POWR-0
 10
2.343979
 20
-20.539423
 11
2.967628
 21
-19.915773
  0
ENDBLK
  0
BLOCK
  8
A-POWR-0
  2
FIXT-3_Way
 70
64
 10
0.0
 20
0.0
  0
LINE
  8
A-POWR-0
 10
1.506088
 20
-2.396511
 11
-2.053707
 21
-2.396511
  0
ARC
  8
A-POWR-0
 10
-2.053707
 20
-4.016987
 40
1.620476
 50
90.000000
 51
181.041633
  0
ARC
  8
A-POWR-0
 10
-1.993710
 20
-4.015897
 40
1.680484
 50
181.041622
 51
270.000000
  0
LINE
  8
A-POWR-0
 10
-1.993710
 20
-5.696380
 11
-0.263288
 21
-5.696380
  0
ARC
  8
A-POWR-0
 10
-0.173292
 20
-7.420123
 40
1.636124
 50
270.000000
 51
1.534338
  0
ARC
  8
A-POWR-0
 10
-0.263288
 20
-7.422534
 40
1.726153
 50
1.534347
 51
90.000000
  0
LINE
  8
A-POWR-0
 10
-0.173292
 20
-9.056247
 11
-3.662938
 21
-9.056247
  0
LINE
  8
A-POWR-0
 10
-1.156680
 20
-0.026605
 11
-1.156680
 21
-11.036168
  0
TEXT
  8
A-POWR-0
 10
0.389112
 20
-14.431763
 40
2.743620
  1
3
  7
STANDARD
  0
ENDBLK
  0
BLOCK
  8
A-POWR-0
  2
FIXT-4_Way
 70
64
 10
0.0
 20
0.0
  0
LINE
  8
A-POWR-0
 10
1.506088
 20
-2.396511
 11
-2.053707
 21
-2.396511
  0
ARC
  8
A-POWR-0
 10
-2.053707
 20
-4.016987
 40
1.620476
 50
90.000000
 51
181.041633
  0
ARC
  8
A-POWR-0
 10
-1.993710
 20
-4.015897
 40
1.680484
 50
181.041622
 51
270.000000
  0
LINE
  8
A-POWR-0
 10
-1.993710
 20
-5.696380
 11
-0.263288
 21
-5.696380
  0
ARC
  8
A-POWR-0
 10
-0.173292
 20
-7.420123
 40
1.636124
 50
270.000000
 51
1.534338
  0
ARC
  8
A-POWR-0
 10
-0.263288
 20
-7.422534
 40
1.726153
 50
1.534347
 51
90.000000
  0
LINE
  8
A-POWR-0
 10
-0.173292
 20
-9.056247
 11
-3.662938
 21
-9.056247
  0
LINE
  8
A-POWR-0
 10
-1.156680
 20
-0.026605
 11
-1.156680
 21
-11.036168
  0
TEXT
  8
A-POWR-0
 10
0.389112
 20
-14.431763
 40
2.743620
  1
4
  7
STANDARD
  0
ENDBLK
  0
BLOCK
  8
A-POWR-0
  2
FIXT-5_Way
 70
64
 10
0.0
 20
0.0
  0
LINE
  8
A-POWR-0
 10
1.506088
 20
-2.396511
 11
-2.053707
 21
-2.396511
  0
ARC
  8
A-POWR-0
 10
-2.053707
 20
-4.016987
 40
1.620476
 50
90.000000
 51
181.041633
  0
ARC
  8
A-POWR-0
 10
-1.993710
 20
-4.015897
 40
1.680484
 50
181.041622
 51
270.000000
  0
LINE
  8
A-POWR-0
 10
-1.993710
 20
-5.696380
 11
-0.263288
 21
-5.696380
  0
ARC
  8
A-POWR-0
 10
-0.173292
 20
-7.420123
 40
1.636124
 50
270.000000
 51
1.534338
  0
ARC
  8
A-POWR-0
 10
-0.263288
 20
-7.422534
 40
1.726153
 50
1.534347
 51
90.000000
  0
LINE
  8
A-POWR-0
 10
-0.173292
 20
-9.056247
 11
-3.662938
 21
-9.056247
  0
LINE
  8
A-POWR-0
 10
-1.156680
 20
-0.026605
 11
-1.156680
 21
-11.036168
  0
TEXT
  8
A-POWR-0
 10
0.389112
 20
-14.431763
 40
2.743620
  1
5
  7
STANDARD
  0
ENDBLK
  0
ENDSEC
  0
SECTION
  2
ENTITIES
  0
LINE
  8
A-WALL-0
 10
-262.000000
 20
-280.000000
 11
-262.000000
 21
-267.000000
  0
LINE
  8
A-WALL-0
 10
-274.000000
 20
-255.000000
 11
-274.000000
 21
-280.000000
  0
LINE
  8
A-WALL-0
 10
-262.000000
 20
-416.000000
 11
-262.000000
 21
-312.000000
  0
LINE
  8
A-WALL-0
 10
-274.000000
 20
-312.000000
 11
-274.000000
 21
-416.000000
  0
LINE
  8
A-WALL-0
 10
-262.000000
 20
-468.000000
 11
-262.000000
 21
-448.000000
  0
LINE
  8
A-WALL-0
 10
-274.000000
 20
-448.000000
 11
-274.000000
 21
-470.000000
  0
LINE
  8
A-GLAZ-0
 10
-274.000000
 20
-280.000000
 11
-262.000000
 21
-280.000000
  0
LINE
  8
A-GLAZ-0
 10
-262.000000
 20
-312.000000
 11
-274.000000
 21
-312.000000
  0
LINE
  8
A-GLAZ-0
 10
-262.000000
 20
-312.000000
 11
-262.000000
 21
-280.000000
  0
LINE
  8
A-GLAZ-0
 10
-274.000000
 20
-280.000000
 11
-274.000000
 21
-312.000000
  0
LINE
  8
A-GLAZ-0
 10
-268.000000
 20
-280.000000
 11
-268.000000
 21
-312.000000
  0
TEXT
  8
A-DIMS-0
 10
-278.458441
 20
-305.440412
 40
5.487240
  1
2852
 50
90.000000
  7
STANDARD
  0
LINE
  8
A-GLAZ-0
 10
-274.000000
 20
-416.000000
 11
-262.000000
 21
-416.000000
  0
LINE
  8
A-GLAZ-0
 10
-262.000000
 20
-448.000000
 11
-274.000000
 21
-448.000000
  0
LINE
  8
A-GLAZ-0
 10
-262.000000
 20
-448.000000
 11
-262.000000
 21
-416.000000
  0
LINE
  8
A-GLAZ-0
 10
-274.000000
 20
-416.000000
 11
-274.000000
 21
-448.000000
  0
LINE
  8
A-GLAZ-0
 10
-268.000000
 20
-416.000000
 11
-268.000000
 21
-448.000000
  0
TEXT
  8
A-DIMS-0
 10
-278.458441
 20
-441.440412
 40
5.487240
  1
2852
 50
90.000000
  7
STANDARD
  0
LINE
  8
A-WALL-0
 10
206.000000
 20
-171.000000
 11
74.000000
 21
-171.000000
  0
LINE
  8
A-WALL-0
 10
66.000000
 20
-179.000000
 11
198.000000
 21
-179.000000
  0
LINE
  8
A-WALL-0
 10
38.000000
 20
-387.000000
 11
38.000000
 21
-406.000000
  0
LINE
  8
A-WALL-0
 10
42.000000
 20
-472.000000
 11
42.000000
 21
-391.000000
  0
LINE
  8
A-WALL-0
 10
38.000000
 20
-410.000000
 11
38.000000
 21
-468.000000
  0
LINE
  8
A-WALL-0
 10
-32.000000
 20
-410.000000
 11
38.000000
 21
-410.000000
  0
LINE
  8
A-WALL-0
 10
38.000000
 20
-406.000000
 11
-36.000000
 21
-406.000000
  0
LINE
  8
A-WALL-0
 10
-36.000000
 20
-406.000000
 11
-36.000000
 21
-468.000000
  0
LINE
  8
A-WALL-0
 10
-32.000000
 20
-468.000000
 11
-32.000000
 21
-410.000000
  0
LINE
  8
A-WALL-0
 10
206.000000
 20
-255.000000
 11
206.000000
 21
-171.000000
  0
LINE
  8
A-WALL-0
 10
198.000000
 20
-179.000000
 11
198.000000
 21
-255.000000
  0
LINE
  8
A-WALL-0
 10
230.000000
 20
-279.000000
 11
230.000000
 21
-255.000000
  0
LINE
  8
A-WALL-0
 10
218.000000
 20
-267.000000
 11
218.000000
 21
-279.000000
  0
LINE
  8
A-WALL-0
 10
218.000000
 20
-311.000000
 11
218.000000
 21
-415.000000
  0
LINE
  8
A-WALL-0
 10
230.000000
 20
-495.000000
 11
230.000000
 21
-311.000000
  0
LINE
  8
A-WALL-0
 10
218.000000
 20
-419.000000
 11
218.000000
 21
-493.000000
  0
LINE
  8
A-GLAZ-0
 10
230.000000
 20
-311.000000
 11
218.000000
 21
-311.000000
  0
LINE
  8
A-GLAZ-0
 10
218.000000
 20
-279.000000
 11
230.000000
 21
-279.000000
  0
LINE
  8
A-GLAZ-0
 10
218.000000
 20
-279.000000
 11
218.000000
 21
-311.000000
  0
LINE
  8
A-GLAZ-0
 10
230.000000
 20
-311.000000
 11
230.000000
 21
-279.000000
  0
LINE
  8
A-GLAZ-0
 10
224.000000
 20
-311.000000
 11
224.000000
 21
-279.000000
  0
TEXT
  8
A-DIMS-0
 10
239.703114
 20
-304.440412
 40
5.487240
  1
2852
 50
90.000000
  7
STANDARD
  0
LINE
  8
A-WALL-0
 10
-219.000000
 20
-255.000000
 11
-274.000000
 21
-255.000000
  0
LINE
  8
A-WALL-0
 10
-262.000000
 20
-267.000000
 11
-219.000000
 21
-267.000000
  0
LINE
  8
A-WALL-0
 10
-112.000000
 20
-255.000000
 11
-157.000000
 21
-255.000000
  0
LINE
  8
A-WALL-0
 10
-157.000000
 20
-267.000000
 11
-114.000000
 21
-267.000000
  0
LINE
  8
A-GLAZ-0
 10
-219.000000
 20
-255.000000
 11
-219.000000
 21
-267.000000
  0
LINE
  8
A-GLAZ-0
 10
-157.000000
 20
-255.000000
 11
-157.000000
 21
-267.000000
  0
LINE
  8
A-GLAZ-0
 10
-219.000000
 20
-267.000000
 11
-219.000000
 21
-298.000000
  0
LINE
  8
A-GLAZ-0
 10
-217.250000
 20
-298.000000
 11
-217.250000
 21
-267.000000
  0
LINE
  8
A-GLAZ-0
 10
-217.250000
 20
-267.000000
 11
-219.000000
 21
-267.000000
  0
ARC
  8
A-GLAZ-0
 10
-219.000000
 20
-267.000000
 40
31.000000
 50
270.000000
 51
0.000000
  0
LINE
  8
A-GLAZ-0
 10
-157.000000
 20
-267.000000
 11
-157.000000
 21
-298.000000
  0
LINE
  8
A-GLAZ-0
 10
-158.750000
 20
-298.000000
 11
-158.750000
 21
-267.000000
  0
LINE
  8
A-GLAZ-0
 10
-158.750000
 20
-267.000000
 11
-157.000000
 21
-267.000000
  0
ARC
  8
A-GLAZ-0
 10
-157.000000
 20
-267.000000
 40
31.000000
 50
180.000000
 51
270.000000
  0
LINE
  8
A-GLAZ-0
 10
-219.000000
 20
-255.000000
 11
-157.000000
 21
-255.000000
  0
TEXT
  8
A-DIMS-0
 10
-197.440412
 20
-250.541559
 40
5.487240
  1
5268
  7
STANDARD
  0
LINE
  8
A-WALL-0
 10
-106.000000
 20
-145.000000
 11
-106.000000
 21
-103.000000
  0
LINE
  8
A-WALL-0
 10
-114.000000
 20
-95.000000
 11
-114.000000
 21
-145.000000
  0
LINE
  8
A-WALL-0
 10
-106.000000
 20
-255.000000
 11
-106.000000
 21
-181.000000
  0
LINE
  8
A-WALL-0
 10
-114.000000
 20
-181.000000
 11
-114.000000
 21
-255.000000
  0
LINE
  8
A-GLAZ-0
 10
-106.000000
 20
-145.000000
 11
-114.000000
 21
-145.000000
  0
LINE
  8
A-GLAZ-0
 10
-106.000000
 20
-181.000000
 11
-114.000000
 21
-181.000000
  0
LINE
  8
A-GLAZ-0
 10
-106.000000
 20
-181.000000
 11
-70.000000
 21
-181.000000
  0
LINE
  8
A-GLAZ-0
 10
-70.000000
 20
-179.250000
 11
-106.000000
 21
-179.250000
  0
LINE
  8
A-GLAZ-0
 10
-106.000000
 20
-179.250000
 11
-106.000000
 21
-181.000000
  0
ARC
  8
A-GLAZ-0
 10
-106.000000
 20
-181.000000
 40
36.000000
 50
0.000000
 51
90.000000
  0
LINE
  8
A-GLAZ-0
 10
-114.000000
 20
-145.000000
 11
-114.000000
 21
-181.000000
  0
TEXT
  8
A-DIMS-0
 10
-118.458441
 20
-172.440412
 40
5.487240
  1
3068
 50
90.000000
  7
STANDARD
  0
LINE
  8
A-WALL-0
 10
-110.000000
 20
-270.000000
 11
-110.000000
 21
-267.000000
  0
LINE
  8
A-WALL-0
 10
-114.000000
 20
-267.000000
 11
-114.000000
 21
-270.000000
  0
LINE
  8
A-WALL-0
 10
-110.000000
 20
-337.000000
 11
-110.000000
 21
-332.000000
  0
LINE
  8
A-WALL-0
 10
-114.000000
 20
-332.000000
 11
-114.000000
 21
-341.000000
  0
LINE
  8
A-GLAZ-0
 10
-110.000000
 20
-270.000000
 11
-114.000000
 21
-270.000000
  0
LINE
  8
A-GLAZ-0
 10
-110.000000
 20
-332.000000
 11
-114.000000
 21
-332.000000
  0
LINE
  8
A-GLAZ-0
 10
-114.000000
 20
-270.000000
 11
-145.000000
 21
-270.000000
  0
LINE
  8
A-GLAZ-0
 10
-145.000000
 20
-271.375000
 11
-114.000000
 21
-271.375000
  0
LINE
  8
A-GLAZ-0
 10
-114.000000
 20
-271.375000
 11
-114.000000
 21
-270.000000
  0
ARC
  8
A-GLAZ-0
 10
-114.000000
 20
-270.000000
 40
31.000000
 50
180.000000
 51
270.000000
  0
LINE
  8
A-GLAZ-0
 10
-114.000000
 20
-332.000000
 11
-145.000000
 21
-332.000000
  0
LINE
  8
A-GLAZ-0
 10
-145.000000
 20
-330.625000
 11
-114.000000
 21
-330.625000
  0
LINE
  8
A-GLAZ-0
 10
-114.000000
 20
-330.625000
 11
-114.000000
 21
-332.000000
  0
ARC
  8
A-GLAZ-0
 10
-114.000000
 20
-332.000000
 40
31.000000
 50
90.000000
 51
180.000000
  0
TEXT
  8
A-DIMS-0
 10
-109.377663
 20
-310.440412
 40
5.487240
  1
5268
 50
90.000000
  7
STANDARD
  0
LINE
  8
A-WALL-0
 10
230.000000
 20
-571.000000
 11
230.000000
 21
-495.000000
  0
LINE
  8
A-WALL-0
 10
222.000000
 20
-497.000000
 11
222.000000
 21
-563.000000
  0
LINE
  8
A-WALL-0
  6
DOTTED
 10
102.000000
 20
-811.000000
 11
230.000000
 21
-811.000000
  0
LINE
  8
A-WALL-0
  6
DOTTED
 10
222.000000
 20
-803.000000
 11
94.000000
 21
-803.000000
  0
LINE
  8
A-WALL-0
 10
-84.000000
 20
-337.000000
 11
-110.000000
 21
-337.000000
  0
LINE
  8
A-WALL-0
 10
66.000000
 20
-337.000000
 11
-80.000000
 21
-337.000000
  0
LINE
  8
A-WALL-0
 10
-114.000000
 20
-341.000000
 11
66.000000
 21
-341.000000
  0
LINE
  8
A-WALL-0
 10
-106.000000
 20
-103.000000
 11
66.000000
 21
-103.000000
  0
LINE
  8
A-WALL-0
 10
74.000000
 20
-95.000000
 11
-114.000000
 21
-95.000000
  0
LINE
  8
A-WALL-0
 10
-266.000000
 20
-472.000000
 11
-170.000000
 21
-472.000000
  0
LINE
  8
A-WALL-0
 10
-134.990494
 20
-468.000000
 11
-262.000000
 21
-468.000000
  0
LINE
  8
A-WALL-0
 10
-166.000000
 20
-472.000000
 11
-134.990494
 21
-472.000000
  0
LINE
  8
A-WALL-0
 10
-36.000000
 20
-468.000000
 11
-98.990486
 21
-468.000000
  0
LINE
  8
A-WALL-0
 10
-15.037471
 20
-468.000000
 11
-32.000000
 21
-468.000000
  0
LINE
  8
A-WALL-0
 10
-98.990486
 20
-472.000000
 11
-15.037471
 21
-472.000000
  0
LINE
  8
A-WALL-0
 10
20.962528
 20
-472.000000
 11
26.000000
 21
-472.000000
  0
LINE
  8
A-WALL-0
 10
38.000000
 20
-468.000000
 11
20.962528
 21
-468.000000
  0
LINE
  8
A-WALL-0
 10
30.000000
 20
-472.000000
 11
42.000000
 21
-472.000000
  0
LINE
  8
A-GLAZ-0
 10
-134.990488
 20
-468.000000
 11
-134.990488
 21
-472.000000
  0
LINE
  8
A-GLAZ-0
 10
-98.990488
 20
-468.000000
 11
-98.990488
 21
-472.000000
  0
LINE
  8
A-GLAZ-0
 10
-134.990488
 20
-468.000000
 11
-134.990488
 21
-432.000000
  0
LINE
  8
A-GLAZ-0
 10
-133.615488
 20
-432.000000
 11
-133.615488
 21
-468.000000
  0
LINE
  8
A-GLAZ-0
 10
-133.615488
 20
-468.000000
 11
-134.990488
 21
-468.000000
  0
ARC
  8
A-GLAZ-0
 10
-134.990488
 20
-468.000000
 40
36.000000
 50
0.000000
 51
90.000000
  0
TEXT
  8
A-DIMS-0
 10
-126.430900
 20
-472.622337
 40
5.487240
  1
3068
  7
STANDARD
  0
LINE
  8
A-GLAZ-0
 10
-15.037471
 20
-468.000000
 11
-15.037471
 21
-472.000000
  0
LINE
  8
A-GLAZ-0
 10
20.962529
 20
-468.000000
 11
20.962529
 21
-472.000000
  0
LINE
  8
A-GLAZ-0
 10
20.962529
 20
-472.000000
 11
20.962529
 21
-508.000000
  0
LINE
  8
A-GLAZ-0
 10
19.587529
 20
-508.000000
 11
19.587529
 21
-472.000000
  0
LINE
  8
A-GLAZ-0
 10
19.587529
 20
-472.000000
 11
20.962529
 21
-472.000000
  0
ARC
  8
A-GLAZ-0
 10
20.962529
 20
-472.000000
 40
36.000000
 50
180.000000
 51
270.000000
  0
TEXT
  8
A-DIMS-0
 10
-6.477883
 20
-472.622337
 40
5.487240
  1
3068
  7
STANDARD
  0
LINE
  8
A-WALL-0
 10
134.000000
 20
-493.000000
 11
134.000000
 21
-419.000000
  0
LINE
  8
A-WALL-0
 10
130.000000
 20
-419.000000
 11
130.000000
 21
-497.000000
  0
LINE
  8
A-WALL-0
 10
191.000000
 20
-419.000000
 11
218.000000
 21
-419.000000
  0
LINE
  8
A-WALL-0
 10
218.000000
 20
-415.000000
 11
191.000000
 21
-415.000000
  0
LINE
  8
A-WALL-0
 10
134.000000
 20
-419.000000
 11
161.000000
 21
-419.000000
  0
LINE
  8
A-WALL-0
 10
66.000000
 20
-419.000000
 11
130.000000
 21
-419.000000
  0
LINE
  8
A-WALL-0
 10
161.000000
 20
-415.000000
 11
70.000000
 21
-415.000000
  0
LINE
  8
A-GLAZ-0
 10
191.000000
 20
-419.000000
 11
191.000000
 21
-415.000000
  0
LINE
  8
A-GLAZ-0
 10
161.000000
 20
-419.000000
 11
161.000000
 21
-418.000000
  0
LINE
  8
A-GLAZ-0
 10
161.000000
 20
-416.000000
 11
161.000000
 21
-415.000000
  0
LINE
  8
A-GLAZ-0
 10
176.000000
 20
-416.312500
 11
176.000000
 21
-417.687500
  0
LINE
  8
A-GLAZ-0
 10
146.000000
 20
-416.312500
 11
146.000000
 21
-417.687500
  0
LINE
  8
A-GLAZ-0
 10
176.000000
 20
-416.312500
 11
146.000000
 21
-416.312500
  0
LINE
  8
A-GLAZ-0
 10
176.000000
 20
-417.687500
 11
146.000000
 21
-417.687500
  0
TEXT
  8
A-DIMS-0
 10
166.559588
 20
-410.541559
 40
5.487240
  1
2668
  7
STANDARD
  0
LINE
  8
A-WALL-0
  6
DOTTED
 10
102.000000
 20
-839.000000
 11
102.000000
 21
-811.000000
  0
LINE
  8
A-WALL-0
  6
DOTTED
 10
94.000000
 20
-803.000000
 11
94.000000
 21
-831.000000
  0
LINE
  8
A-WALL-0
 10
218.000000
 20
-493.000000
 11
134.000000
 21
-493.000000
  0
LINE
  8
A-WALL-0
 10
130.000000
 20
-497.000000
 11
222.000000
 21
-497.000000
  0
LINE
  8
A-WALL-0
 10
66.000000
 20
-387.000000
 11
38.000000
 21
-387.000000
  0
LINE
  8
A-WALL-0
 10
42.000000
 20
-391.000000
 11
66.000000
 21
-391.000000
  0
LINE
  8
A-WALL-0
 10
70.000000
 20
-301.500000
 11
70.000000
 21
-267.000000
  0
LINE
  8
A-WALL-0
 10
66.000000
 20
-267.000000
 11
66.000000
 21
-301.500000
  0
LINE
  8
A-WALL-0
 10
66.000000
 20
-333.500000
 11
66.000000
 21
-337.000000
  0
LINE
  8
A-WALL-0
 10
70.000000
 20
-351.500000
 11
70.000000
 21
-333.500000
  0
LINE
  8
A-WALL-0
 10
66.000000
 20
-341.000000
 11
66.000000
 21
-351.500000
  0
LINE
  8
A-WALL-0
 10
66.000000
 20
-383.500000
 11
66.000000
 21
-387.000000
  0
LINE
  8
A-WALL-0
 10
70.000000
 20
-415.000000
 11
70.000000
 21
-383.500000
  0
LINE
  8
A-WALL-0
 10
66.000000
 20
-391.000000
 11
66.000000
 21
-419.000000
  0
LINE
  8
A-GLAZ-0
 10
70.000000
 20
-301.500000
 11
66.000000
 21
-301.500000
  0
LINE
  8
A-GLAZ-0
 10
70.000000
 20
-333.500000
 11
66.000000
 21
-333.500000
  0
LINE
  8
A-GLAZ-0
 10
66.000000
 20
-333.500000
 11
34.000000
 21
-333.500000
  0
LINE
  8
A-GLAZ-0
 10
34.000000
 20
-332.125000
 11
66.000000
 21
-332.125000
  0
LINE
  8
A-GLAZ-0
 10
66.000000
 20
-332.125000
 11
66.000000
 21
-333.500000
  0
ARC
  8
A-GLAZ-0
 10
66.000000
 20
-333.500000
 40
32.000000
 50
90.000000
 51
180.000000
  0
TEXT
  8
A-DIMS-0
 10
70.622337
 20
-326.940412
 40
5.487240
  1
2868
 50
90.000000
  7
STANDARD
  0
LINE
  8
A-GLAZ-0
 10
70.000000
 20
-351.500000
 11
66.000000
 21
-351.500000
  0
LINE
  8
A-GLAZ-0
 10
70.000000
 20
-383.500000
 11
66.000000
 21
-383.500000
  0
LINE
  8
A-GLAZ-0
 10
70.000000
 20
-383.500000
 11
102.000000
 21
-383.500000
  0
LINE
  8
A-GLAZ-0
 10
102.000000
 20
-382.125000
 11
70.000000
 21
-382.125000
  0
LINE
  8
A-GLAZ-0
 10
70.000000
 20
-382.125000
 11
70.000000
 21
-383.500000
  0
ARC
  8
A-GLAZ-0
 10
70.000000
 20
-383.500000
 40
32.000000
 50
0.000000
 51
90.000000
  0
TEXT
  8
A-DIMS-0
 10
70.622337
 20
-376.940412
 40
5.487240
  1
2868
 50
90.000000
  7
STANDARD
  0
LINE
  8
A-WALL-0
 10
-80.000000
 20
-337.000000
 11
-80.000000
 21
-267.000000
  0
LINE
  8
A-WALL-0
 10
-84.000000
 20
-267.000000
 11
-84.000000
 21
-337.000000
  0
LINE
  8
A-WALL-0
 10
-274.000000
 20
-605.000000
 11
-286.047302
 21
-605.000000
  0
LINE
  8
A-WALL-0
 10
-282.733582
 20
-613.000000
 11
-266.000000
 21
-613.000000
  0
LINE
  8
A-WALL-0
 10
-182.000000
 20
-719.000000
 11
-182.000000
 21
-791.000000
  0
LINE
  8
A-WALL-0
 10
-174.000000
 20
-799.000000
 11
-174.000000
 21
-727.000000
  0
LINE
  8
A-WALL-0
  6
DOTTED
 10
-228.000000
 20
-514.000000
 11
-228.000000
 21
-602.000000
  0
LINE
  8
A-WALL-0
  6
DOTTED
 10
-226.000000
 20
-602.000000
 11
-226.000000
 21
-516.000000
  0
LINE
  8
A-WALL-0
 10
30.000000
 20
-511.000000
 11
30.000000
 21
-472.000000
  0
LINE
  8
A-WALL-0
 10
26.000000
 20
-472.000000
 11
26.000000
 21
-511.000000
  0
LINE
  8
A-WALL-0
 10
30.000000
 20
-563.000000
 11
30.000000
 21
-547.000000
  0
LINE
  8
A-WALL-0
 10
26.000000
 20
-547.000000
 11
26.000000
 21
-559.000000
  0
LINE
  8
A-GLAZ-0
 10
30.000000
 20
-511.000000
 11
26.000000
 21
-511.000000
  0
LINE
  8
A-GLAZ-0
 10
30.000000
 20
-547.000000
 11
26.000000
 21
-547.000000
  0
LINE
  8
A-GLAZ-0
 10
26.000000
 20
-547.000000
 11
-10.000000
 21
-547.000000
  0
LINE
  8
A-GLAZ-0
 10
-10.000000
 20
-545.625000
 11
26.000000
 21
-545.625000
  0
LINE
  8
A-GLAZ-0
 10
26.000000
 20
-545.625000
 11
26.000000
 21
-547.000000
  0
ARC
  8
A-GLAZ-0
 10
26.000000
 20
-547.000000
 40
36.000000
 50
90.000000
 51
180.000000
  0
TEXT
  8
A-DIMS-0
 10
30.622337
 20
-538.440412
 40
5.487240
  1
3068
 50
90.000000
  7
STANDARD
  0
LINE
  8
A-WALL-0
  6
DOTTED
 10
-170.000000
 20
-514.000000
 11
-228.000000
 21
-514.000000
  0
LINE
  8
A-WALL-0
  6
DOTTED
 10
-226.000000
 20
-516.000000
 11
-166.000000
 21
-516.000000
  0
LINE
  8
A-WALL-0
  6
DOTTED
 10
230.000000
 20
-811.000000
 11
230.000000
 21
-565.000000
  0
LINE
  8
A-WALL-0
  6
DOTTED
 10
222.000000
 20
-571.000000
 11
222.000000
 21
-803.000000
  0
LINE
  8
A-WALL-0
 10
-38.000000
 20
-727.000000
 11
-38.000000
 21
-719.000000
  0
LINE
  8
A-WALL-0
 10
-174.000000
 20
-727.000000
 11
-38.000000
 21
-727.000000
  0
LINE
  8
A-WALL-0
 10
-42.000000
 20
-719.000000
 11
-182.000000
 21
-719.000000
  0
LINE
  8
A-WALL-0
  6
DOTTED
 10
-42.000000
 20
-839.000000
 11
102.000000
 21
-839.000000
  0
LINE
  8
A-WALL-0
  6
DOTTED
 10
94.000000
 20
-831.000000
 11
-34.000000
 21
-831.000000
  0
LINE
  8
A-WALL-0
 10
-266.000000
 20
-602.000000
 11
-266.000000
 21
-472.000000
  0
LINE
  8
A-WALL-0
 10
-266.000000
 20
-613.000000
 11
-266.000000
 21
-606.000000
  0
LINE
  8
A-WALL-0
 10
-274.000000
 20
-470.000000
 11
-274.000000
 21
-605.000000
  0
LINE
  8
A-WALL-0
 10
-322.000000
 20
-799.000000
 11
-174.000000
 21
-799.000000
  0
LINE
  8
A-WALL-0
 10
-182.000000
 20
-791.000000
 11
-314.000000
 21
-791.000000
  0
LINE
  8
A-WALL-0
 10
-322.000000
 20
-640.952698
 11
-322.000000
 21
-799.000000
  0
LINE
  8
A-WALL-0
 10
-314.000000
 20
-791.000000
 11
-314.000000
 21
-644.266418
  0
LINE
  8
A-WALL-0
 10
-286.047302
 20
-605.000000
 11
-322.000000
 21
-640.952698
  0
LINE
  8
A-WALL-0
 10
-314.000000
 20
-644.266418
 11
-282.733582
 21
-613.000000
  0
LINE
  8
A-WALL-0
 10
230.000000
 20
-255.000000
 11
206.000000
 21
-255.000000
  0
LINE
  8
A-WALL-0
 10
70.000000
 20
-267.000000
 11
218.000000
 21
-267.000000
  0
LINE
  8
A-WALL-0
 10
-80.000000
 20
-267.000000
 11
66.000000
 21
-267.000000
  0
LINE
  8
A-WALL-0
 10
198.000000
 20
-255.000000
 11
-106.000000
 21
-255.000000
  0
LINE
  8
A-WALL-0
 10
-110.000000
 20
-267.000000
 11
-84.000000
 21
-267.000000
  0
LINE
  8
A-WALL-0
 10
74.000000
 20
-171.000000
 11
74.000000
 21
-95.000000
  0
LINE
  8
A-WALL-0
 10
66.000000
 20
-103.000000
 11
66.000000
 21
-179.000000
  0
LINE
  8
A-WALL-0
  6
DOTTED
 10
-42.000000
 20
-775.000000
 11
-42.000000
 21
-839.000000
  0
LINE
  8
A-WALL-0
  6
DOTTED
 10
-42.000000
 20
-727.000000
 11
-42.000000
 21
-767.000000
  0
LINE
  8
A-WALL-0
  6
DOTTED
 10
-34.000000
 20
-831.000000
 11
-34.000000
 21
-719.000000
  0
LINE
  8
A-WALL-0
 10
-34.000000
 20
-719.000000
 11
-34.000000
 21
-605.000000
  0
LINE
  8
A-WALL-0
 10
-42.000000
 20
-606.000000
 11
-42.000000
 21
-719.000000
  0
LINE
  8
A-WALL-0
 10
-170.000000
 20
-515.000000
 11
-166.000000
 21
-515.000000
  0
LINE
  8
A-WALL-0
 10
-166.000000
 20
-478.000000
 11
-166.000000
 21
-472.000000
  0
LINE
  8
A-WALL-0
 10
-170.000000
 20
-472.000000
 11
-170.000000
 21
-478.000000
  0
LINE
  8
A-WALL-0
 10
-166.000000
 20
-515.000000
 11
-166.000000
 21
-508.000000
  0
LINE
  8
A-WALL-0
 10
-170.000000
 20
-508.000000
 11
-170.000000
 21
-515.000000
  0
LINE
  8
A-GLAZ-0
 10
-166.000000
 20
-478.000000
 11
-170.000000
 21
-478.000000
  0
LINE
  8
A-GLAZ-0
 10
-166.000000
 20
-508.000000
 11
-170.000000
 21
-508.000000
  0
LINE
  8
A-GLAZ-0
 10
-166.000000
 20
-478.000000
 11
-136.000000
 21
-478.000000
  0
LINE
  8
A-GLAZ-0
 10
-136.000000
 20
-479.375000
 11
-166.000000
 21
-479.375000
  0
LINE
  8
A-GLAZ-0
 10
-166.000000
 20
-479.375000
 11
-166.000000
 21
-478.000000
  0
ARC
  8
A-GLAZ-0
 10
-166.000000
 20
-478.000000
 40
30.000000
 50
270.000000
 51
0.000000
  0
TEXT
  8
A-DIMS-0
 10
-165.377663
 20
-502.440412
 40
5.487240
  1
2668
 50
90.000000
  7
STANDARD
  0
LINE
  8
A-WALL-0
 10
26.000000
 20
-559.000000
 11
-46.000000
 21
-559.000000
  0
LINE
  8
A-WALL-0
 10
-34.000000
 20
-571.000000
 11
28.000000
 21
-571.000000
  0
LINE
  8
A-WALL-0
 10
-34.000000
 20
-605.000000
 11
-34.000000
 21
-571.000000
  0
LINE
  8
A-WALL-0
 10
-46.000000
 20
-559.000000
 11
-46.000000
 21
-602.000000
  0
LINE
  8
A-WALL-0
  6
DOTTED
 10
-42.000000
 20
-767.000000
 11
-174.000000
 21
-767.000000
  0
LINE
  8
A-WALL-0
  6
DOTTED
 10
-174.000000
 20
-775.000000
 11
-42.000000
 21
-775.000000
  0
LINE
  8
A-WALL-0
 10
-196.801941
 20
-602.000000
 11
-266.000000
 21
-602.000000
  0
LINE
  8
A-WALL-0
 10
-266.000000
 20
-606.000000
 11
-196.801941
 21
-606.000000
  0
LINE
  8
A-WALL-0
 10
-46.000000
 20
-602.000000
 11
-160.801941
 21
-602.000000
  0
LINE
  8
A-WALL-0
 10
-160.801941
 20
-606.000000
 11
-42.000000
 21
-606.000000
  0
LINE
  8
A-GLAZ-0
 10
-196.801948
 20
-602.000000
 11
-196.801948
 21
-606.000000
  0
LINE
  8
A-GLAZ-0
 10
-160.801948
 20
-602.000000
 11
-160.801948
 21
-606.000000
  0
LINE
  8
A-GLAZ-0
 10
-196.801948
 20
-606.000000
 11
-196.801948
 21
-642.000000
  0
LINE
  8
A-GLAZ-0
 10
-195.426948
 20
-642.000000
 11
-195.426948
 21
-606.000000
  0
LINE
  8
A-GLAZ-0
 10
-195.426948
 20
-606.000000
 11
-196.801948
 21
-606.000000
  0
ARC
  8
A-GLAZ-0
 10
-196.801948
 20
-606.000000
 40
36.000000
 50
270.000000
 51
0.000000
  0
TEXT
  8
A-DIMS-0
 10
-188.242360
 20
-607.622337
 40
5.487240
  1
3068
  7
STANDARD
  0
LINE
  8
A-WALL-0
 10
222.000000
 20
-563.000000
 11
30.000000
 21
-563.000000
  0
LINE
  8
A-WALL-0
 10
28.000000
 20
-571.000000
 11
230.000000
 21
-571.000000
  0
LINE
  8
A-STAR-0
 10
-215.000000
 20
-602.000000
 11
-206.000000
 21
-602.000000
  0
LINE
  8
A-STAR-0
 10
-206.000000
 20
-602.000000
 11
-206.000000
 21
-560.000000
  0
LINE
  8
A-STAR-0
 10
-206.000000
 20
-560.000000
 11
-215.000000
 21
-560.000000
  0
LINE
  8
A-STAR-0
 10
-224.000000
 20
-602.000000
 11
-215.000000
 21
-602.000000
  0
LINE
  8
A-STAR-0
 10
-215.000000
 20
-602.000000
 11
-215.000000
 21
-560.000000
  0
LINE
  8
A-STAR-0
 10
-215.000000
 20
-560.000000
 11
-224.000000
 21
-560.000000
  0
LINE
  8
A-STAR-0
 10
-224.000000
 20
-602.000000
 11
-224.000000
 21
-560.000000
  0
TEXT
  8
A-POWR-0
 10
-220.020916
 20
-580.175486
 40
4.572700
  1
UP
  7
STANDARD
  0
LINE
  8
A-STAR-0
 10
-225.000000
 20
-583.000000
 11
-214.000000
 21
-583.000000
  0
LINE
  8
A-STAR-0
 10
-224.000000
 20
-559.500000
 11
-224.000000
 21
-602.500000
  0
LINE
  8
A-STAR-0
 10
-224.000000
 20
-602.500000
 11
-266.000000
 21
-602.500000
  0
LINE
  8
A-STAR-0
 10
-266.000000
 20
-602.500000
 11
-266.000000
 21
-559.500000
  0
LINE
  8
A-STAR-0
 10
-266.000000
 20
-559.500000
 11
-224.000000
 21
-559.500000
  0
LINE
  8
A-STAR-0
 10
-266.000000
 20
-550.400000
 11
-266.000000
 21
-559.500000
  0
LINE
  8
A-STAR-0
 10
-266.000000
 20
-559.500000
 11
-224.000000
 21
-559.500000
  0
LINE
  8
A-STAR-0
 10
-224.000000
 20
-559.500000
 11
-224.000000
 21
-550.400000
  0
LINE
  8
A-STAR-0
 10
-266.000000
 20
-541.300000
 11
-266.000000
 21
-550.400000
  0
LINE
  8
A-STAR-0
 10
-266.000000
 20
-550.400000
 11
-224.000000
 21
-550.400000
  0
LINE
  8
A-STAR-0
 10
-224.000000
 20
-550.400000
 11
-224.000000
 21
-541.300000
  0
LINE
  8
A-STAR-0
 10
-266.000000
 20
-532.200000
 11
-266.000000
 21
-541.300000
  0
LINE
  8
A-STAR-0
 10
-266.000000
 20
-541.300000
 11
-224.000000
 21
-541.300000
  0
LINE
  8
A-STAR-0
 10
-224.000000
 20
-541.300000
 11
-224.000000
 21
-532.200000
  0
LINE
  8
A-STAR-0
 10
-266.000000
 20
-523.100000
 11
-266.000000
 21
-532.200000
  0
LINE
  8
A-STAR-0
 10
-266.000000
 20
-532.200000
 11
-224.000000
 21
-532.200000
  0
LINE
  8
A-STAR-0
 10
-224.000000
 20
-532.200000
 11
-224.000000
 21
-523.100000
  0
LINE
  8
A-STAR-0
 10
-266.000000
 20
-514.000000
 11
-266.000000
 21
-523.100000
  0
LINE
  8
A-STAR-0
 10
-266.000000
 20
-523.100000
 11
-224.000000
 21
-523.100000
  0
LINE
  8
A-STAR-0
 10
-224.000000
 20
-523.100000
 11
-224.000000
 21
-514.000000
  0
LINE
  8
A-STAR-0
 10
-266.000000
 20
-514.000000
 11
-224.000000
 21
-514.000000
  0
LINE
  8
A-STAR-0
 10
-223.500000
 20
-514.000000
 11
-266.000000
 21
-514.000000
  0
LINE
  8
A-STAR-0
 10
-266.000000
 20
-514.000000
 11
-266.000000
 21
-472.000000
  0
LINE
  8
A-STAR-0
 10
-266.000000
 20
-472.000000
 11
-223.500000
 21
-472.000000
  0
LINE
  8
A-STAR-0
 10
-223.500000
 20
-472.000000
 11
-223.500000
 21
-514.000000
  0
LINE
  8
A-STAR-0
 10
-214.500000
 20
-472.000000
 11
-223.500000
 21
-472.000000
  0
LINE
  8
A-STAR-0
 10
-223.500000
 20
-472.000000
 11
-223.500000
 21
-514.000000
  0
LINE
  8
A-STAR-0
 10
-223.500000
 20
-514.000000
 11
-214.500000
 21
-514.000000
  0
LINE
  8
A-STAR-0
 10
-205.500000
 20
-472.000000
 11
-214.500000
 21
-472.000000
  0
LINE
  8
A-STAR-0
 10
-214.500000
 20
-472.000000
 11
-214.500000
 21
-514.000000
  0
LINE
  8
A-STAR-0
 10
-214.500000
 20
-514.000000
 11
-205.500000
 21
-514.000000
  0
LINE
  8
A-STAR-0
 10
-196.500000
 20
-472.000000
 11
-205.500000
 21
-472.000000
  0
LINE
  8
A-STAR-0
 10
-205.500000
 20
-472.000000
 11
-205.500000
 21
-514.000000
  0
LINE
  8
A-STAR-0
 10
-205.500000
 20
-514.000000
 11
-196.500000
 21
-514.000000
  0
LINE
  8
A-STAR-0
 10
-187.500000
 20
-472.000000
 11
-196.500000
 21
-472.000000
  0
LINE
  8
A-STAR-0
 10
-196.500000
 20
-472.000000
 11
-196.500000
 21
-514.000000
  0
LINE
  8
A-STAR-0
 10
-196.500000
 20
-514.000000
 11
-187.500000
 21
-514.000000
  0
LINE
  8
A-STAR-0
 10
-178.500000
 20
-472.000000
 11
-187.500000
 21
-472.000000
  0
LINE
  8
A-STAR-0
 10
-187.500000
 20
-472.000000
 11
-187.500000
 21
-514.000000
  0
LINE
  8
A-STAR-0
 10
-187.500000
 20
-514.000000
 11
-178.500000
 21
-514.000000
  0
LINE
  8
A-STAR-0
 10
-169.500000
 20
-472.000000
 11
-178.500000
 21
-472.000000
  0
LINE
  8
A-STAR-0
 10
-178.500000
 20
-472.000000
 11
-178.500000
 21
-514.000000
  0
LINE
  8
A-STAR-0
 10
-178.500000
 20
-514.000000
 11
-169.500000
 21
-514.000000
  0
LINE
  8
A-STAR-0
 10
-169.500000
 20
-472.000000
 11
-169.500000
 21
-514.000000
  0
LINE
  8
A-POWR-0
 10
-126.153931
 20
-533.760478
 11
-126.153931
 21
-531.427144
  0
LINE
  8
A-POWR-0
 10
-126.153931
 20
-540.427144
 11
-126.153931
 21
-542.760478
  0
LINE
  8
A-POWR-0
 10
-129.487264
 20
-537.093811
 11
-131.820597
 21
-537.093811
  0
LINE
  8
A-POWR-0
 10
-122.820597
 20
-537.093811
 11
-120.487264
 21
-537.093811
  0
CIRCLE
  8
A-POWR-0
 10
-126.153931
 20
-537.093811
 40
3.333333
  0
ARC
  8
A-POWR-0
 10
-87.402427
 20
-450.043048
 40
95.286486
 50
250.111441
 51
312.970499
  0
INSERT
  8
A-POWR-0
  2
FIXT-RecLight
 10
-17.625166
 20
-528.407703
 41
1.000000
 42
1.000000
 43
 1.0
 50
0.000000
  0
LINE
  8
A-POWR-0
 10
143.983093
 20
-337.738627
 11
143.983093
 21
-335.405294
  0
LINE
  8
A-POWR-0
 10
143.983093
 20
-344.405294
 11
143.983093
 21
-346.738627
  0
LINE
  8
A-POWR-0
 10
140.649760
 20
-341.071960
 11
138.316427
 21
-341.071960
  0
LINE
  8
A-POWR-0
 10
147.316427
 20
-341.071960
 11
149.649760
 21
-341.071960
  0
CIRCLE
  8
A-POWR-0
 10
143.983093
 20
-341.071960
 40
3.333333
  0
INSERT
  8
A-POWR-0
  2
FIXT-RecLight
 10
-145.694489
 20
-336.830035
 41
1.000000
 42
1.000000
 43
 1.0
 50
0.000000
  0
INSERT
  8
A-POWR-0
  2
FIXT-RecLight
 10
-211.658966
 20
-337.882678
 41
1.000000
 42
1.000000
 43
 1.0
 50
0.000000
  0
ARC
  8
A-POWR-0
 10
-179.413577
 20
-277.706076
 40
56.752014
 50
242.498436
 51
299.330029
  0
INSERT
  8
A-POWR-0
  2
FIXT-RecLight
 10
-212.360718
 20
-423.847003
 41
1.000000
 42
1.000000
 43
 1.0
 50
0.000000
  0
ARC
  8
A-POWR-0
 10
-272.184869
 20
-366.898468
 40
73.951772
 50
329.360940
 51
29.703636
  0
INSERT
  8
A-POWR-0
  2
FIXT-RecLight
 10
-146.045364
 20
-422.794391
 41
1.000000
 42
1.000000
 43
 1.0
 50
0.000000
  0
ARC
  8
A-POWR-0
 10
-178.466212
 20
-456.266298
 40
57.053810
 50
62.452975
 51
119.365764
  0
INSERT
  8
A-POWR-0
  2
FIXT-RecLight
 10
-17.976040
 20
-385.952533
 41
1.000000
 42
1.000000
 43
 1.0
 50
0.000000
  0
ARC
  8
A-POWR-0
 10
2.760656
 20
-329.425036
 40
47.786142
 50
252.863617
 51
306.775008
  0
INSERT
  8
A-POWR-0
  2
FIXT-RecLight
 10
-78.326515
 20
-386.654285
 41
1.000000
 42
1.000000
 43
 1.0
 50
0.000000
  0
ARC
  8
A-POWR-0
 10
-48.642504
 20
-330.582930
 40
51.918951
 50
242.969941
 51
298.362462
  0
INSERT
  8
A-POWR-0
  2
FIXT-RecLight
 10
-78.677391
 20
-444.899493
 41
1.000000
 42
1.000000
 43
 1.0
 50
0.000000
  0
ARC
  8
A-POWR-0
 10
-119.273599
 20
-402.056129
 40
50.105332
 50
332.267326
 51
27.042369
  0
INSERT
  8
A-POWR-0
  2
FIXT-RecLight
 10
36.760437
 20
-376.478900
 41
1.000000
 42
1.000000
 43
 1.0
 50
0.000000
  0
INSERT
  8
A-POWR-0
  2
FIXT-RecExFan
 10
-25.695288
 20
-315.417559
 41
1.000000
 42
1.000000
 43
 1.0
 50
0.000000
  0
INSERT
  8
A-POWR-0
  2
FIXT-RecLight
 10
-63.589771
 20
-315.426685
 41
1.000000
 42
1.000000
 43
 1.0
 50
0.000000
  0
INSERT
  8
A-POWR-0
  2
FIXT-RecLight
 10
7.988700
 20
-314.724933
 41
1.000000
 42
1.000000
 43
 1.0
 50
0.000000
  0
ARC
  8
A-POWR-0
 10
-27.309309
 20
-351.705592
 40
61.577088
 50
61.547710
 51
119.575704
  0
LINE
  8
A-POWR-0
 10
-115.168480
 20
-658.615885
 11
-115.168480
 21
-656.282552
  0
LINE
  8
A-POWR-0
 10
-115.168480
 20
-665.282552
 11
-115.168480
 21
-667.615885
  0
LINE
  8
A-POWR-0
 10
-118.501813
 20
-661.949219
 11
-120.835147
 21
-661.949219
  0
LINE
  8
A-POWR-0
 10
-111.835147
 20
-661.949219
 11
-109.501813
 21
-661.949219
  0
CIRCLE
  8
A-POWR-0
 10
-115.168480
 20
-661.949219
 40
3.333333
  0
ARC
  8
A-POWR-0
 10
-105.526927
 20
-612.869215
 40
50.018060
 50
187.810663
 51
250.720395
  0
LINE
  8
A-POWR-0
 10
-249.202682
 20
-661.422892
 11
-249.202682
 21
-659.089559
  0
LINE
  8
A-POWR-0
 10
-249.202682
 20
-668.089559
 11
-249.202682
 21
-670.422892
  0
LINE
  8
A-POWR-0
 10
-252.536016
 20
-664.756226
 11
-254.869349
 21
-664.756226
  0
LINE
  8
A-POWR-0
 10
-245.869349
 20
-664.756226
 11
-243.536016
 21
-664.756226
  0
CIRCLE
  8
A-POWR-0
 10
-249.202682
 20
-664.756226
 40
3.333333
  0
ARC
  8
A-POWR-0
 10
-184.150486
 20
-569.528780
 40
115.325863
 50
239.028273
 51
303.371206
  0
LINE
  8
A-POWR-0
 10
-249.202576
 20
-744.229289
 11
-249.202576
 21
-741.895955
  0
LINE
  8
A-POWR-0
 10
-249.202576
 20
-750.895955
 11
-249.202576
 21
-753.229289
  0
LINE
  8
A-POWR-0
 10
-252.535909
 20
-747.562622
 11
-254.869242
 21
-747.562622
  0
LINE
  8
A-POWR-0
 10
-245.869242
 20
-747.562622
 11
-243.535909
 21
-747.562622
  0
CIRCLE
  8
A-POWR-0
 10
-249.202576
 20
-747.562622
 40
3.333333
  0
ARC
  8
A-POWR-0
 10
-307.167107
 20
-706.159499
 40
71.232756
 50
330.046510
 51
29.953638
  0
LINE
  8
A-POWR-0
 10
86.935547
 20
-462.827647
 11
86.935547
 21
-460.494314
  0
LINE
  8
A-POWR-0
 10
86.935547
 20
-469.494314
 11
86.935547
 21
-471.827647
  0
LINE
  8
A-POWR-0
 10
83.602214
 20
-466.160980
 11
81.268880
 21
-466.160980
  0
LINE
  8
A-POWR-0
 10
90.268880
 20
-466.160980
 11
92.602214
 21
-466.160980
  0
CIRCLE
  8
A-POWR-0
 10
86.935547
 20
-466.160980
 40
3.333333
  0
ARC
  8
A-POWR-0
 10
37.301232
 20
-455.872674
 40
50.689392
 50
277.214092
 51
340.241322
  0
LINE
  8
A-POWR-0
 10
86.233795
 20
-524.581584
 11
86.233795
 21
-522.248250
  0
LINE
  8
A-POWR-0
 10
86.233795
 20
-531.248250
 11
86.233795
 21
-533.581584
  0
LINE
  8
A-POWR-0
 10
82.900462
 20
-527.914917
 11
80.567128
 21
-527.914917
  0
LINE
  8
A-POWR-0
 10
89.567128
 20
-527.914917
 11
91.900462
 21
-527.914917
  0
CIRCLE
  8
A-POWR-0
 10
86.233795
 20
-527.914917
 40
3.333333
  0
ARC
  8
A-POWR-0
 10
43.356915
 20
-496.546722
 40
53.126175
 50
331.459740
 51
27.238135
  0
LINE
  8
A-POWR-0
 10
172.198135
 20
-524.932475
 11
172.198135
 21
-522.599141
  0
LINE
  8
A-POWR-0
 10
172.198135
 20
-531.599141
 11
172.198135
 21
-533.932475
  0
LINE
  8
A-POWR-0
 10
168.864802
 20
-528.265808
 11
166.531469
 21
-528.265808
  0
LINE
  8
A-POWR-0
 10
175.531469
 20
-528.265808
 11
177.864802
 21
-528.265808
  0
CIRCLE
  8
A-POWR-0
 10
172.198135
 20
-528.265808
 40
3.333333
  0
ARC
  8
A-POWR-0
 10
128.970341
 20
-588.265401
 40
73.949938
 50
59.594923
 51
119.937337
  0
LINE
  8
A-POWR-0
 10
177.110382
 20
-449.494395
 11
177.110382
 21
-447.161062
  0
LINE
  8
A-POWR-0
 10
177.110382
 20
-456.161062
 11
177.110382
 21
-458.494395
  0
LINE
  8
A-POWR-0
 10
173.777049
 20
-452.827728
 11
171.443715
 21
-452.827728
  0
LINE
  8
A-POWR-0
 10
180.443715
 20
-452.827728
 11
182.777049
 21
-452.827728
  0
CIRCLE
  8
A-POWR-0
 10
177.110382
 20
-452.827728
 40
3.333333
  0
ARC
  8
A-POWR-0
 10
171.769462
 20
-430.466645
 40
22.990073
 50
302.975745
 51
354.508712
  0
LINE
  8
A-POWR-0
 10
-20.432165
 20
-174.759364
 11
-20.432165
 21
-172.426030
  0
LINE
  8
A-POWR-0
 10
-20.432165
 20
-181.426030
 11
-20.432165
 21
-183.759364
  0
LINE
  8
A-POWR-0
 10
-23.765498
 20
-178.092697
 11
-26.098832
 21
-178.092697
  0
LINE
  8
A-POWR-0
 10
-17.098832
 20
-178.092697
 11
-14.765498
 21
-178.092697
  0
CIRCLE
  8
A-POWR-0
 10
-20.432165
 20
-178.092697
 40
3.333333
  0
ARC
  8
A-POWR-0
 10
-82.663204
 20
-209.651762
 40
69.775904
 50
32.599028
 51
97.966170
  0
LINE
  8
A-POWR-0
 10
-235.518559
 20
-252.666667
 11
-235.518559
 21
-255.000000
  0
LINE
  8
A-POWR-0
 10
-235.518559
 20
-246.000000
 11
-235.518559
 21
-243.666667
  0
LINE
  8
A-POWR-0
 10
-232.185225
 20
-249.333333
 11
-229.851892
 21
-249.333333
  0
LINE
  8
A-POWR-0
 10
-238.851892
 20
-249.333333
 11
-241.185225
 21
-249.333333
  0
CIRCLE
  8
A-POWR-0
 10
-235.518559
 20
-249.333333
 40
3.333333
  0
LINE
  8
A-POWR-0
 10
-106.000000
 20
-140.549191
 11
-94.666667
 21
-140.549191
  0
LINE
  8
A-POWR-0
 10
-100.333333
 20
-139.549191
 11
-100.333333
 21
-141.549191
  0
LINE
  8
A-POWR-0
 10
-97.000000
 20
-143.215857
 11
-97.000000
 21
-139.549191
  0
ARC
  8
A-POWR-0
 10
-98.666667
 20
-139.549191
 40
1.666667
 50
0.000000
 51
180.000000
  0
LINE
  8
A-POWR-0
 10
-103.666667
 20
-137.882524
 11
-103.666667
 21
-141.549191
  0
ARC
  8
A-POWR-0
 10
-102.000000
 20
-141.549191
 40
1.666667
 50
180.000000
 51
0.000000
  0
LINE
  8
A-POWR-0
 10
-192.010071
 20
-474.333333
 11
-192.010071
 21
-472.000000
  0
LINE
  8
A-POWR-0
 10
-192.010071
 20
-481.000000
 11
-192.010071
 21
-483.333333
  0
LINE
  8
A-POWR-0
 10
-188.676737
 20
-477.666667
 11
-186.343404
 21
-477.666667
  0
LINE
  8
A-POWR-0
 10
-195.343404
 20
-477.666667
 11
-197.676737
 21
-477.666667
  0
CIRCLE
  8
A-POWR-0
 10
-192.010071
 20
-477.666667
 40
3.333333
  0
LINE
  8
A-POWR-0
 10
194.654028
 20
-419.000000
 11
194.654028
 21
-430.333333
  0
LINE
  8
A-POWR-0
 10
195.654028
 20
-424.666667
 11
193.654028
 21
-424.666667
  0
LINE
  8
A-POWR-0
 10
191.987361
 20
-428.000000
 11
195.654028
 21
-428.000000
  0
ARC
  8
A-POWR-0
 10
195.654028
 20
-426.333333
 40
1.666667
 50
270.000000
 51
90.000000
  0
LINE
  8
A-POWR-0
 10
197.320695
 20
-421.333333
 11
193.654028
 21
-421.333333
  0
ARC
  8
A-POWR-0
 10
193.654028
 20
-423.000000
 40
1.666667
 50
90.000000
 51
270.000000
  0
LINE
  8
A-POWR-0
 10
30.000000
 20
-506.160801
 11
41.333333
 21
-506.160801
  0
LINE
  8
A-POWR-0
 10
35.666667
 20
-505.160801
 11
35.666667
 21
-507.160801
  0
LINE
  8
A-POWR-0
 10
39.000000
 20
-508.827468
 11
39.000000
 21
-505.160801
  0
ARC
  8
A-POWR-0
 10
37.333333
 20
-505.160801
 40
1.666667
 50
0.000000
 51
180.000000
  0
LINE
  8
A-POWR-0
 10
32.333333
 20
-503.494134
 11
32.333333
 21
-507.160801
  0
ARC
  8
A-POWR-0
 10
34.000000
 20
-507.160801
 40
1.666667
 50
180.000000
 51
0.000000
  0
LINE
  8
A-POWR-0
 10
-263.666667
 20
-527.564171
 11
-266.000000
 21
-527.564171
  0
LINE
  8
A-POWR-0
 10
-257.000000
 20
-527.564171
 11
-254.666667
 21
-527.564171
  0
LINE
  8
A-POWR-0
 10
-260.333333
 20
-530.897504
 11
-260.333333
 21
-533.230838
  0
LINE
  8
A-POWR-0
 10
-260.333333
 20
-524.230838
 11
-260.333333
 21
-521.897504
  0
CIRCLE
  8
A-POWR-0
 10
-260.333333
 20
-527.564171
 40
3.333333
  0
ARC
  8
A-POWR-0
 10
-251.499955
 20
-464.389135
 40
63.180532
 50
269.244222
 51
340.319578
  0
LINE
  8
A-POWR-0
 10
47.637466
 20
-269.333333
 11
47.637466
 21
-267.000000
  0
LINE
  8
A-POWR-0
 10
47.637466
 20
-276.000000
 11
47.637466
 21
-278.333333
  0
LINE
  8
A-POWR-0
 10
44.304133
 20
-272.666667
 11
41.970800
 21
-272.666667
  0
LINE
  8
A-POWR-0
 10
50.970800
 20
-272.666667
 11
53.304133
 21
-272.666667
  0
CIRCLE
  8
A-POWR-0
 10
47.637466
 20
-272.666667
 40
3.333333
  0
LINE
  8
A-POWR-0
 10
-155.080948
 20
-606.000000
 11
-155.080948
 21
-617.333333
  0
LINE
  8
A-POWR-0
 10
-154.080948
 20
-611.666667
 11
-156.080948
 21
-611.666667
  0
LINE
  8
A-POWR-0
 10
-157.747615
 20
-615.000000
 11
-154.080948
 21
-615.000000
  0
ARC
  8
A-POWR-0
 10
-154.080948
 20
-613.333333
 40
1.666667
 50
270.000000
 51
90.000000
  0
LINE
  8
A-POWR-0
 10
-152.414281
 20
-608.333333
 11
-156.080948
 21
-608.333333
  0
ARC
  8
A-POWR-0
 10
-156.080948
 20
-610.000000
 40
1.666667
 50
90.000000
 51
270.000000
  0
LINE
  8
A-POWR-0
 10
-209.904694
 20
-599.666667
 11
-209.904694
 21
-602.000000
  0
LINE
  8
A-POWR-0
 10
-209.904694
 20
-593.000000
 11
-209.904694
 21
-590.666667
  0
LINE
  8
A-POWR-0
 10
-206.571360
 20
-596.333333
 11
-204.238027
 21
-596.333333
  0
LINE
  8
A-POWR-0
 10
-213.238027
 20
-596.333333
 11
-215.571360
 21
-596.333333
  0
CIRCLE
  8
A-POWR-0
 10
-209.904694
 20
-596.333333
 40
3.333333
  0
ARC
  8
A-POWR-0
 10
-273.657427
 20
-587.648800
 40
63.756408
 50
359.384821
 51
70.460176
  0
INSERT
  8
A-CASE-0
  2
FIXT-Toilet
 10
7.913734
 20
-296.980636
 41
1.000000
 42
1.071429
 43
 1.0
 50
0.000000
  0
INSERT
  8
A-CASE-0
  2
FIXT-WaterHG
 10
108.799212
 20
-456.263781
 41
1.000000
 42
1.000000
 43
 1.0
 50
0.000000
  0
INSERT
  8
A-CASE-0
  2
FIXT-FrnG2920
 10
71.865321
 20
-470.496873
 41
1.318182
 42
1.344828
 43
 1.0
 50
0.000000
  0
LINE
  8
A-CASE-0
 10
30.000000
 20
-291.000000
 11
30.000000
 21
-267.000000
  0
LINE
  8
A-CASE-0
 10
66.000000
 20
-291.000000
 11
30.000000
 21
-291.000000
  0
INSERT
  8
A-CASE-0
  2
FIXT-OvalBath
 10
48.000000
 20
-295.983894
 41
1.000000
 42
1.000000
 43
 1.0
 50
0.000000
  0
LINE
  8
A-CASE-0
 10
-47.000000
 20
-337.000000
 11
-80.000000
 21
-337.000000
  0
INSERT
  8
A-CASE-0
  2
FIXT-Shwr60
 10
-47.014040
 20
-302.000000
 41
1.166667
 42
1.000000
 43
 1.0
 50
-270.000000
  0
LINE
  8
A-CASE-0
 10
152.000000
 20
-419.000000
 11
152.000000
 21
-493.000000
  0
LINE
  8
A-CASE-0
 10
200.000000
 20
-493.000000
 11
200.000000
 21
-419.000000
  0
LINE
  8
A-CASE-0
 10
-14.590470
 20
-267.000000
 11
-14.590470
 21
-284.000000
  0
LINE
  8
A-CASE-0
 10
-44.590470
 20
-284.000000
 11
-44.590470
 21
-267.000000
  0
LINE
  8
A-CASE-0
 10
-14.590470
 20
-284.000000
 11
-44.590470
 21
-284.000000
  0
LINE
  8
A-CASE-0
 10
-24.590470
 20
-279.000000
 11
-29.590470
 21
-284.000000
  0
LINE
  8
A-CASE-0
 10
-34.590470
 20
-279.000000
 11
-29.590470
 21
-284.000000
  0
TEXT
  8
A-NOTE-0
 10
-24.436198
 20
-440.555336
 40
7.113088
  1
ELEVATOR
  7
STANDARD
  0
TEXT
  8
A-NOTE-0
 10
-14.222132
 20
-450.469650
 40
5.288379
  1
5'10 x 4'10
  7
STANDARD
  0
TEXT
  8
A-NOTE-0
 10
-188.640769
 20
-543.050792
 40
7.113088
  1
LOBBY
  7
STANDARD
  0
TEXT
  8
A-NOTE-0
 10
-189.415504
 20
-552.965106
 40
5.288379
  1
21' x 10'10
  7
STANDARD
  0
TEXT
  8
A-NOTE-0
 10
-248.112431
 20
-442.210315
 40
7.113088
  1
RECREATION ROOM
  7
STANDARD
  0
TEXT
  8
A-NOTE-0
 10
-213.173568
 20
-452.124629
 40
5.288379
  1
27'4 x 16'9
  7
STANDARD
  0
TEXT
  8
A-NOTE-0
 10
114.761151
 20
-306.488126
 40
7.113088
  1
BEDROOM
  7
STANDARD
  0
TEXT
  8
A-NOTE-0
 10
124.005616
 20
-316.402439
 40
5.288379
  1
12'4 x 12'4
  7
STANDARD
  0
TEXT
  8
A-NOTE-0
 10
-31.775291
 20
-320.584236
 40
7.113088
  1
BATH
  7
STANDARD
  0
TEXT
  8
A-NOTE-0
 10
-35.782026
 20
-330.498549
 40
5.288379
  1
12'2 x 5'10
  7
STANDARD
  0
TEXT
  8
A-NOTE-0
 10
155.930654
 20
-470.999450
 40
7.113088
  1
CLOSET
  7
STANDARD
  0
TEXT
  8
A-NOTE-0
 10
165.524601
 20
-480.913763
 40
5.288379
  1
7' x 6'2
  7
STANDARD
  0
TEXT
  8
A-NOTE-0
 10
117.451623
 20
-829.179872
 40
9.653477
  1
LIVING AREA
  7
STANDARD
  0
TEXT
  8
A-NOTE-0
 10
137.755295
 20
-842.133509
 40
7.211426
  1
1762 sq ft
  7
STANDARD
  0
TEXT
  8
A-NOTE-0
 10
175.279326
 20
-510.162782
 40
7.113088
  1
UTILITY
  7
STANDARD
  0
TEXT
  8
A-NOTE-0
 10
181.093847
 20
-520.077095
 40
5.288379
  1
16' x 12'
  7
STANDARD
  0
TEXT
  8
A-NOTE-0
 10
-208.018505
 20
-657.292399
 40
7.113088
  1
STORAGE
  7
STANDARD
  0
TEXT
  8
A-NOTE-0
 10
-200.066841
 20
-667.206713
 40
5.288379
  1
22'8 x 15'5
  7
STANDARD
  0
TEXT
  8
A-NOTE-0
 10
-70.797973
 20
-128.889525
 40
7.113088
  1
OUTSIDE STORAGE
  7
STANDARD
  0
TEXT
  8
A-NOTE-0
 10
-37.475106
 20
-138.803839
 40
5.288379
  1
25'4 x 12'8
  7
STANDARD
  0
TEXT
  8
A-NOTE-0
 10
-115.014503
 20
-321.529199
 40
4.572699
  1
CLOSET
  7
STANDARD
  0
TEXT
  8
A-NOTE-0
 10
-111.906953
 20
-327.641990
 40
3.365332
  1
2'2 x 5'10
  7
STANDARD
  0
TEXT
  8
A-TEXT-0
 10
-148.834499
 20
-752.526255
 40
8.129243
  1
UNEXCAVATED
  7
STANDARD
  0
TEXT
  8
A-TEXT-0
 10
51.531167
 20
-698.886935
 40
8.129243
  1
UNEXCAVATED
  7
STANDARD
  0
TEXT
  8
A-TEXT-0
 10
-241.686932
 20
-242.187110
 40
3.556544
  1
L011
  7
STANDARD
  0
TEXT
  8
A-TEXT-0
 10
-72.916121
 20
-373.765184
 40
3.556544
  1
L004
  7
STANDARD
  0
TEXT
  8
A-TEXT-0
 10
-140.985845
 20
-411.308795
 40
3.556544
  1
L009
  7
STANDARD
  0
TEXT
  8
A-TEXT-0
 10
-203.570832
 20
-597.789551
 40
3.556544
  1
L001
  7
STANDARD
  0
TEXT
  8
A-TEXT-0
 10
-391.124536
 20
-56.468303
 40
7.113088
  1
Strang / Smith 2/4/2001
  7
STANDARD
  0
TEXT
  8
A-TEXT-0
 10
-78.153842
 20
-277.582189
 40
4.572699
  1
Seat Here
  7
STANDARD
  0
TEXT
  8
A-TEXT-0
 10
-42.346593
 20
-278.103287
 40
4.572699
  1
Seat Here
  7
STANDARD
  0
TEXT
  8
A-TEXT-0
 10
150.942043
 20
-342.803167
 40
3.556544
  1
L005
  7
STANDARD
  0
TEXT
  8
A-TEXT-0
 10
-119.203969
 20
-538.412783
 40
3.556544
  1
L003
  7
STANDARD
  0
TEXT
  8
A-TEXT-0
 10
42.521710
 20
-284.292094
 40
3.556544
  1
L007
  7
STANDARD
  0
TEXT
  8
A-TEXT-0
 10
2.872850
 20
-309.905959
 40
3.556544
  1
L006
  7
STANDARD
  0
TEXT
  8
A-TEXT-0
 10
-20.635766
 20
-304.291961
 40
3.556544
  1
L008
  7
STANDARD
  0
LINE
  8
A-DIMS-0
 10
-172.796256
 20
-799.000000
 11
0.203744
 21
-799.000000
  0
LINE
  8
A-DIMS-0
 10
-1.296256
 20
-796.000000
 11
-2.796256
 21
-799.000000
  0
LINE
  8
A-DIMS-0
 10
-32.796256
 20
-771.000000
 11
0.203744
 21
-771.000000
  0
LINE
  8
A-DIMS-0
 10
-1.296256
 20
-768.000000
 11
-2.796256
 21
-771.000000
  0
LINE
  8
A-DIMS-0
 10
-4.296256
 20
-774.000000
 11
-2.796256
 21
-771.000000
  0
LINE
  8
A-DIMS-0
 10
-2.796256
 20
-793.239054
 11
-2.796256
 21
-799.000000
  0
LINE
  8
A-DIMS-0
 10
-2.796256
 20
-776.760946
 11
-2.796256
 21
-771.000000
  0
TEXT
  8
A-DIMS-0
 10
-0.173919
 20
-790.506907
 40
5.487240
  1
2'4
 50
90.000000
  7
STANDARD
  0
LINE
  8
A-DIMS-0
 10
-32.796256
 20
-727.000000
 11
0.203744
 21
-727.000000
  0
LINE
  8
A-DIMS-0
 10
-1.296256
 20
-724.000000
 11
-2.796256
 21
-727.000000
  0
LINE
  8
A-DIMS-0
 10
-4.296256
 20
-730.000000
 11
-2.796256
 21
-727.000000
  0
LINE
  8
A-DIMS-0
 10
-2.796256
 20
-757.239054
 11
-2.796256
 21
-771.000000
  0
LINE
  8
A-DIMS-0
 10
-2.796256
 20
-740.760946
 11
-2.796256
 21
-727.000000
  0
TEXT
  8
A-DIMS-0
 10
-0.173919
 20
-754.506907
 40
5.487240
  1
3'8
 50
90.000000
  7
STANDARD
  0
LINE
  8
A-DIMS-0
 10
-34.796256
 20
-604.000000
 11
0.203744
 21
-604.000000
  0
LINE
  8
A-DIMS-0
 10
-1.296256
 20
-601.000000
 11
-2.796256
 21
-604.000000
  0
LINE
  8
A-DIMS-0
 10
-4.296256
 20
-607.000000
 11
-2.796256
 21
-604.000000
  0
LINE
  8
A-DIMS-0
 10
-2.796256
 20
-676.099157
 11
-2.796256
 21
-727.000000
  0
LINE
  8
A-DIMS-0
 10
-2.796256
 20
-654.900843
 11
-2.796256
 21
-604.000000
  0
TEXT
  8
A-DIMS-0
 10
-0.173919
 20
-673.367010
 40
5.487240
  1
10'3
 50
90.000000
  7
STANDARD
  0
LINE
  8
A-DIMS-0
 10
-4.296256
 20
-574.000000
 11
-2.796256
 21
-571.000000
  0
LINE
  8
A-DIMS-0
 10
-2.796256
 20
-595.739054
 11
-2.796256
 21
-604.000000
  0
LINE
  8
A-DIMS-0
 10
-2.796256
 20
-579.260946
 11
-2.796256
 21
-571.000000
  0
TEXT
  8
A-DIMS-0
 10
-0.173919
 20
-593.006907
 40
5.487240
  1
2'9
 50
90.000000
  7
STANDARD
  0
LINE
  8
A-DIMS-0
 10
286.203744
 20
-570.999993
 11
302.203744
 21
-570.999993
  0
LINE
  8
A-DIMS-0
 10
300.703744
 20
-567.999993
 11
299.203744
 21
-570.999993
  0
LINE
  8
A-DIMS-0
 10
286.203744
 20
-94.999993
 11
302.203744
 21
-94.999993
  0
LINE
  8
A-DIMS-0
 10
297.703744
 20
-97.999993
 11
299.203744
 21
-94.999993
  0
LINE
  8
A-DIMS-0
 10
299.203744
 20
-343.599149
 11
299.203744
 21
-570.999993
  0
LINE
  8
A-DIMS-0
 10
299.203744
 20
-322.400836
 11
299.203744
 21
-94.999993
  0
TEXT
  8
A-DIMS-0
 10
301.826081
 20
-340.867002
 40
5.487240
  1
39'8
 50
90.000000
  7
STANDARD
  0
LINE
  8
A-DIMS-0
 10
231.203744
 20
-570.999993
 11
284.203744
 21
-570.999993
  0
LINE
  8
A-DIMS-0
 10
282.703744
 20
-567.999993
 11
281.203744
 21
-570.999993
  0
LINE
  8
A-DIMS-0
 10
231.203744
 20
-495.000008
 11
284.203744
 21
-495.000008
  0
LINE
  8
A-DIMS-0
 10
282.703744
 20
-492.000008
 11
281.203744
 21
-495.000008
  0
LINE
  8
A-DIMS-0
 10
279.703744
 20
-498.000008
 11
281.203744
 21
-495.000008
  0
LINE
  8
A-DIMS-0
 10
281.203744
 20
-541.239054
 11
281.203744
 21
-570.999993
  0
LINE
  8
A-DIMS-0
 10
281.203744
 20
-524.760947
 11
281.203744
 21
-495.000008
  0
TEXT
  8
A-DIMS-0
 10
283.826081
 20
-538.506907
 40
5.487240
  1
6'4
 50
90.000000
  7
STANDARD
  0
LINE
  8
A-DIMS-0
 10
268.203744
 20
-417.000008
 11
284.203744
 21
-417.000008
  0
LINE
  8
A-DIMS-0
 10
282.703744
 20
-414.000008
 11
281.203744
 21
-417.000008
  0
LINE
  8
A-DIMS-0
 10
279.703744
 20
-420.000008
 11
281.203744
 21
-417.000008
  0
LINE
  8
A-DIMS-0
 10
281.203744
 20
-464.239062
 11
281.203744
 21
-495.000008
  0
LINE
  8
A-DIMS-0
 10
281.203744
 20
-447.760954
 11
281.203744
 21
-417.000008
  0
TEXT
  8
A-DIMS-0
 10
283.826081
 20
-461.506915
 40
5.487240
  1
6'6
 50
90.000000
  7
STANDARD
  0
LINE
  8
A-DIMS-0
 10
268.203744
 20
-254.999993
 11
284.203744
 21
-254.999993
  0
LINE
  8
A-DIMS-0
 10
282.703744
 20
-251.999993
 11
281.203744
 21
-254.999993
  0
LINE
  8
A-DIMS-0
 10
279.703744
 20
-257.999993
 11
281.203744
 21
-254.999993
  0
LINE
  8
A-DIMS-0
 10
281.203744
 20
-346.599157
 11
281.203744
 21
-417.000008
  0
LINE
  8
A-DIMS-0
 10
281.203744
 20
-325.400844
 11
281.203744
 21
-254.999993
  0
TEXT
  8
A-DIMS-0
 10
283.826081
 20
-343.867010
 40
5.487240
  1
13'6
 50
90.000000
  7
STANDARD
  0
LINE
  8
A-DIMS-0
 10
207.203744
 20
-170.999993
 11
284.203744
 21
-170.999993
  0
LINE
  8
A-DIMS-0
 10
282.703744
 20
-167.999993
 11
281.203744
 21
-170.999993
  0
LINE
  8
A-DIMS-0
 10
279.703744
 20
-173.999993
 11
281.203744
 21
-170.999993
  0
LINE
  8
A-DIMS-0
 10
281.203744
 20
-218.878944
 11
281.203744
 21
-254.999993
  0
LINE
  8
A-DIMS-0
 10
281.203744
 20
-207.121042
 11
281.203744
 21
-170.999993
  0
TEXT
  8
A-DIMS-0
 10
283.826081
 20
-216.146797
 40
5.487240
  1
7'
 50
90.000000
  7
STANDARD
  0
LINE
  8
A-DIMS-0
 10
75.203744
 20
-94.999993
 11
284.203744
 21
-94.999993
  0
LINE
  8
A-DIMS-0
 10
279.703744
 20
-97.999993
 11
281.203744
 21
-94.999993
  0
LINE
  8
A-DIMS-0
 10
281.203744
 20
-141.239046
 11
281.203744
 21
-170.999993
  0
LINE
  8
A-DIMS-0
 10
281.203744
 20
-124.760939
 11
281.203744
 21
-94.999993
  0
TEXT
  8
A-DIMS-0
 10
283.826081
 20
-138.506900
 40
5.487240
  1
6'4
 50
90.000000
  7
STANDARD
  0
LINE
  8
A-DIMS-0
 10
231.203744
 20
-417.000008
 11
266.203744
 21
-417.000008
  0
LINE
  8
A-DIMS-0
 10
264.703744
 20
-414.000008
 11
263.203744
 21
-417.000008
  0
LINE
  8
A-DIMS-0
 10
240.203744
 20
-294.999993
 11
266.203744
 21
-294.999993
  0
LINE
  8
A-DIMS-0
 10
264.703744
 20
-291.999993
 11
263.203744
 21
-294.999993
  0
LINE
  8
A-DIMS-0
 10
261.703744
 20
-297.999993
 11
263.203744
 21
-294.999993
  0
LINE
  8
A-DIMS-0
 10
263.203744
 20
-366.599157
 11
263.203744
 21
-417.000008
  0
LINE
  8
A-DIMS-0
 10
263.203744
 20
-345.400844
 11
263.203744
 21
-294.999993
  0
TEXT
  8
A-DIMS-0
 10
265.826081
 20
-363.867010
 40
5.487240
  1
10'2
 50
90.000000
  7
STANDARD
  0
LINE
  8
A-DIMS-0
 10
231.203744
 20
-254.999993
 11
266.203744
 21
-254.999993
  0
LINE
  8
A-DIMS-0
 10
261.703744
 20
-257.999993
 11
263.203744
 21
-254.999993
  0
LINE
  8
A-DIMS-0
 10
263.203744
 20
-283.239046
 11
263.203744
 21
-294.999993
  0
LINE
  8
A-DIMS-0
 10
263.203744
 20
-266.760939
 11
263.203744
 21
-254.999993
  0
TEXT
  8
A-DIMS-0
 10
265.826081
 20
-280.506900
 40
5.487240
  1
3'4
 50
90.000000
  7
STANDARD
  0
LINE
  8
A-DIMS-0
 10
-31.000000
 20
-603.591072
 11
-34.000000
 21
-602.091072
  0
LINE
  8
A-DIMS-0
 10
28.000000
 20
-570.091072
 11
28.000000
 21
-605.091072
  0
LINE
  8
A-DIMS-0
 10
31.000000
 20
-603.591072
 11
28.000000
 21
-602.091072
  0
LINE
  8
A-DIMS-0
 10
25.000000
 20
-600.591072
 11
28.000000
 21
-602.091072
  0
LINE
  8
A-DIMS-0
 10
-11.239054
 20
-602.091072
 11
-34.000000
 21
-602.091072
  0
LINE
  8
A-DIMS-0
 10
5.239054
 20
-602.091072
 11
28.000000
 21
-602.091072
  0
TEXT
  8
A-DIMS-0
 10
-8.506907
 20
-604.713409
 40
5.487240
  1
5'2
  7
STANDARD
  0
LINE
  8
A-DIMS-0
 10
226.000000
 20
-599.091072
 11
226.000000
 21
-605.091072
  0
LINE
  8
A-DIMS-0
 10
223.000000
 20
-600.591072
 11
226.000000
 21
-602.091072
  0
LINE
  8
A-DIMS-0
 10
116.400843
 20
-602.091072
 11
28.000000
 21
-602.091072
  0
LINE
  8
A-DIMS-0
 10
137.599157
 20
-602.091072
 11
226.000000
 21
-602.091072
  0
TEXT
  8
A-DIMS-0
 10
119.132990
 20
-604.713409
 40
5.487240
  1
16'6
  7
STANDARD
  0
LINE
  8
A-DIMS-0
 10
-322.000000
 20
-837.091072
 11
-322.000000
 21
-853.091072
  0
LINE
  8
A-DIMS-0
 10
-319.000000
 20
-851.591072
 11
-322.000000
 21
-850.091072
  0
LINE
  8
A-DIMS-0
 10
226.000000
 20
-812.091072
 11
226.000000
 21
-853.091072
  0
LINE
  8
A-DIMS-0
 10
223.000000
 20
-848.591072
 11
226.000000
 21
-850.091072
  0
LINE
  8
A-DIMS-0
 10
-58.599157
 20
-850.091072
 11
-322.000000
 21
-850.091072
  0
LINE
  8
A-DIMS-0
 10
-37.400843
 20
-850.091072
 11
226.000000
 21
-850.091072
  0
TEXT
  8
A-DIMS-0
 10
-55.867010
 20
-852.713409
 40
5.487240
  1
45'8
  7
STANDARD
  0
LINE
  8
A-DIMS-0
 10
-322.000000
 20
-800.091072
 11
-322.000000
 21
-835.091072
  0
LINE
  8
A-DIMS-0
 10
-319.000000
 20
-833.591072
 11
-322.000000
 21
-832.091072
  0
LINE
  8
A-DIMS-0
 10
-174.000000
 20
-800.091072
 11
-174.000000
 21
-835.091072
  0
LINE
  8
A-DIMS-0
 10
-171.000000
 20
-833.591072
 11
-174.000000
 21
-832.091072
  0
LINE
  8
A-DIMS-0
 10
-177.000000
 20
-830.591072
 11
-174.000000
 21
-832.091072
  0
LINE
  8
A-DIMS-0
 10
-258.599157
 20
-832.091072
 11
-322.000000
 21
-832.091072
  0
LINE
  8
A-DIMS-0
 10
-237.400843
 20
-832.091072
 11
-174.000000
 21
-832.091072
  0
TEXT
  8
A-DIMS-0
 10
-255.867010
 20
-834.713409
 40
5.487240
  1
12'4
  7
STANDARD
  0
LINE
  8
A-DIMS-0
 10
-34.000000
 20
-728.091072
 11
-34.000000
 21
-835.091072
  0
LINE
  8
A-DIMS-0
 10
-37.000000
 20
-830.591072
 11
-34.000000
 21
-832.091072
  0
LINE
  8
A-DIMS-0
 10
-114.599157
 20
-832.091072
 11
-174.000000
 21
-832.091072
  0
LINE
  8
A-DIMS-0
 10
-93.400843
 20
-832.091072
 11
-34.000000
 21
-832.091072
  0
TEXT
  8
A-DIMS-0
 10
-111.867010
 20
-834.713409
 40
5.487240
  1
11'8
  7
STANDARD
  0
LINE
  8
A-DIMS-0
 10
-277.000000
 20
-568.591072
 11
-274.000000
 21
-570.091072
  0
LINE
  8
A-DIMS-0
 10
-286.046688
 20
-599.091072
 11
-286.046688
 21
-567.091072
  0
LINE
  8
A-DIMS-0
 10
-283.046688
 20
-571.591072
 11
-286.046688
 21
-570.091072
  0
LINE
  8
A-DIMS-0
 10
-274.144393
 20
-570.091072
 11
-274.000000
 21
-570.091072
  0
LINE
  8
A-DIMS-0
 10
-285.902295
 20
-570.091072
 11
-286.046688
 21
-570.091072
  0
TEXT
  8
A-DIMS-0
 10
-283.170148
 20
-572.713409
 40
5.487240
  1
1'
  7
STANDARD
  0
LINE
  8
A-DIMS-0
 10
230.000000
 20
-38.091072
 11
230.000000
 21
-22.091072
  0
LINE
  8
A-DIMS-0
 10
227.000000
 20
-23.591072
 11
230.000000
 21
-25.091072
  0
LINE
  8
A-DIMS-0
 10
-274.000000
 20
-38.091072
 11
-274.000000
 21
-22.091072
  0
LINE
  8
A-DIMS-0
 10
-271.000000
 20
-26.591072
 11
-274.000000
 21
-25.091072
  0
LINE
  8
A-DIMS-0
 10
-13.760946
 20
-25.091072
 11
230.000000
 21
-25.091072
  0
LINE
  8
A-DIMS-0
 10
-30.239054
 20
-25.091072
 11
-274.000000
 21
-25.091072
  0
TEXT
  8
A-DIMS-0
 10
-27.506907
 20
-27.713409
 40
5.487240
  1
42'
  7
STANDARD
  0
LINE
  8
A-DIMS-0
 10
230.000000
 20
-255.091072
 11
230.000000
 21
-40.091072
  0
LINE
  8
A-DIMS-0
 10
227.000000
 20
-41.591072
 11
230.000000
 21
-43.091072
  0
LINE
  8
A-DIMS-0
 10
206.000000
 20
-169.091072
 11
206.000000
 21
-40.091072
  0
LINE
  8
A-DIMS-0
 10
203.000000
 20
-41.591072
 11
206.000000
 21
-43.091072
  0
LINE
  8
A-DIMS-0
 10
209.000000
 20
-44.591072
 11
206.000000
 21
-43.091072
  0
LINE
  8
A-DIMS-0
 10
223.878951
 20
-43.091072
 11
230.000000
 21
-43.091072
  0
LINE
  8
A-DIMS-0
 10
212.121049
 20
-43.091072
 11
206.000000
 21
-43.091072
  0
TEXT
  8
A-DIMS-0
 10
214.853196
 20
-45.713409
 40
5.487240
  1
2'
  7
STANDARD
  0
LINE
  8
A-DIMS-0
 10
74.000000
 20
-93.091072
 11
74.000000
 21
-40.091072
  0
LINE
  8
A-DIMS-0
 10
71.000000
 20
-41.591072
 11
74.000000
 21
-43.091072
  0
LINE
  8
A-DIMS-0
 10
77.000000
 20
-44.591072
 11
74.000000
 21
-43.091072
  0
LINE
  8
A-DIMS-0
 10
148.239054
 20
-43.091072
 11
206.000000
 21
-43.091072
  0
LINE
  8
A-DIMS-0
 10
131.760946
 20
-43.091072
 11
74.000000
 21
-43.091072
  0
TEXT
  8
A-DIMS-0
 10
134.493093
 20
-45.713409
 40
5.487240
  1
11'
  7
STANDARD
  0
LINE
  8
A-DIMS-0
 10
-114.000000
 20
-56.091072
 11
-114.000000
 21
-40.091072
  0
LINE
  8
A-DIMS-0
 10
-117.000000
 20
-41.591072
 11
-114.000000
 21
-43.091072
  0
LINE
  8
A-DIMS-0
 10
-111.000000
 20
-44.591072
 11
-114.000000
 21
-43.091072
  0
LINE
  8
A-DIMS-0
 10
-9.400843
 20
-43.091072
 11
74.000000
 21
-43.091072
  0
LINE
  8
A-DIMS-0
 10
-30.599157
 20
-43.091072
 11
-114.000000
 21
-43.091072
  0
TEXT
  8
A-DIMS-0
 10
-27.867010
 20
-45.713409
 40
5.487240
  1
15'8
  7
STANDARD
  0
LINE
  8
A-DIMS-0
 10
-274.000000
 20
-56.091072
 11
-274.000000
 21
-40.091072
  0
LINE
  8
A-DIMS-0
 10
-271.000000
 20
-44.591072
 11
-274.000000
 21
-43.091072
  0
LINE
  8
A-DIMS-0
 10
-183.400843
 20
-43.091072
 11
-114.000000
 21
-43.091072
  0
LINE
  8
A-DIMS-0
 10
-204.599157
 20
-43.091072
 11
-274.000000
 21
-43.091072
  0
TEXT
  8
A-DIMS-0
 10
-201.867010
 20
-45.713409
 40
5.487240
  1
13'4
  7
STANDARD
  0
LINE
  8
A-DIMS-0
 10
-114.000000
 20
-93.091072
 11
-114.000000
 21
-58.091072
  0
LINE
  8
A-DIMS-0
 10
-117.000000
 20
-59.591072
 11
-114.000000
 21
-61.091072
  0
LINE
  8
A-DIMS-0
 10
-188.000000
 20
-246.091072
 11
-188.000000
 21
-58.091072
  0
LINE
  8
A-DIMS-0
 10
-191.000000
 20
-59.591072
 11
-188.000000
 21
-61.091072
  0
LINE
  8
A-DIMS-0
 10
-185.000000
 20
-62.591072
 11
-188.000000
 21
-61.091072
  0
LINE
  8
A-DIMS-0
 10
-142.760946
 20
-61.091072
 11
-114.000000
 21
-61.091072
  0
LINE
  8
A-DIMS-0
 10
-159.239054
 20
-61.091072
 11
-188.000000
 21
-61.091072
  0
TEXT
  8
A-DIMS-0
 10
-156.506907
 20
-63.713409
 40
5.487240
  1
6'2
  7
STANDARD
  0
LINE
  8
A-DIMS-0
 10
-274.000000
 20
-255.091072
 11
-274.000000
 21
-58.091072
  0
LINE
  8
A-DIMS-0
 10
-271.000000
 20
-62.591072
 11
-274.000000
 21
-61.091072
  0
LINE
  8
A-DIMS-0
 10
-222.760946
 20
-61.091072
 11
-188.000000
 21
-61.091072
  0
LINE
  8
A-DIMS-0
 10
-239.239054
 20
-61.091072
 11
-274.000000
 21
-61.091072
  0
TEXT
  8
A-DIMS-0
 10
-236.506907
 20
-63.713409
 40
5.487240
  1
7'2
  7
STANDARD
  0
LINE
  8
A-DIMS-0
 10
-152.796256
 20
-95.000000
 11
-168.796256
 21
-95.000000
  0
LINE
  8
A-DIMS-0
 10
-167.296256
 20
-98.000000
 11
-165.796256
 21
-95.000000
  0
LINE
  8
A-DIMS-0
 10
-152.796256
 20
-261.000000
 11
-168.796256
 21
-261.000000
  0
LINE
  8
A-DIMS-0
 10
-164.296256
 20
-258.000000
 11
-165.796256
 21
-261.000000
  0
LINE
  8
A-DIMS-0
 10
-165.796256
 20
-165.040740
 11
-165.796256
 21
-95.000000
  0
LINE
  8
A-DIMS-0
 10
-165.796256
 20
-190.959260
 11
-165.796256
 21
-261.000000
  0
TEXT
  8
A-DIMS-0
 10
-163.173919
 20
-188.227113
 40
5.487240
  1
13'10
 50
90.000000
  7
STANDARD
  0
LINE
  8
A-DIMS-0
 10
-115.796256
 20
-95.000000
 11
-150.796256
 21
-95.000000
  0
LINE
  8
A-DIMS-0
 10
-149.296256
 20
-98.000000
 11
-147.796256
 21
-95.000000
  0
LINE
  8
A-DIMS-0
 10
-124.796256
 20
-163.000000
 11
-150.796256
 21
-163.000000
  0
LINE
  8
A-DIMS-0
 10
-149.296256
 20
-166.000000
 11
-147.796256
 21
-163.000000
  0
LINE
  8
A-DIMS-0
 10
-146.296256
 20
-160.000000
 11
-147.796256
 21
-163.000000
  0
LINE
  8
A-DIMS-0
 10
-147.796256
 20
-120.760946
 11
-147.796256
 21
-95.000000
  0
LINE
  8
A-DIMS-0
 10
-147.796256
 20
-137.239054
 11
-147.796256
 21
-163.000000
  0
TEXT
  8
A-DIMS-0
 10
-145.173919
 20
-134.506907
 40
5.487240
  1
5'8
 50
90.000000
  7
STANDARD
  0
LINE
  8
A-DIMS-0
 10
-117.796256
 20
-261.000000
 11
-150.796256
 21
-261.000000
  0
LINE
  8
A-DIMS-0
 10
-146.296256
 20
-258.000000
 11
-147.796256
 21
-261.000000
  0
LINE
  8
A-DIMS-0
 10
-147.796256
 20
-203.760946
 11
-147.796256
 21
-163.000000
  0
LINE
  8
A-DIMS-0
 10
-147.796256
 20
-220.239054
 11
-147.796256
 21
-261.000000
  0
TEXT
  8
A-DIMS-0
 10
-145.173919
 20
-217.506907
 40
5.487240
  1
8'2
 50
90.000000
  7
STANDARD
  0
LINE
  8
A-DIMS-0
 10
-170.796256
 20
-95.000000
 11
-394.796256
 21
-95.000000
  0
LINE
  8
A-DIMS-0
 10
-393.296256
 20
-98.000000
 11
-391.796256
 21
-95.000000
  0
LINE
  8
A-DIMS-0
 10
-378.796256
 20
-799.000000
 11
-394.796256
 21
-799.000000
  0
LINE
  8
A-DIMS-0
 10
-390.296256
 20
-796.000000
 11
-391.796256
 21
-799.000000
  0
LINE
  8
A-DIMS-0
 10
-391.796256
 20
-436.400843
 11
-391.796256
 21
-95.000000
  0
LINE
  8
A-DIMS-0
 10
-391.796256
 20
-457.599157
 11
-391.796256
 21
-799.000000
  0
TEXT
  8
A-DIMS-0
 10
-389.173919
 20
-454.867010
 40
5.487240
  1
58'8
 50
90.000000
  7
STANDARD
  0
LINE
  8
A-DIMS-0
 10
-360.796256
 20
-254.999993
 11
-376.796256
 21
-254.999993
  0
LINE
  8
A-DIMS-0
 10
-375.296256
 20
-257.999993
 11
-373.796256
 21
-254.999993
  0
LINE
  8
A-DIMS-0
 10
-360.796256
 20
-470.000008
 11
-376.796256
 21
-470.000008
  0
LINE
  8
A-DIMS-0
 10
-375.296256
 20
-473.000008
 11
-373.796256
 21
-470.000008
  0
LINE
  8
A-DIMS-0
 10
-372.296256
 20
-467.000008
 11
-373.796256
 21
-470.000008
  0
LINE
  8
A-DIMS-0
 10
-373.796256
 20
-349.540741
 11
-373.796256
 21
-254.999993
  0
LINE
  8
A-DIMS-0
 10
-373.796256
 20
-375.459260
 11
-373.796256
 21
-470.000008
  0
TEXT
  8
A-DIMS-0
 10
-371.173919
 20
-372.727113
 40
5.487240
  1
17'11
 50
90.000000
  7
STANDARD
  0
LINE
  8
A-DIMS-0
 10
-289.796256
 20
-604.999993
 11
-376.796256
 21
-604.999993
  0
LINE
  8
A-DIMS-0
 10
-375.296256
 20
-607.999993
 11
-373.796256
 21
-604.999993
  0
LINE
  8
A-DIMS-0
 10
-372.296256
 20
-601.999993
 11
-373.796256
 21
-604.999993
  0
LINE
  8
A-DIMS-0
 10
-373.796256
 20
-526.900844
 11
-373.796256
 21
-470.000008
  0
LINE
  8
A-DIMS-0
 10
-373.796256
 20
-548.099157
 11
-373.796256
 21
-604.999993
  0
TEXT
  8
A-DIMS-0
 10
-371.173919
 20
-545.367010
 40
5.487240
  1
11'3
 50
90.000000
  7
STANDARD
  0
LINE
  8
A-DIMS-0
 10
-327.796256
 20
-640.953301
 11
-376.796256
 21
-640.953301
  0
LINE
  8
A-DIMS-0
 10
-375.296256
 20
-643.953301
 11
-373.796256
 21
-640.953301
  0
LINE
  8
A-DIMS-0
 10
-372.296256
 20
-637.953301
 11
-373.796256
 21
-640.953301
  0
LINE
  8
A-DIMS-0
 10
-373.796256
 20
-617.097696
 11
-373.796256
 21
-604.999993
  0
LINE
  8
A-DIMS-0
 10
-373.796256
 20
-628.855598
 11
-373.796256
 21
-640.953301
  0
TEXT
  8
A-DIMS-0
 10
-371.173919
 20
-626.123451
 40
5.487240
  1
3'
 50
90.000000
  7
STANDARD
  0
LINE
  8
A-DIMS-0
 10
-323.796256
 20
-798.999993
 11
-376.796256
 21
-798.999993
  0
LINE
  8
A-DIMS-0
 10
-372.296256
 20
-795.999993
 11
-373.796256
 21
-798.999993
  0
LINE
  8
A-DIMS-0
 10
-373.796256
 20
-709.377490
 11
-373.796256
 21
-640.953301
  0
LINE
  8
A-DIMS-0
 10
-373.796256
 20
-730.575803
 11
-373.796256
 21
-798.999993
  0
TEXT
  8
A-DIMS-0
 10
-371.173919
 20
-727.843657
 40
5.487240
  1
13'2
 50
90.000000
  7
STANDARD
  0
LINE
  8
A-DIMS-0
 10
-277.796256
 20
-254.999993
 11
-358.796256
 21
-254.999993
  0
LINE
  8
A-DIMS-0
 10
-357.296256
 20
-257.999993
 11
-355.796256
 21
-254.999993
  0
LINE
  8
A-DIMS-0
 10
-286.796256
 20
-295.999993
 11
-358.796256
 21
-295.999993
  0
LINE
  8
A-DIMS-0
 10
-357.296256
 20
-298.999993
 11
-355.796256
 21
-295.999993
  0
LINE
  8
A-DIMS-0
 10
-354.296256
 20
-292.999993
 11
-355.796256
 21
-295.999993
  0
LINE
  8
A-DIMS-0
 10
-355.796256
 20
-267.260939
 11
-355.796256
 21
-254.999993
  0
LINE
  8
A-DIMS-0
 10
-355.796256
 20
-283.739046
 11
-355.796256
 21
-295.999993
  0
TEXT
  8
A-DIMS-0
 10
-353.173919
 20
-281.006900
 40
5.487240
  1
3'5
 50
90.000000
  7
STANDARD
  0
LINE
  8
A-DIMS-0
 10
-286.796256
 20
-432.000008
 11
-358.796256
 21
-432.000008
  0
LINE
  8
A-DIMS-0
 10
-357.296256
 20
-435.000008
 11
-355.796256
 21
-432.000008
  0
LINE
  8
A-DIMS-0
 10
-354.296256
 20
-429.000008
 11
-355.796256
 21
-432.000008
  0
LINE
  8
A-DIMS-0
 10
-355.796256
 20
-353.400844
 11
-355.796256
 21
-295.999993
  0
LINE
  8
A-DIMS-0
 10
-355.796256
 20
-374.599157
 11
-355.796256
 21
-432.000008
  0
TEXT
  8
A-DIMS-0
 10
-353.173919
 20
-371.867010
 40
5.487240
  1
11'4
 50
90.000000
  7
STANDARD
  0
LINE
  8
A-DIMS-0
 10
-277.796256
 20
-470.000008
 11
-358.796256
 21
-470.000008
  0
LINE
  8
A-DIMS-0
 10
-354.296256
 20
-467.000008
 11
-355.796256
 21
-470.000008
  0
LINE
  8
A-DIMS-0
 10
-355.796256
 20
-442.760954
 11
-355.796256
 21
-432.000008
  0
LINE
  8
A-DIMS-0
 10
-355.796256
 20
-459.239062
 11
-355.796256
 21
-470.000008
  0
TEXT
  8
A-DIMS-0
 10
-353.173919
 20
-456.506915
 40
5.487240
  1
3'2
 50
90.000000
  7
STANDARD
  0
LINE
  8
A-DIMS-0
 10
-290.024897
 20
-601.023249
 11
-311.945207
 21
-579.102939
  0
LINE
  8
A-DIMS-0
 10
-313.005868
 20
-582.284919
 11
-309.823887
 21
-581.224259
  0
LINE
  8
A-DIMS-0
 10
-325.976750
 20
-636.975102
 11
-347.897060
 21
-615.054791
  0
LINE
  8
A-DIMS-0
 10
-342.593759
 20
-616.115452
 11
-345.775740
 21
-617.176112
  0
LINE
  8
A-DIMS-0
 10
-319.192515
 20
-590.592887
 11
-309.823887
 21
-581.224259
  0
LINE
  8
A-DIMS-0
 10
-336.407112
 20
-607.807484
 11
-345.775740
 21
-617.176112
  0
TEXT
  8
A-DIMS-0
 10
-332.620920
 20
-607.729837
 40
5.487240
  1
4'2"7
 50
45.000000
  7
STANDARD
  0
LINE
  8
A-DIMS-0
 10
-91.270854
 20
-344.000000
 11
-89.770854
 21
-341.000000
  0
LINE
  8
A-DIMS-0
 10
-88.270854
 20
-465.000000
 11
-89.770854
 21
-468.000000
  0
LINE
  8
A-DIMS-0
 10
-89.770854
 20
-393.900843
 11
-89.770854
 21
-341.000000
  0
LINE
  8
A-DIMS-0
 10
-89.770854
 20
-415.099157
 11
-89.770854
 21
-468.000000
  0
TEXT
  8
A-DIMS-0
 10
-87.148517
 20
-412.367010
 40
5.487240
  1
10'7
 50
90.000000
  7
STANDARD
  0
LINE
  8
A-DIMS-0
 10
-117.000000
 20
-337.937580
 11
-114.000000
 21
-339.437580
  0
LINE
  8
A-DIMS-0
 10
-259.000000
 20
-340.937580
 11
-262.000000
 21
-339.437580
  0
LINE
  8
A-DIMS-0
 10
-177.400843
 20
-339.437580
 11
-114.000000
 21
-339.437580
  0
LINE
  8
A-DIMS-0
 10
-198.599157
 20
-339.437580
 11
-262.000000
 21
-339.437580
  0
TEXT
  8
A-DIMS-0
 10
-195.867010
 20
-342.059917
 40
5.487240
  1
12'4
  7
STANDARD
  0
LINE
  8
A-DIMS-0
 10
50.727238
 20
-344.000000
 11
52.227238
 21
-341.000000
  0
LINE
  8
A-DIMS-0
 10
53.727238
 20
-384.000000
 11
52.227238
 21
-387.000000
  0
LINE
  8
A-DIMS-0
 10
52.227238
 20
-353.400843
 11
52.227238
 21
-341.000000
  0
LINE
  8
A-DIMS-0
 10
52.227238
 20
-374.599157
 11
52.227238
 21
-387.000000
  0
TEXT
  8
A-DIMS-0
 10
54.849575
 20
-371.867010
 40
5.487240
  1
3'10
 50
90.000000
  7
STANDARD
  0
LINE
  8
A-DIMS-0
 10
5.231650
 20
-344.000000
 11
6.731650
 21
-341.000000
  0
LINE
  8
A-DIMS-0
 10
8.231650
 20
-403.000000
 11
6.731650
 21
-406.000000
  0
LINE
  8
A-DIMS-0
 10
6.731650
 20
-365.260946
 11
6.731650
 21
-341.000000
  0
LINE
  8
A-DIMS-0
 10
6.731650
 20
-381.739054
 11
6.731650
 21
-406.000000
  0
TEXT
  8
A-DIMS-0
 10
9.353987
 20
-379.006907
 40
5.487240
  1
5'5
 50
90.000000
  7
STANDARD
  0
LINE
  8
A-DIMS-0
 10
141.222729
 20
-500.000000
 11
142.722729
 21
-497.000000
  0
LINE
  8
A-DIMS-0
 10
144.222729
 20
-560.000000
 11
142.722729
 21
-563.000000
  0
LINE
  8
A-DIMS-0
 10
142.722729
 20
-521.760946
 11
142.722729
 21
-497.000000
  0
LINE
  8
A-DIMS-0
 10
142.722729
 20
-538.239054
 11
142.722729
 21
-563.000000
  0
TEXT
  8
A-DIMS-0
 10
145.345066
 20
-535.506907
 40
5.487240
  1
5'6
 50
90.000000
  7
STANDARD
  0
LINE
  8
A-DIMS-0
 10
-41.143579
 20
-475.000000
 11
-39.643579
 21
-472.000000
  0
LINE
  8
A-DIMS-0
 10
-38.143579
 20
-556.000000
 11
-39.643579
 21
-559.000000
  0
LINE
  8
A-DIMS-0
 10
-39.643579
 20
-507.260946
 11
-39.643579
 21
-472.000000
  0
LINE
  8
A-DIMS-0
 10
-39.643579
 20
-523.739054
 11
-39.643579
 21
-559.000000
  0
TEXT
  8
A-DIMS-0
 10
-37.021242
 20
-521.006907
 40
5.487240
  1
7'3
 50
90.000000
  7
STANDARD
  0
LINE
  8
A-DIMS-0
 10
121.727095
 20
-422.000000
 11
123.227095
 21
-419.000000
  0
LINE
  8
A-DIMS-0
 10
124.727095
 20
-560.000000
 11
123.227095
 21
-563.000000
  0
LINE
  8
A-DIMS-0
 10
123.227095
 20
-482.760946
 11
123.227095
 21
-419.000000
  0
LINE
  8
A-DIMS-0
 10
123.227095
 20
-499.239054
 11
123.227095
 21
-563.000000
  0
TEXT
  8
A-DIMS-0
 10
125.849432
 20
-496.506907
 40
5.487240
  1
12'
 50
90.000000
  7
STANDARD
  0
LINE
  8
A-DIMS-0
 10
33.000000
 20
-555.688442
 11
30.000000
 21
-554.188442
  0
LINE
  8
A-DIMS-0
 10
219.000000
 20
-552.688442
 11
222.000000
 21
-554.188442
  0
LINE
  8
A-DIMS-0
 10
117.760946
 20
-554.188442
 11
30.000000
 21
-554.188442
  0
LINE
  8
A-DIMS-0
 10
134.239054
 20
-554.188442
 11
222.000000
 21
-554.188442
  0
TEXT
  8
A-DIMS-0
 10
120.493093
 20
-556.810778
 40
5.487240
  1
16'
  7
STANDARD
  0
LINE
  8
A-DIMS-0
 10
33.000000
 20
-480.779756
 11
30.000000
 21
-479.279756
  0
LINE
  8
A-DIMS-0
 10
127.000000
 20
-477.779756
 11
130.000000
 21
-479.279756
  0
LINE
  8
A-DIMS-0
 10
71.760946
 20
-479.279756
 11
30.000000
 21
-479.279756
  0
LINE
  8
A-DIMS-0
 10
88.239054
 20
-479.279756
 11
130.000000
 21
-479.279756
  0
TEXT
  8
A-DIMS-0
 10
74.493093
 20
-481.902093
 40
5.487240
  1
8'4
  7
STANDARD
  0
LINE
  8
A-DIMS-0
 10
-263.000000
 20
-510.476846
 11
-266.000000
 21
-508.976846
  0
LINE
  8
A-DIMS-0
 10
-173.000000
 20
-507.476846
 11
-170.000000
 21
-508.976846
  0
LINE
  8
A-DIMS-0
 10
-223.878951
 20
-508.976846
 11
-266.000000
 21
-508.976846
  0
LINE
  8
A-DIMS-0
 10
-212.121049
 20
-508.976846
 11
-170.000000
 21
-508.976846
  0
TEXT
  8
A-DIMS-0
 10
-221.146804
 20
-511.599183
 40
5.487240
  1
8'
  7
STANDARD
  0
LINE
  8
A-DIMS-0
 10
-163.000000
 20
-510.476846
 11
-166.000000
 21
-508.976846
  0
LINE
  8
A-DIMS-0
 10
23.000000
 20
-507.476846
 11
26.000000
 21
-508.976846
  0
LINE
  8
A-DIMS-0
 10
-78.239054
 20
-508.976846
 11
-166.000000
 21
-508.976846
  0
LINE
  8
A-DIMS-0
 10
-61.760946
 20
-508.976846
 11
26.000000
 21
-508.976846
  0
TEXT
  8
A-DIMS-0
 10
-75.506907
 20
-511.599183
 40
5.487240
  1
16'
  7
STANDARD
  0
LINE
  8
A-DIMS-0
 10
45.000000
 20
-427.085895
 11
42.000000
 21
-425.585895
  0
LINE
  8
A-DIMS-0
 10
127.000000
 20
-424.085895
 11
130.000000
 21
-425.585895
  0
LINE
  8
A-DIMS-0
 10
77.760946
 20
-425.585895
 11
42.000000
 21
-425.585895
  0
LINE
  8
A-DIMS-0
 10
94.239054
 20
-425.585895
 11
130.000000
 21
-425.585895
  0
TEXT
  8
A-DIMS-0
 10
80.493093
 20
-428.208232
 40
5.487240
  1
7'4
  7
STANDARD
  0
ENDSEC
  0
EOF
