  0
SECTION
  2
HEADER
  9
$ACADVER
  1
AC1006
  9
$EXTMIN
 10
-730.215877
 20
-962.608625
  9
$EXTMAX
 10
638.335863
 20
-15.681411
  9
$ANGDIR
 70
   0
  9
$LUNITS
 70
   2
  0
ENDSEC
  0
SECTION
  2
TABLES
  0
TABLE
  2
LTYPE
 70
   3
  0
LTYPE
  2
CONTINUOUS
 70
64
  3
SOLID LINE
 72
65
 73
0
 40
0.
  0
LTYPE
  2
DASHED
 70
64
  3
DASHED LINE
 72
65
 73
2
 40
8.
 49
5.
 49
-3.
  0
LTYPE
  2
DOTTED
 70
64
  3
DOTTED LINE
 72
65
 73
2
 40
4.
 49
2.
 49
-2.
  0
ENDTAB
  0
TABLE
  2
LAYER
 70
   15
  0
LAYER
  2
A-WALL-1
 70
64
 62
   7
  6
CONTINUOUS
  0
LAYER
  2
A-CASE-1
 70
64
 62
   7
  6
CONTINUOUS
  0
LAYER
  2
A-DIMS-1
 70
64
 62
   7
  6
CONTINUOUS
  0
LAYER
  2
A-POWR-1
 70
64
 62
   7
  6
CONTINUOUS
  0
LAYER
  2
A-NOTE-1
 70
64
 62
   7
  6
CONTINUOUS
  0
LAYER
  2
A-TEXT-1
 70
64
 62
   7
  6
CONTINUOUS
  0
LAYER
  2
A-FURN-1
 70
64
 62
   7
  6
CONTINUOUS
  0
LAYER
  2
A-GLAZ-1
 70
64
 62
   7
  6
CONTINUOUS
  0
LAYER
  2
A-STAR-1
 70
64
 62
   7
  6
CONTINUOUS
  0
LAYER
  2
A-ROOF-1
 70
64
 62
   7
  6
CONTINUOUS
  0
LAYER
  2
A-C000-1
 70
64
 62
   7
  6
CONTINUOUS
  0
ENDTAB
  0
ENDSEC
  0
SECTION
  2
BLOCKS
  0
BLOCK
  8
A-CASE-1
  2
FIXT-Toilet
 70
64
 10
0.0
 20
0.0
  0
ARC
  8
A-CASE-1
 10
9.046126
 20
27.780609
 40
1.431891
 50
0.000000
 51
90.000000
  0
LINE
  8
A-CASE-1
 10
9.046126
 20
29.212500
 11
-9.046126
 21
29.212500
  0
ARC
  8
A-CASE-1
 10
-9.046126
 20
27.780609
 40
1.431891
 50
90.000000
 51
180.000000
  0
LINE
  8
A-CASE-1
 10
-10.478017
 20
27.780609
 11
-10.478017
 21
21.731952
  0
ARC
  8
A-CASE-1
 10
-9.046126
 20
21.731952
 40
1.431891
 50
180.000000
 51
270.000000
  0
LINE
  8
A-CASE-1
 10
-9.046126
 20
20.300061
 11
9.046126
 21
20.300061
  0
ARC
  8
A-CASE-1
 10
9.046126
 20
21.731952
 40
1.431891
 50
270.000000
 51
0.000000
  0
LINE
  8
A-CASE-1
 10
10.478017
 20
21.731952
 11
10.478017
 21
27.780609
  0
ARC
  8
A-CASE-1
 10
0.029649
 20
13.174761
 40
6.001594
 50
38.796550
 51
141.203450
  0
ARC
  8
A-CASE-1
 10
0.029649
 20
7.965448
 40
6.001594
 50
218.796550
 51
321.203450
  0
ARC
  8
A-CASE-1
 10
3.269587
 20
10.570105
 40
10.158689
 50
141.203449
 51
218.796551
  0
ARC
  8
A-CASE-1
 10
-3.210289
 20
10.570105
 40
10.158689
 50
321.203449
 51
38.796551
  0
ENDBLK
  0
BLOCK
  8
A-CASE-1
  2
FIXT-OvalFree
 70
64
 10
0.0
 20
0.0
  0
ARC
  8
A-CASE-1
 10
11.460326
 20
0.470522
 40
3.539272
 50
270.000000
 51
14.999997
  0
ARC
  8
A-CASE-1
 10
-11.460326
 20
0.470522
 40
3.539272
 50
165.000003
 51
270.000000
  0
LINE
  8
A-CASE-1
 10
11.460326
 20
-3.068750
 11
-11.460326
 21
-3.068750
  0
ARC
  8
A-CASE-1
 10
-8.247561
 20
12.460728
 40
3.539272
 50
90.000000
 51
165.000003
  0
LINE
  8
A-CASE-1
 10
-14.879001
 20
1.386553
 11
-11.666235
 21
13.376759
  0
ARC
  8
A-CASE-1
 10
8.247561
 20
12.460728
 40
3.539272
 50
14.999997
 51
90.000000
  0
LINE
  8
A-CASE-1
 10
-8.247561
 20
16.000000
 11
8.247561
 21
16.000000
  0
LINE
  8
A-CASE-1
 10
11.666235
 20
13.376759
 11
14.879001
 21
1.386553
  0
ARC
  8
A-CASE-1
 10
-3.168259
 20
6.212500
 40
5.846813
 50
127.551279
 51
232.448716
  0
ARC
  8
A-CASE-1
 10
3.138114
 20
6.212500
 40
5.846813
 50
307.551284
 51
52.448721
  0
ARC
  8
A-CASE-1
 10
-0.015072
 20
10.314206
 40
11.020456
 50
232.448718
 51
307.551282
  0
ARC
  8
A-CASE-1
 10
-0.015072
 20
2.110794
 40
11.020456
 50
52.448718
 51
127.551282
  0
CIRCLE
  8
A-CASE-1
 10
-0.015072
 20
8.659375
 40
0.646875
  0
CIRCLE
  8
A-CASE-1
 10
-0.015072
 20
8.659375
 40
1.040625
  0
ARC
  8
A-CASE-1
 10
2.271533
 20
14.545980
 40
0.835270
 50
0.000000
 51
90.000000
  0
LINE
  8
A-CASE-1
 10
2.271533
 20
15.381250
 11
-2.414177
 21
15.381250
  0
ARC
  8
A-CASE-1
 10
-2.414177
 20
14.545980
 40
0.835270
 50
90.000000
 51
180.000000
  0
LINE
  8
A-CASE-1
 10
-3.249447
 20
14.545980
 11
-3.249447
 21
14.585270
  0
ARC
  8
A-CASE-1
 10
-2.414177
 20
14.585270
 40
0.835270
 50
180.000000
 51
270.000000
  0
LINE
  8
A-CASE-1
 10
-2.414177
 20
13.750000
 11
2.271533
 21
13.750000
  0
ARC
  8
A-CASE-1
 10
2.271533
 20
14.585270
 40
0.835270
 50
270.000000
 51
0.000000
  0
LINE
  8
A-CASE-1
 10
3.106803
 20
14.585270
 11
3.106803
 21
14.545980
  0
ENDBLK
  0
BLOCK
  8
A-CASE-1
  2
FIXT-fire3618
 70
64
 10
0.0
 20
0.0
  0
LINE
  8
A-CASE-1
 10
29.948162
 20
-6.079029
 11
29.948162
 21
-24.979031
  0
LINE
  8
A-CASE-1
 10
29.948162
 20
-24.979031
 11
-29.948162
 21
-24.979031
  0
LINE
  8
A-CASE-1
 10
-29.948162
 20
-24.979031
 11
-29.948162
 21
-6.079029
  0
LINE
  8
A-CASE-1
 10
6.591125
 20
11.525184
 11
-6.587155
 21
11.525184
  0
LINE
  8
A-CASE-1
 10
-6.587155
 20
11.525184
 11
-6.587155
 21
-1.653096
  0
LINE
  8
A-CASE-1
 10
-6.587155
 20
-1.653096
 11
6.591125
 21
-1.653096
  0
LINE
  8
A-CASE-1
 10
6.591125
 20
-1.653096
 11
6.591125
 21
11.525184
  0
LINE
  8
A-CASE-1
 10
-17.736944
 20
-5.384176
 11
17.843761
 21
-5.384176
  0
CIRCLE
  8
A-CASE-1
 10
0.001985
 20
5.075015
 40
5.945351
  0
LINE
  8
A-CASE-1
 10
18.029947
 20
-6.079029
 11
13.185582
 21
12.000382
  0
LINE
  8
A-CASE-1
 10
13.185582
 20
12.000382
 11
-13.078766
 21
12.000382
  0
LINE
  8
A-CASE-1
 10
-13.078766
 20
12.000382
 11
-17.923130
 21
-6.079029
  0
LINE
  8
A-CASE-1
 10
-17.923130
 20
-6.079029
 11
18.029947
 21
-6.079029
  0
ENDBLK
  0
BLOCK
  8
A-FURN-1
  2
FIXT-rndc42
 70
64
 10
0.0
 20
0.0
  0
CIRCLE
  8
A-FURN-1
 10
-0.009039
 20
28.824127
 40
21.104097
  0
CIRCLE
  8
A-FURN-1
 10
-0.009039
 20
28.824127
 40
19.946480
  0
LINE
  8
A-FURN-1
 10
9.089798
 20
47.923764
 11
9.089798
 21
56.815706
  0
LINE
  8
A-FURN-1
 10
-18.933153
 20
19.900810
 11
-27.825096
 21
19.900810
  0
LINE
  8
A-FURN-1
 10
18.933153
 20
38.080408
 11
27.825096
 21
38.080408
  0
LINE
  8
A-FURN-1
 10
-9.089798
 20
10.057457
 11
-9.089798
 21
1.165512
  0
ARC
  8
A-FURN-1
 10
0.094195
 20
23.243660
 40
34.756340
 50
74.999999
 51
90.000000
  0
ARC
  8
A-FURN-1
 10
5.746951
 20
28.896416
 40
34.756340
 50
180.000000
 51
195.000004
  0
ARC
  8
A-FURN-1
 10
-5.746951
 20
29.084805
 40
34.756340
 50
0.000000
 51
15.000001
  0
ARC
  8
A-FURN-1
 10
-0.094195
 20
34.737560
 40
34.756340
 50
255.000000
 51
270.000000
  0
ARC
  8
A-FURN-1
 10
0.094195
 20
23.243660
 40
34.756340
 50
90.000000
 51
105.000000
  0
ARC
  8
A-FURN-1
 10
5.746951
 20
28.896416
 40
34.756340
 50
165.000002
 51
180.000000
  0
ARC
  8
A-FURN-1
 10
-5.746951
 20
29.084805
 40
34.756340
 50
345.000002
 51
0.000000
  0
ARC
  8
A-FURN-1
 10
-0.094195
 20
34.737560
 40
34.756340
 50
270.000000
 51
285.000000
  0
LINE
  8
A-FURN-1
 10
-8.901408
 20
56.815706
 11
-8.901408
 21
48.300543
  0
LINE
  8
A-FURN-1
 10
-27.825096
 20
37.892017
 11
-19.309933
 21
37.892017
  0
LINE
  8
A-FURN-1
 10
27.825096
 20
20.089203
 11
19.309933
 21
20.089203
  0
LINE
  8
A-FURN-1
 10
8.901408
 20
1.165512
 11
8.901408
 21
9.680676
  0
LINE
  8
A-FURN-1
 10
-8.844481
 20
55.839813
 11
9.146725
 21
55.839813
  0
LINE
  8
A-FURN-1
 10
-26.849203
 20
37.835093
 11
-26.849203
 21
19.843887
  0
LINE
  8
A-FURN-1
 10
26.849203
 20
20.146130
 11
26.849203
 21
38.137335
  0
LINE
  8
A-FURN-1
 10
8.844481
 20
2.141407
 11
-9.146725
 21
2.141407
  0
ENDBLK
  0
BLOCK
  8
A-CASE-1
  2
FIXT-Rng30G
 70
64
 10
0.0
 20
0.0
  0
CIRCLE
  8
A-CASE-1
 10
-1.386597
 20
4.287418
 40
0.658514
  0
CIRCLE
  8
A-CASE-1
 10
1.386597
 20
4.287418
 40
0.658514
  0
CIRCLE
  8
A-CASE-1
 10
-1.386597
 20
6.740335
 40
0.658514
  0
CIRCLE
  8
A-CASE-1
 10
1.386597
 20
6.740335
 40
0.658514
  0
LINE
  8
A-CASE-1
 10
15.020404
 20
22.978688
 11
-14.973826
 21
22.978688
  0
LINE
  8
A-CASE-1
 10
-14.973826
 20
22.978688
 11
-14.973826
 21
1.788042
  0
LINE
  8
A-CASE-1
 10
-14.973826
 20
1.788042
 11
15.020404
 21
1.788042
  0
LINE
  8
A-CASE-1
 10
15.020404
 20
1.788042
 11
15.020404
 21
22.978688
  0
LINE
  8
A-CASE-1
 10
2.729433
 20
8.282631
 11
-2.729433
 21
8.282631
  0
LINE
  8
A-CASE-1
 10
-2.729433
 20
8.282631
 11
-2.729433
 21
2.896271
  0
LINE
  8
A-CASE-1
 10
-2.729433
 20
2.896271
 11
2.729433
 21
2.896271
  0
LINE
  8
A-CASE-1
 10
2.729433
 20
2.896271
 11
2.729433
 21
8.282631
  0
ARC
  8
A-CASE-1
 10
-6.053693
 20
19.843595
 40
1.372175
 50
0.000000
 51
90.000000
  0
LINE
  8
A-CASE-1
 10
-6.053693
 20
21.215769
 11
-11.491113
 21
21.215769
  0
ARC
  8
A-CASE-1
 10
-11.491113
 20
19.843595
 40
1.372175
 50
90.000000
 51
180.000000
  0
LINE
  8
A-CASE-1
 10
-12.863287
 20
19.843595
 11
-12.863287
 21
5.764959
  0
ARC
  8
A-CASE-1
 10
-11.491113
 20
5.764959
 40
1.372175
 50
180.000000
 51
270.000000
  0
LINE
  8
A-CASE-1
 10
-11.491113
 20
4.392784
 11
-6.053693
 21
4.392784
  0
ARC
  8
A-CASE-1
 10
-6.053693
 20
5.764959
 40
1.372175
 50
270.000000
 51
0.000000
  0
LINE
  8
A-CASE-1
 10
-4.681518
 20
5.764959
 11
-4.681518
 21
19.843595
  0
ARC
  8
A-CASE-1
 10
11.491113
 20
19.843595
 40
1.372175
 50
0.000000
 51
90.000000
  0
LINE
  8
A-CASE-1
 10
11.491113
 20
21.215769
 11
6.053693
 21
21.215769
  0
ARC
  8
A-CASE-1
 10
6.053693
 20
19.843595
 40
1.372175
 50
90.000000
 51
180.000000
  0
LINE
  8
A-CASE-1
 10
4.681518
 20
19.843595
 11
4.681518
 21
5.764959
  0
ARC
  8
A-CASE-1
 10
6.053693
 20
5.764959
 40
1.372175
 50
180.000000
 51
270.000000
  0
LINE
  8
A-CASE-1
 10
6.053693
 20
4.392784
 11
11.491113
 21
4.392784
  0
ARC
  8
A-CASE-1
 10
11.491113
 20
5.764959
 40
1.372175
 50
270.000000
 51
0.000000
  0
LINE
  8
A-CASE-1
 10
12.863287
 20
5.764959
 11
12.863287
 21
19.843595
  0
LINE
  8
A-CASE-1
 10
-12.790816
 20
13.361172
 11
-4.617591
 21
13.361172
  0
LINE
  8
A-CASE-1
 10
12.790816
 20
13.361172
 11
4.617591
 21
13.361172
  0
LINE
  8
A-CASE-1
 10
-12.863288
 20
12.255005
 11
-4.694096
 21
12.255005
  0
LINE
  8
A-CASE-1
 10
12.863288
 20
12.255005
 11
4.694096
 21
12.255005
  0
CIRCLE
  8
A-CASE-1
 10
-8.805153
 20
17.171340
 40
1.101392
  0
CIRCLE
  8
A-CASE-1
 10
8.805153
 20
17.171340
 40
1.101392
  0
CIRCLE
  8
A-CASE-1
 10
-8.805153
 20
8.582155
 40
1.101392
  0
CIRCLE
  8
A-CASE-1
 10
8.805153
 20
8.582155
 40
1.101392
  0
LINE
  8
A-CASE-1
 10
15.006241
 20
25.411114
 11
-14.996781
 21
25.411114
  0
LINE
  8
A-CASE-1
 10
-14.996781
 20
25.411114
 11
-14.996781
 21
22.947097
  0
LINE
  8
A-CASE-1
 10
-14.996781
 20
22.947097
 11
15.006241
 21
22.947097
  0
LINE
  8
A-CASE-1
 10
15.006241
 20
22.947097
 11
15.006241
 21
25.411114
  0
LINE
  8
A-CASE-1
 10
9.136084
 20
1.133307
 11
-9.126624
 21
1.133307
  0
LINE
  8
A-CASE-1
 10
-9.126624
 20
1.133307
 11
-9.126624
 21
0.553539
  0
LINE
  8
A-CASE-1
 10
-9.126624
 20
0.553539
 11
9.136084
 21
0.553539
  0
LINE
  8
A-CASE-1
 10
9.136084
 20
0.553539
 11
9.136084
 21
1.133307
  0
ENDBLK
  0
BLOCK
  8
A-FURN-1
  2
FIXT-shelf4
 70
64
 10
0.0
 20
0.0
  0
LINE
  8
A-FURN-1
 10
23.873684
 20
12.000000
 11
23.873684
 21
0.063158
  0
LINE
  8
A-FURN-1
 10
23.873684
 20
0.063158
 11
-23.873684
 21
0.063158
  0
LINE
  8
A-FURN-1
 10
-23.873684
 20
0.063158
 11
-23.873684
 21
12.000000
  0
LINE
  8
A-FURN-1
 10
-23.873684
 20
12.000000
 11
23.873684
 21
12.000000
  0
ENDBLK
  0
BLOCK
  8
A-FURN-1
  2
FIXT-book1230
 70
64
 10
0.0
 20
0.0
  0
LINE
  8
A-FURN-1
 10
14.997981
 20
5.987784
 11
-14.997981
 21
5.987784
  0
LINE
  8
A-FURN-1
 10
-14.997981
 20
5.987784
 11
-14.997981
 21
-5.987784
  0
LINE
  8
A-FURN-1
 10
-14.997981
 20
-5.987784
 11
14.997981
 21
-5.987784
  0
LINE
  8
A-FURN-1
 10
14.997981
 20
-5.987784
 11
14.997981
 21
5.987784
  0
ENDBLK
  0
BLOCK
  8
A-CASE-1
  2
FIXT-DishWash
 70
64
 10
0.0
 20
0.0
  0
LINE
  8
A-CASE-1
 10
12.019889
 20
10.345085
 11
-12.019889
 21
10.345085
  0
LINE
  8
A-CASE-1
 10
-12.019889
 20
10.345085
 11
-12.019889
 21
9.229315
  0
LINE
  8
A-CASE-1
 10
-12.019889
 20
9.229315
 11
12.019889
 21
9.229315
  0
LINE
  8
A-CASE-1
 10
12.019889
 20
9.229315
 11
12.019889
 21
10.345085
  0
LINE
  8
A-CASE-1
 10
4.361647
 20
9.229315
 11
4.361647
 21
8.519279
  0
LINE
  8
A-CASE-1
 10
4.361647
 20
8.519279
 11
-4.260214
 21
8.519279
  0
LINE
  8
A-CASE-1
 10
-4.260214
 20
8.519279
 11
-4.260214
 21
9.229315
  0
ARC
  8
A-CASE-1
 10
-7.282481
 20
21.323973
 40
5.269653
 50
270.000000
 51
0.000000
  0
ARC
  8
A-CASE-1
 10
-7.282481
 20
21.323973
 40
5.269653
 50
0.000000
 51
90.000000
  0
LINE
  8
A-CASE-1
 10
-7.282481
 20
26.593626
 11
-7.282481
 21
16.054319
  0
LINE
  8
A-CASE-1
 10
8.012980
 20
26.475399
 11
5.227346
 21
16.079269
  0
LINE
  8
A-CASE-1
 10
5.227346
 20
16.079269
 11
3.365992
 21
23.025938
  0
LINE
  8
A-CASE-1
 10
3.365992
 20
23.025938
 11
1.504146
 21
16.077431
  0
LINE
  8
A-CASE-1
 10
1.504146
 20
16.077431
 11
-1.276819
 21
26.456131
  0
ENDBLK
  0
BLOCK
  8
A-CASE-1
  2
FIXT-ref002
 70
64
 10
0.0
 20
0.0
  0
LINE
  8
A-CASE-1
 10
14.968905
 20
6.038666
 11
14.968905
 21
34.000000
  0
LINE
  8
A-CASE-1
 10
14.968905
 20
34.000000
 11
-15.027038
 21
34.000000
  0
LINE
  8
A-CASE-1
 10
-15.027038
 20
34.000000
 11
-15.027038
 21
6.038666
  0
LINE
  8
A-CASE-1
 10
-15.027038
 20
6.038666
 11
14.968905
 21
6.038666
  0
LINE
  8
A-CASE-1
 10
-11.074083
 20
6.038666
 11
-11.074083
 21
4.004057
  0
LINE
  8
A-CASE-1
 10
-11.074083
 20
4.004057
 11
-13.050561
 21
4.004057
  0
LINE
  8
A-CASE-1
 10
-13.050561
 20
4.004057
 11
-13.050561
 21
6.038666
  0
LINE
  8
A-CASE-1
 10
-15.027038
 20
7.026903
 11
14.968905
 21
7.026903
  0
LINE
  8
A-CASE-1
 10
-13.050561
 20
4.934164
 11
-11.074083
 21
4.934164
  0
ENDBLK
  0
BLOCK
  8
A-CASE-1
  2
FIXT-OffKit32
 70
64
 10
0.0
 20
0.0
  0
ARC
  8
A-CASE-1
 10
13.994499
 20
31.991375
 40
2.008625
 50
0.000000
 51
90.000000
  0
LINE
  8
A-CASE-1
 10
13.994499
 20
34.000000
 11
-13.994499
 21
34.000000
  0
ARC
  8
A-CASE-1
 10
-13.994499
 20
31.991375
 40
2.008625
 50
90.000000
 51
180.000000
  0
LINE
  8
A-CASE-1
 10
-16.003124
 20
31.991375
 11
-16.003124
 21
15.027375
  0
ARC
  8
A-CASE-1
 10
-13.994499
 20
15.027375
 40
2.008625
 50
180.000000
 51
270.000000
  0
LINE
  8
A-CASE-1
 10
-13.994499
 20
13.018749
 11
13.994499
 21
13.018749
  0
ARC
  8
A-CASE-1
 10
13.994499
 20
15.027375
 40
2.008625
 50
270.000000
 51
0.000000
  0
LINE
  8
A-CASE-1
 10
16.003124
 20
15.027375
 11
16.003124
 21
31.991375
  0
CIRCLE
  8
A-CASE-1
 10
6.018750
 20
22.581250
 40
1.631250
  0
ARC
  8
A-CASE-1
 10
5.028379
 20
32.615879
 40
0.596621
 50
0.000000
 51
90.000000
  0
LINE
  8
A-CASE-1
 10
5.028379
 20
33.212500
 11
-5.028379
 21
33.212500
  0
ARC
  8
A-CASE-1
 10
-5.028379
 20
32.615879
 40
0.596621
 50
90.000000
 51
180.000000
  0
LINE
  8
A-CASE-1
 10
-5.625000
 20
32.615879
 11
-5.625000
 21
31.671621
  0
ARC
  8
A-CASE-1
 10
-5.028379
 20
31.671621
 40
0.596621
 50
180.000000
 51
270.000000
  0
LINE
  8
A-CASE-1
 10
-5.028379
 20
31.075000
 11
5.028379
 21
31.075000
  0
ARC
  8
A-CASE-1
 10
5.028379
 20
31.671621
 40
0.596621
 50
270.000000
 51
0.000000
  0
LINE
  8
A-CASE-1
 10
5.625000
 20
31.671621
 11
5.625000
 21
32.615879
  0
CIRCLE
  8
A-CASE-1
 10
-9.281250
 20
22.693750
 40
1.631250
  0
CIRCLE
  8
A-CASE-1
 10
-9.281250
 20
22.693750
 40
1.068750
  0
ARC
  8
A-CASE-1
 10
12.660733
 20
28.941983
 40
1.233017
 50
0.000000
 51
90.000000
  0
LINE
  8
A-CASE-1
 10
12.660733
 20
30.175000
 11
-0.623232
 21
30.175000
  0
ARC
  8
A-CASE-1
 10
-0.623232
 20
28.941983
 40
1.233017
 50
90.000000
 51
180.000000
  0
LINE
  8
A-CASE-1
 10
-1.856250
 20
28.941983
 11
-1.856250
 21
16.333018
  0
ARC
  8
A-CASE-1
 10
-0.623232
 20
16.333018
 40
1.233017
 50
180.000000
 51
270.000000
  0
LINE
  8
A-CASE-1
 10
-0.623232
 20
15.100000
 11
12.660733
 21
15.100000
  0
ARC
  8
A-CASE-1
 10
12.660733
 20
16.333018
 40
1.233017
 50
270.000000
 51
0.000000
  0
LINE
  8
A-CASE-1
 10
13.893750
 20
16.333018
 11
13.893750
 21
28.941983
  0
ARC
  8
A-CASE-1
 10
-5.676768
 20
28.941983
 40
1.233017
 50
0.000000
 51
90.000000
  0
LINE
  8
A-CASE-1
 10
-5.676768
 20
30.175000
 11
-12.773233
 21
30.175000
  0
ARC
  8
A-CASE-1
 10
-12.773233
 20
28.941983
 40
1.233017
 50
90.000000
 51
180.000000
  0
LINE
  8
A-CASE-1
 10
-14.006250
 20
28.941983
 11
-14.006250
 21
16.333018
  0
ARC
  8
A-CASE-1
 10
-12.773233
 20
16.333018
 40
1.233017
 50
180.000000
 51
270.000000
  0
LINE
  8
A-CASE-1
 10
-12.773233
 20
15.100000
 11
-5.676768
 21
15.100000
  0
ARC
  8
A-CASE-1
 10
-5.676768
 20
16.333018
 40
1.233017
 50
270.000000
 51
0.000000
  0
LINE
  8
A-CASE-1
 10
-4.443750
 20
16.333018
 11
-4.443750
 21
28.941983
  0
CIRCLE
  8
A-CASE-1
 10
6.018750
 20
22.581250
 40
1.068750
  0
ENDBLK
  0
BLOCK
  8
A-POWR-1
  2
FIXT-GFI_Out
 70
64
 10
0.0
 20
0.0
  0
CIRCLE
  8
A-POWR-1
 10
-0.006993
 20
-5.734540
 40
3.254864
  0
LINE
  8
A-POWR-1
 10
-1.973961
 20
-8.380580
 11
-1.973961
 21
-0.000000
  0
LINE
  8
A-POWR-1
 10
2.006808
 20
-8.286915
 11
2.006808
 21
-0.000000
  0
TEXT
  8
A-POWR-1
 10
-2.437602
 20
-15.563644
 40
2.332759
  1
GFI
  7
STANDARD
  0
ENDBLK
  0
BLOCK
  8
A-POWR-1
  2
FIXT-WP_Out
 70
64
 10
0.0
 20
0.0
  0
CIRCLE
  8
A-POWR-1
 10
-0.006993
 20
-5.734540
 40
3.254864
  0
LINE
  8
A-POWR-1
 10
-1.973961
 20
-8.380580
 11
-1.973961
 21
-0.000000
  0
LINE
  8
A-POWR-1
 10
2.006808
 20
-8.286915
 11
2.006808
 21
-0.000000
  0
TEXT
  8
A-POWR-1
 10
-2.482195
 20
-15.563644
 40
2.332759
  1
WP
  7
STANDARD
  0
ENDBLK
  0
BLOCK
  8
A-POWR-1
  2
FIXT-Light
 70
64
 10
0.0
 20
0.0
  0
LINE
  8
A-POWR-1
 10
-0.014999
 20
-9.119638
 11
-0.014999
 21
-11.759534
  0
CIRCLE
  8
A-POWR-1
 10
-0.006993
 20
-5.860310
 40
3.254864
  0
LINE
  8
A-POWR-1
 10
-0.024039
 20
-2.609896
 11
-0.024039
 21
0.000000
  0
LINE
  8
A-POWR-1
 10
3.254871
 20
-5.849768
 11
5.864768
 21
-5.849768
  0
LINE
  8
A-POWR-1
 10
-3.254871
 20
-5.909766
 11
-5.864768
 21
-5.909766
  0
ENDBLK
  0
BLOCK
  8
A-POWR-1
  2
FIXT-RecLight
 70
64
 10
0.0
 20
0.0
  0
CIRCLE
  8
A-POWR-1
 10
-0.000000
 20
-3.524853
 40
3.524853
  0
ENDBLK
  0
BLOCK
  8
A-POWR-1
  2
FIXT-DualSpot
 70
64
 10
0.0
 20
0.0
  0
CIRCLE
  8
A-POWR-1
 10
-0.022810
 20
-0.719971
 40
0.719971
  0
LINE
  8
A-POWR-1
 10
0.937152
 20
-0.959962
 11
9.454506
 21
-3.242180
  0
LINE
  8
A-POWR-1
 10
9.454506
 20
-3.242180
 11
4.472240
 21
-8.224445
  0
LINE
  8
A-POWR-1
 10
4.472240
 20
-8.224445
 11
0.607165
 21
-1.529939
  0
LINE
  8
A-POWR-1
 10
-1.155265
 20
-1.004027
 11
-9.454506
 21
-3.227802
  0
LINE
  8
A-POWR-1
 10
-9.454506
 20
-3.227802
 11
-4.571973
 21
-8.110334
  0
LINE
  8
A-POWR-1
 10
-4.571973
 20
-8.110334
 11
-0.772780
 21
-1.529939
  0
ENDBLK
  0
BLOCK
  8
A-POWR-1
  2
FIXT-RecExFan
 70
64
 10
0.0
 20
0.0
  0
CIRCLE
  8
A-POWR-1
 10
-0.000000
 20
-3.884839
 40
3.884839
  0
ARC
  8
A-POWR-1
 10
2.327786
 20
-1.592827
 40
3.304456
 50
224.999998
 51
264.898271
  0
ARC
  8
A-POWR-1
 10
2.224729
 20
-2.747166
 40
2.145526
 50
264.898272
 51
315.000000
  0
ARC
  8
A-POWR-1
 10
2.374045
 20
-4.546449
 40
1.721091
 50
44.999994
 51
99.462325
  0
ARC
  8
A-POWR-1
 10
2.727214
 20
-6.665462
 40
3.869332
 50
99.462323
 51
134.999999
  0
ARC
  8
A-POWR-1
 10
-2.386747
 20
-3.343154
 40
1.684494
 50
225.000000
 51
279.573780
  0
ARC
  8
A-POWR-1
 10
-2.742678
 20
-1.232889
 40
3.824566
 50
279.573776
 51
314.999999
  0
ARC
  8
A-POWR-1
 10
-2.342464
 20
-6.241427
 40
3.258577
 50
44.999999
 51
84.289404
  0
ARC
  8
A-POWR-1
 10
-2.218059
 20
-4.997380
 40
2.008325
 50
84.289407
 51
135.000000
  0
ENDBLK
  0
BLOCK
  8
A-POWR-1
  2
FIXT-RLiteFan
 70
64
 10
0.0
 20
0.0
  0
LINE
  8
A-POWR-1
 10
-0.014999
 20
-9.749613
 11
-0.014999
 21
-11.759534
  0
CIRCLE
  8
A-POWR-1
 10
-0.006993
 20
-5.860310
 40
3.884839
  0
LINE
  8
A-POWR-1
 10
-0.024039
 20
-1.979921
 11
-0.024039
 21
0.000000
  0
LINE
  8
A-POWR-1
 10
3.884846
 20
-5.849768
 11
5.864768
 21
-5.849768
  0
LINE
  8
A-POWR-1
 10
-3.884846
 20
-5.909766
 11
-5.864768
 21
-5.909766
  0
ARC
  8
A-POWR-1
 10
2.320793
 20
-3.568298
 40
3.304456
 50
225.000001
 51
264.898271
  0
ARC
  8
A-POWR-1
 10
2.217736
 20
-4.722637
 40
2.145526
 50
264.898271
 51
315.000005
  0
ARC
  8
A-POWR-1
 10
2.367052
 20
-6.521920
 40
1.721091
 50
45.000006
 51
99.462325
  0
ARC
  8
A-POWR-1
 10
2.720221
 20
-8.640932
 40
3.869332
 50
99.462323
 51
134.999999
  0
ARC
  8
A-POWR-1
 10
-2.393740
 20
-5.318624
 40
1.684494
 50
225.000000
 51
279.573780
  0
ARC
  8
A-POWR-1
 10
-2.749672
 20
-3.208359
 40
3.824566
 50
279.573779
 51
315.000000
  0
ARC
  8
A-POWR-1
 10
-2.349457
 20
-8.216898
 40
3.258577
 50
45.000000
 51
84.289405
  0
ARC
  8
A-POWR-1
 10
-2.225052
 20
-6.972850
 40
2.008325
 50
84.289407
 51
135.000005
  0
ENDBLK
  0
BLOCK
  8
A-POWR-1
  2
FIXT-CeilFan
 70
64
 10
0.0
 20
0.0
  0
CIRCLE
  8
A-POWR-1
 10
0.059998
 20
-17.043396
 40
1.272742
  0
CIRCLE
  8
A-POWR-1
 10
0.059998
 20
-17.043396
 40
2.924427
  0
ARC
  8
A-POWR-1
 10
13.759789
 20
-3.195919
 40
3.157881
 50
44.999995
 51
68.497820
  0
ARC
  8
A-POWR-1
 10
-13.759789
 20
-3.195919
 40
3.157881
 50
111.502180
 51
135.000005
  0
ARC
  8
A-POWR-1
 10
-13.787480
 20
-30.743187
 40
3.157881
 50
201.502202
 51
225.000012
  0
ARC
  8
A-POWR-1
 10
13.787480
 20
-30.743187
 40
3.157881
 50
314.999988
 51
338.497798
  0
ARC
  8
A-POWR-1
 10
13.787480
 20
-3.223610
 40
3.157881
 50
21.502174
 51
45.000006
  0
ARC
  8
A-POWR-1
 10
-13.787480
 20
-3.223610
 40
3.157881
 50
134.999994
 51
158.497826
  0
ARC
  8
A-POWR-1
 10
-13.759789
 20
-30.770880
 40
3.157881
 50
224.999976
 51
248.497821
  0
ARC
  8
A-POWR-1
 10
13.759789
 20
-30.770880
 40
3.157881
 50
291.502179
 51
315.000024
  0
ARC
  8
A-POWR-1
 10
13.559463
 20
-3.704422
 40
3.704422
 50
68.497835
 51
91.982695
  0
ARC
  8
A-POWR-1
 10
-13.559463
 20
-3.704422
 40
3.704422
 50
88.017305
 51
111.502165
  0
ARC
  8
A-POWR-1
 10
-13.278977
 20
-30.542860
 40
3.704422
 50
178.017334
 51
201.502197
  0
ARC
  8
A-POWR-1
 10
13.278977
 20
-30.542860
 40
3.704422
 50
338.497803
 51
1.982666
  0
ARC
  8
A-POWR-1
 10
13.278977
 20
-3.423937
 40
3.704422
 50
358.017315
 51
21.502173
  0
ARC
  8
A-POWR-1
 10
-13.278977
 20
-3.423937
 40
3.704422
 50
158.497827
 51
181.982685
  0
ARC
  8
A-POWR-1
 10
-13.559463
 20
-30.262377
 40
3.704422
 50
248.497835
 51
271.982695
  0
ARC
  8
A-POWR-1
 10
13.559463
 20
-30.262377
 40
3.704422
 50
268.017305
 51
291.502165
  0
LINE
  8
A-POWR-1
 10
13.431298
 20
-0.002218
 11
2.343979
 21
-11.089537
  0
LINE
  8
A-POWR-1
 10
-13.431298
 20
-0.002218
 11
-2.343979
 21
-11.089537
  0
LINE
  8
A-POWR-1
 10
-16.981180
 20
-30.414698
 11
-5.893862
 21
-19.327377
  0
LINE
  8
A-POWR-1
 10
16.981180
 20
-30.414698
 11
5.893862
 21
-19.327377
  0
LINE
  8
A-POWR-1
 10
16.981180
 20
-3.552100
 11
5.893862
 21
-14.639420
  0
LINE
  8
A-POWR-1
 10
-16.981180
 20
-3.552100
 11
-5.893862
 21
-14.639420
  0
LINE
  8
A-POWR-1
 10
-13.431298
 20
-33.964581
 11
-2.343979
 21
-22.877260
  0
LINE
  8
A-POWR-1
 10
13.431298
 20
-33.964581
 11
2.343979
 21
-22.877260
  0
LINE
  8
A-POWR-1
 10
2.343979
 20
-11.089537
 11
2.343979
 21
-13.427375
  0
LINE
  8
A-POWR-1
 10
-2.343979
 20
-11.089537
 11
-2.343979
 21
-13.427375
  0
LINE
  8
A-POWR-1
 10
-5.893862
 20
-19.327377
 11
-3.556024
 21
-19.327377
  0
LINE
  8
A-POWR-1
 10
5.893862
 20
-19.327377
 11
3.556024
 21
-19.327377
  0
LINE
  8
A-POWR-1
 10
5.893862
 20
-14.639420
 11
3.556024
 21
-14.639420
  0
LINE
  8
A-POWR-1
 10
-5.893862
 20
-14.639420
 11
-3.556024
 21
-14.639420
  0
LINE
  8
A-POWR-1
 10
-2.343979
 20
-22.877260
 11
-2.343979
 21
-20.539423
  0
LINE
  8
A-POWR-1
 10
2.343979
 20
-22.877260
 11
2.343979
 21
-20.539423
  0
LINE
  8
A-POWR-1
 10
2.343979
 20
-13.427375
 11
2.967628
 21
-14.051023
  0
LINE
  8
A-POWR-1
 10
-2.343979
 20
-13.427375
 11
-2.967628
 21
-14.051023
  0
LINE
  8
A-POWR-1
 10
-3.556024
 20
-19.327377
 11
-2.932375
 21
-19.951027
  0
LINE
  8
A-POWR-1
 10
3.556024
 20
-19.327377
 11
2.932375
 21
-19.951027
  0
LINE
  8
A-POWR-1
 10
3.556024
 20
-14.639420
 11
2.932375
 21
-14.015770
  0
LINE
  8
A-POWR-1
 10
-3.556024
 20
-14.639420
 11
-2.932375
 21
-14.015770
  0
LINE
  8
A-POWR-1
 10
-2.343979
 20
-20.539423
 11
-2.967628
 21
-19.915773
  0
LINE
  8
A-POWR-1
 10
2.343979
 20
-20.539423
 11
2.967628
 21
-19.915773
  0
ENDBLK
  0
BLOCK
  8
A-POWR-1
  2
FIXT-3_Way
 70
64
 10
0.0
 20
0.0
  0
LINE
  8
A-POWR-1
 10
1.506088
 20
-2.396511
 11
-2.053707
 21
-2.396511
  0
ARC
  8
A-POWR-1
 10
-2.053707
 20
-4.016987
 40
1.620476
 50
90.000000
 51
181.041633
  0
ARC
  8
A-POWR-1
 10
-1.993710
 20
-4.015897
 40
1.680484
 50
181.041622
 51
270.000000
  0
LINE
  8
A-POWR-1
 10
-1.993710
 20
-5.696380
 11
-0.263288
 21
-5.696380
  0
ARC
  8
A-POWR-1
 10
-0.173292
 20
-7.420123
 40
1.636124
 50
270.000000
 51
1.534338
  0
ARC
  8
A-POWR-1
 10
-0.263288
 20
-7.422534
 40
1.726153
 50
1.534347
 51
90.000000
  0
LINE
  8
A-POWR-1
 10
-0.173292
 20
-9.056247
 11
-3.662938
 21
-9.056247
  0
LINE
  8
A-POWR-1
 10
-1.156680
 20
-0.026605
 11
-1.156680
 21
-11.036168
  0
TEXT
  8
A-POWR-1
 10
0.369950
 20
-14.470437
 40
2.799311
  1
3
  7
STANDARD
  0
ENDBLK
  0
BLOCK
  8
A-POWR-1
  2
FIXT-4_Way
 70
64
 10
0.0
 20
0.0
  0
LINE
  8
A-POWR-1
 10
1.506088
 20
-2.396511
 11
-2.053707
 21
-2.396511
  0
ARC
  8
A-POWR-1
 10
-2.053707
 20
-4.016987
 40
1.620476
 50
90.000000
 51
181.041633
  0
ARC
  8
A-POWR-1
 10
-1.993710
 20
-4.015897
 40
1.680484
 50
181.041622
 51
270.000000
  0
LINE
  8
A-POWR-1
 10
-1.993710
 20
-5.696380
 11
-0.263288
 21
-5.696380
  0
ARC
  8
A-POWR-1
 10
-0.173292
 20
-7.420123
 40
1.636124
 50
270.000000
 51
1.534338
  0
ARC
  8
A-POWR-1
 10
-0.263288
 20
-7.422534
 40
1.726153
 50
1.534347
 51
90.000000
  0
LINE
  8
A-POWR-1
 10
-0.173292
 20
-9.056247
 11
-3.662938
 21
-9.056247
  0
LINE
  8
A-POWR-1
 10
-1.156680
 20
-0.026605
 11
-1.156680
 21
-11.036168
  0
TEXT
  8
A-POWR-1
 10
0.369950
 20
-14.470437
 40
2.799311
  1
4
  7
STANDARD
  0
ENDBLK
  0
BLOCK
  8
A-POWR-1
  2
FIXT-5_Way
 70
64
 10
0.0
 20
0.0
  0
LINE
  8
A-POWR-1
 10
1.506088
 20
-2.396511
 11
-2.053707
 21
-2.396511
  0
ARC
  8
A-POWR-1
 10
-2.053707
 20
-4.016987
 40
1.620476
 50
90.000000
 51
181.041633
  0
ARC
  8
A-POWR-1
 10
-1.993710
 20
-4.015897
 40
1.680484
 50
181.041622
 51
270.000000
  0
LINE
  8
A-POWR-1
 10
-1.993710
 20
-5.696380
 11
-0.263288
 21
-5.696380
  0
ARC
  8
A-POWR-1
 10
-0.173292
 20
-7.420123
 40
1.636124
 50
270.000000
 51
1.534338
  0
ARC
  8
A-POWR-1
 10
-0.263288
 20
-7.422534
 40
1.726153
 50
1.534347
 51
90.000000
  0
LINE
  8
A-POWR-1
 10
-0.173292
 20
-9.056247
 11
-3.662938
 21
-9.056247
  0
LINE
  8
A-POWR-1
 10
-1.156680
 20
-0.026605
 11
-1.156680
 21
-11.036168
  0
TEXT
  8
A-POWR-1
 10
0.369950
 20
-14.470437
 40
2.799311
  1
5
  7
STANDARD
  0
ENDBLK
  0
ENDSEC
  0
SECTION
  2
ENTITIES
  0
LINE
  8
A-WALL-1
 10
-270.000000
 20
-280.000000
 11
-270.000000
 21
-259.000000
  0
LINE
  8
A-WALL-1
 10
-274.000000
 20
-255.000000
 11
-274.000000
 21
-280.000000
  0
LINE
  8
A-WALL-1
 10
-270.000000
 20
-416.000000
 11
-270.000000
 21
-312.000000
  0
LINE
  8
A-WALL-1
 10
-274.000000
 20
-312.000000
 11
-274.000000
 21
-416.000000
  0
LINE
  8
A-WALL-1
 10
-270.000000
 20
-468.000000
 11
-270.000000
 21
-448.000000
  0
LINE
  8
A-WALL-1
 10
-274.000000
 20
-448.000000
 11
-274.000000
 21
-470.000000
  0
LINE
  8
A-GLAZ-1
 10
-274.000000
 20
-280.000000
 11
-270.000000
 21
-280.000000
  0
LINE
  8
A-GLAZ-1
 10
-270.000000
 20
-312.000000
 11
-274.000000
 21
-312.000000
  0
LINE
  8
A-GLAZ-1
 10
-270.000000
 20
-312.000000
 11
-270.000000
 21
-280.000000
  0
LINE
  8
A-GLAZ-1
 10
-274.000000
 20
-280.000000
 11
-274.000000
 21
-312.000000
  0
LINE
  8
A-GLAZ-1
 10
-272.000000
 20
-280.000000
 11
-272.000000
 21
-312.000000
  0
TEXT
  8
A-DIMS-1
 10
-278.508343
 20
-305.632036
 40
5.598621
  1
2862
 50
90.000000
  7
STANDARD
  0
LINE
  8
A-GLAZ-1
 10
-274.000000
 20
-416.000000
 11
-270.000000
 21
-416.000000
  0
LINE
  8
A-GLAZ-1
 10
-270.000000
 20
-448.000000
 11
-274.000000
 21
-448.000000
  0
LINE
  8
A-GLAZ-1
 10
-270.000000
 20
-448.000000
 11
-270.000000
 21
-416.000000
  0
LINE
  8
A-GLAZ-1
 10
-274.000000
 20
-416.000000
 11
-274.000000
 21
-448.000000
  0
LINE
  8
A-GLAZ-1
 10
-272.000000
 20
-416.000000
 11
-272.000000
 21
-448.000000
  0
TEXT
  8
A-DIMS-1
 10
-278.508343
 20
-441.632036
 40
5.598621
  1
2862
 50
90.000000
  7
STANDARD
  0
LINE
  8
A-WALL-1
 10
-268.000000
 20
-521.000000
 11
-268.000000
 21
-472.000000
  0
LINE
  8
A-WALL-1
 10
-274.000000
 20
-470.000000
 11
-274.000000
 21
-521.000000
  0
LINE
  8
A-WALL-1
 10
-268.000000
 20
-603.000000
 11
-268.000000
 21
-557.000000
  0
LINE
  8
A-WALL-1
 10
-274.000000
 20
-557.000000
 11
-274.000000
 21
-605.000000
  0
LINE
  8
A-GLAZ-1
 10
-274.000000
 20
-521.000000
 11
-268.000000
 21
-521.000000
  0
LINE
  8
A-GLAZ-1
 10
-268.000000
 20
-557.000000
 11
-274.000000
 21
-557.000000
  0
LINE
  8
A-GLAZ-1
 10
-268.000000
 20
-557.000000
 11
-268.000000
 21
-521.000000
  0
LINE
  8
A-GLAZ-1
 10
-274.000000
 20
-521.000000
 11
-274.000000
 21
-557.000000
  0
LINE
  8
A-GLAZ-1
 10
-271.000000
 20
-521.000000
 11
-271.000000
 21
-557.000000
  0
TEXT
  8
A-DIMS-1
 10
-278.508343
 20
-551.040045
 40
5.598621
  1
30610
 50
90.000000
  7
STANDARD
  0
LINE
  8
A-WALL-1
 10
-174.000000
 20
-639.172791
 11
-210.172806
 21
-603.000000
  0
LINE
  8
A-WALL-1
 10
-209.829651
 20
-609.000000
 11
-178.000000
 21
-640.829651
  0
LINE
  8
A-WALL-1
 10
78.000000
 20
-839.000000
 11
102.000000
 21
-839.000000
  0
LINE
  8
A-WALL-1
 10
98.000000
 20
-835.000000
 11
78.000000
 21
-835.000000
  0
LINE
  8
A-WALL-1
 10
-42.000000
 20
-839.000000
 11
-18.000000
 21
-839.000000
  0
LINE
  8
A-WALL-1
 10
-18.000000
 20
-835.000000
 11
-38.000000
 21
-835.000000
  0
LINE
  8
A-GLAZ-1
 10
78.000000
 20
-839.000000
 11
78.000000
 21
-835.000000
  0
LINE
  8
A-GLAZ-1
 10
-18.000000
 20
-839.000000
 11
-18.000000
 21
-835.000000
  0
LINE
  8
A-GLAZ-1
  6
DASHED
 10
78.000000
 20
-835.000000
 11
-18.000000
 21
-835.000000
  0
LINE
  8
A-GLAZ-1
  6
DASHED
 10
78.000000
 20
-758.920000
 11
-18.000000
 21
-758.920000
  0
LINE
  8
A-GLAZ-1
  6
DASHED
 10
78.000000
 20
-835.000000
 11
78.000000
 21
-758.920000
  0
LINE
  8
A-GLAZ-1
  6
DASHED
 10
-18.000000
 20
-835.000000
 11
-18.000000
 21
-758.920000
  0
LINE
  8
A-GLAZ-1
 10
78.000000
 20
-839.000000
 11
-18.000000
 21
-839.000000
  0
TEXT
  8
A-DIMS-1
 10
20.367964
 20
-848.859474
 40
5.598621
  1
8070
  7
STANDARD
  0
LINE
  8
A-WALL-1
 10
98.000000
 20
-807.000000
 11
98.000000
 21
-835.000000
  0
LINE
  8
A-WALL-1
 10
102.000000
 20
-839.000000
 11
102.000000
 21
-811.000000
  0
LINE
  8
A-WALL-1
 10
212.000000
 20
-811.000000
 11
230.000000
 21
-811.000000
  0
LINE
  8
A-WALL-1
 10
226.000000
 20
-807.000000
 11
212.000000
 21
-807.000000
  0
LINE
  8
A-WALL-1
 10
102.000000
 20
-811.000000
 11
116.000000
 21
-811.000000
  0
LINE
  8
A-WALL-1
 10
116.000000
 20
-807.000000
 11
98.000000
 21
-807.000000
  0
LINE
  8
A-GLAZ-1
 10
212.000000
 20
-811.000000
 11
212.000000
 21
-807.000000
  0
LINE
  8
A-GLAZ-1
 10
116.000000
 20
-811.000000
 11
116.000000
 21
-807.000000
  0
LINE
  8
A-GLAZ-1
  6
DASHED
 10
212.000000
 20
-807.000000
 11
116.000000
 21
-807.000000
  0
LINE
  8
A-GLAZ-1
  6
DASHED
 10
212.000000
 20
-730.920000
 11
116.000000
 21
-730.920000
  0
LINE
  8
A-GLAZ-1
  6
DASHED
 10
212.000000
 20
-807.000000
 11
212.000000
 21
-730.920000
  0
LINE
  8
A-GLAZ-1
  6
DASHED
 10
116.000000
 20
-807.000000
 11
116.000000
 21
-730.920000
  0
LINE
  8
A-GLAZ-1
 10
212.000000
 20
-811.000000
 11
116.000000
 21
-811.000000
  0
TEXT
  8
A-DIMS-1
 10
154.367964
 20
-820.859474
 40
5.598621
  1
8070
  7
STANDARD
  0
LINE
  8
A-WALL-1
 10
226.000000
 20
-259.000000
 11
226.000000
 21
-415.000000
  0
LINE
  8
A-WALL-1
 10
230.000000
 20
-436.000000
 11
230.000000
 21
-255.000000
  0
LINE
  8
A-WALL-1
 10
226.000000
 20
-419.000000
 11
226.000000
 21
-437.656860
  0
LINE
  8
A-WALL-1
 10
226.000000
 20
-544.343140
 11
226.000000
 21
-563.000000
  0
LINE
  8
A-WALL-1
 10
230.000000
 20
-571.000000
 11
230.000000
 21
-546.000000
  0
LINE
  8
A-WALL-1
 10
226.000000
 20
-567.000000
 11
226.000000
 21
-571.000000
  0
LINE
  8
A-WALL-1
 10
230.000000
 20
-811.000000
 11
230.000000
 21
-607.000000
  0
LINE
  8
A-WALL-1
 10
226.000000
 20
-607.000000
 11
226.000000
 21
-807.000000
  0
LINE
  8
A-WALL-1
 10
230.000000
 20
-436.000000
 11
233.459262
 21
-439.459262
  0
LINE
  8
A-WALL-1
 10
250.429825
 20
-456.429825
 11
254.000000
 21
-460.000000
  0
LINE
  8
A-WALL-1
 10
226.000000
 20
-437.656854
 11
230.630835
 21
-442.287689
  0
LINE
  8
A-WALL-1
 10
247.601398
 20
-459.258252
 11
250.000000
 21
-461.656854
  0
LINE
  8
A-GLAZ-1
 10
250.429825
 20
-456.429825
 11
247.601398
 21
-459.258252
  0
LINE
  8
A-GLAZ-1
 10
230.630835
 20
-442.287689
 11
233.459262
 21
-439.459262
  0
LINE
  8
A-GLAZ-1
 10
230.630835
 20
-442.287689
 11
247.601398
 21
-459.258252
  0
LINE
  8
A-GLAZ-1
 10
250.429825
 20
-456.429825
 11
233.459262
 21
-439.459262
  0
LINE
  8
A-GLAZ-1
 10
249.015611
 20
-457.844039
 11
232.045049
 21
-440.873476
  0
LINE
  8
A-WALL-1
 10
230.000000
 20
-546.000000
 11
233.459262
 21
-542.540738
  0
LINE
  8
A-WALL-1
 10
250.429825
 20
-525.570175
 11
254.000000
 21
-522.000000
  0
LINE
  8
A-WALL-1
 10
226.000000
 20
-544.343146
 11
230.630835
 21
-539.712311
  0
LINE
  8
A-WALL-1
 10
247.601398
 20
-522.741748
 11
250.000000
 21
-520.343146
  0
LINE
  8
A-GLAZ-1
 10
233.459262
 20
-542.540738
 11
230.630835
 21
-539.712311
  0
LINE
  8
A-GLAZ-1
 10
247.601398
 20
-522.741748
 11
250.429825
 21
-525.570175
  0
LINE
  8
A-GLAZ-1
 10
247.601398
 20
-522.741748
 11
230.630835
 21
-539.712311
  0
LINE
  8
A-GLAZ-1
 10
233.459262
 20
-542.540738
 11
250.429825
 21
-525.570175
  0
LINE
  8
A-GLAZ-1
 10
232.045049
 20
-541.126524
 11
249.015611
 21
-524.155961
  0
LINE
  8
A-WALL-1
 10
254.000000
 20
-460.000000
 11
254.000000
 21
-464.000000
  0
LINE
  8
A-WALL-1
 10
254.000000
 20
-518.000000
 11
254.000000
 21
-522.000000
  0
LINE
  8
A-WALL-1
 10
250.000000
 20
-461.656854
 11
250.000000
 21
-464.000000
  0
LINE
  8
A-WALL-1
 10
250.000000
 20
-518.000000
 11
250.000000
 21
-520.343146
  0
LINE
  8
A-GLAZ-1
 10
254.000000
 20
-518.000000
 11
250.000000
 21
-518.000000
  0
LINE
  8
A-GLAZ-1
 10
250.000000
 20
-464.000000
 11
254.000000
 21
-464.000000
  0
LINE
  8
A-GLAZ-1
 10
250.000000
 20
-464.000000
 11
250.000000
 21
-518.000000
  0
LINE
  8
A-GLAZ-1
 10
254.000000
 20
-518.000000
 11
254.000000
 21
-464.000000
  0
LINE
  8
A-GLAZ-1
 10
252.000000
 20
-518.000000
 11
252.000000
 21
-464.000000
  0
LINE
  8
A-DIMS-1
 10
238.920000
 20
-436.000000
 11
232.920000
 21
-436.000000
  0
LINE
  8
A-DIMS-1
 10
234.420000
 20
-439.000000
 11
235.920000
 21
-436.000000
  0
LINE
  8
A-DIMS-1
 10
238.920000
 20
-546.000000
 11
232.920000
 21
-546.000000
  0
LINE
  8
A-DIMS-1
 10
237.420000
 20
-543.000000
 11
235.920000
 21
-546.000000
  0
LINE
  8
A-DIMS-1
 10
235.920000
 20
-482.593708
 11
235.920000
 21
-436.000000
  0
LINE
  8
A-DIMS-1
 10
235.920000
 20
-499.406292
 11
235.920000
 21
-546.000000
  0
TEXT
  8
A-DIMS-1
 10
238.595566
 20
-496.618687
 40
5.598621
  1
9'2
 50
90.000000
  7
STANDARD
  0
LINE
  8
A-DIMS-1
 10
233.000000
 20
-419.500000
 11
230.000000
 21
-418.000000
  0
LINE
  8
A-DIMS-1
 10
254.000000
 20
-415.000000
 11
254.000000
 21
-431.000000
  0
LINE
  8
A-DIMS-1
 10
251.000000
 20
-416.500000
 11
254.000000
 21
-418.000000
  0
LINE
  8
A-DIMS-1
 10
236.001717
 20
-418.000000
 11
230.000000
 21
-418.000000
  0
LINE
  8
A-DIMS-1
 10
247.998283
 20
-418.000000
 11
254.000000
 21
-418.000000
  0
TEXT
  8
A-DIMS-1
 10
238.789321
 20
-420.675566
 40
5.598621
  1
2'
  7
STANDARD
  0
LINE
  8
A-DIMS-1
 10
247.000000
 20
-460.000000
 11
241.000000
 21
-460.000000
  0
LINE
  8
A-DIMS-1
 10
242.500000
 20
-463.000000
 11
244.000000
 21
-460.000000
  0
LINE
  8
A-DIMS-1
 10
247.000000
 20
-522.000000
 11
241.000000
 21
-522.000000
  0
LINE
  8
A-DIMS-1
 10
245.500000
 20
-519.000000
 11
244.000000
 21
-522.000000
  0
LINE
  8
A-DIMS-1
 10
244.000000
 20
-482.593708
 11
244.000000
 21
-460.000000
  0
LINE
  8
A-DIMS-1
 10
244.000000
 20
-499.406292
 11
244.000000
 21
-522.000000
  0
TEXT
  8
A-DIMS-1
 10
246.675566
 20
-496.618687
 40
5.598621
  1
5'2
 50
90.000000
  7
STANDARD
  0
TEXT
  8
A-DIMS-1
 10
238.321546
 20
-437.945786
 40
5.598621
  1
2062
 50
-44.900000
  7
STANDARD
  0
TEXT
  8
A-DIMS-1
 10
242.105367
 20
-547.838035
 40
5.598621
  1
2062
 50
44.900000
  7
STANDARD
  0
TEXT
  8
A-DIMS-1
 10
263.859474
 20
-500.632036
 40
5.598621
  1
4662
 50
90.000000
  7
STANDARD
  0
LINE
  8
A-GLAZ-1
 10
230.000000
 20
-571.000000
 11
226.000000
 21
-571.000000
  0
LINE
  8
A-GLAZ-1
 10
230.000000
 20
-607.000000
 11
226.000000
 21
-607.000000
  0
LINE
  8
A-GLAZ-1
 10
226.000000
 20
-571.000000
 11
190.000000
 21
-571.000000
  0
LINE
  8
A-GLAZ-1
 10
190.000000
 20
-572.750000
 11
226.000000
 21
-572.750000
  0
LINE
  8
A-GLAZ-1
 10
226.000000
 20
-572.750000
 11
226.000000
 21
-571.000000
  0
ARC
  8
A-GLAZ-1
 10
226.000000
 20
-571.000000
 40
36.000000
 50
180.000000
 51
270.000000
  0
LINE
  8
A-GLAZ-1
 10
230.000000
 20
-571.000000
 11
230.000000
 21
-607.000000
  0
TEXT
  8
A-DIMS-1
 10
239.859474
 20
-598.632036
 40
5.598621
  1
3068
 50
90.000000
  7
STANDARD
  0
LINE
  8
A-WALL-1
 10
-245.000000
 20
-255.000000
 11
-274.000000
 21
-255.000000
  0
LINE
  8
A-WALL-1
 10
-270.000000
 20
-259.000000
 11
-243.343140
 21
-259.000000
  0
LINE
  8
A-WALL-1
 10
-114.000000
 20
-255.000000
 11
-143.000000
 21
-255.000000
  0
LINE
  8
A-WALL-1
 10
-144.656860
 20
-259.000000
 11
-114.000000
 21
-259.000000
  0
LINE
  8
A-WALL-1
 10
-245.000000
 20
-255.000000
 11
-240.747845
 21
-250.747845
  0
LINE
  8
A-WALL-1
 10
-222.363068
 20
-232.363068
 11
-218.000000
 21
-228.000000
  0
LINE
  8
A-WALL-1
 10
-243.343146
 20
-259.000000
 11
-237.919417
 21
-253.576272
  0
LINE
  8
A-WALL-1
 10
-219.534641
 20
-235.191495
 11
-216.343146
 21
-232.000000
  0
LINE
  8
A-GLAZ-1
 10
-222.363068
 20
-232.363068
 11
-219.534641
 21
-235.191495
  0
LINE
  8
A-GLAZ-1
 10
-237.919417
 20
-253.576272
 11
-240.747845
 21
-250.747845
  0
LINE
  8
A-GLAZ-1
 10
-237.919417
 20
-253.576272
 11
-219.534641
 21
-235.191495
  0
LINE
  8
A-GLAZ-1
 10
-222.363068
 20
-232.363068
 11
-240.747845
 21
-250.747845
  0
LINE
  8
A-GLAZ-1
 10
-220.948855
 20
-233.777282
 11
-239.333631
 21
-252.162058
  0
LINE
  8
A-WALL-1
 10
-143.000000
 20
-255.000000
 11
-147.252155
 21
-250.747845
  0
LINE
  8
A-WALL-1
 10
-165.636932
 20
-232.363068
 11
-170.000000
 21
-228.000000
  0
LINE
  8
A-WALL-1
 10
-144.656854
 20
-259.000000
 11
-150.080583
 21
-253.576272
  0
LINE
  8
A-WALL-1
 10
-168.465359
 20
-235.191495
 11
-171.656854
 21
-232.000000
  0
LINE
  8
A-GLAZ-1
 10
-147.252155
 20
-250.747845
 11
-150.080583
 21
-253.576272
  0
LINE
  8
A-GLAZ-1
 10
-168.465359
 20
-235.191495
 11
-165.636932
 21
-232.363068
  0
LINE
  8
A-GLAZ-1
 10
-168.465359
 20
-235.191495
 11
-150.080583
 21
-253.576272
  0
LINE
  8
A-GLAZ-1
 10
-147.252155
 20
-250.747845
 11
-165.636932
 21
-232.363068
  0
LINE
  8
A-GLAZ-1
 10
-148.666369
 20
-252.162058
 11
-167.051145
 21
-233.777282
  0
LINE
  8
A-WALL-1
 10
-218.000000
 20
-228.000000
 11
-211.000000
 21
-228.000000
  0
LINE
  8
A-WALL-1
 10
-177.000000
 20
-228.000000
 11
-170.000000
 21
-228.000000
  0
LINE
  8
A-WALL-1
 10
-216.343146
 20
-232.000000
 11
-211.000000
 21
-232.000000
  0
LINE
  8
A-WALL-1
 10
-177.000000
 20
-232.000000
 11
-171.656854
 21
-232.000000
  0
LINE
  8
A-GLAZ-1
 10
-177.000000
 20
-228.000000
 11
-177.000000
 21
-232.000000
  0
LINE
  8
A-GLAZ-1
 10
-211.000000
 20
-232.000000
 11
-211.000000
 21
-228.000000
  0
LINE
  8
A-GLAZ-1
 10
-211.000000
 20
-232.000000
 11
-177.000000
 21
-232.000000
  0
LINE
  8
A-GLAZ-1
 10
-177.000000
 20
-228.000000
 11
-211.000000
 21
-228.000000
  0
LINE
  8
A-GLAZ-1
 10
-177.000000
 20
-230.000000
 11
-211.000000
 21
-230.000000
  0
LINE
  8
A-WALL-1
 10
-245.000000
 20
-259.000000
 11
-143.000000
 21
-259.000000
  0
LINE
  8
A-DIMS-1
 10
-245.000000
 20
-246.080000
 11
-245.000000
 21
-252.080000
  0
LINE
  8
A-DIMS-1
 10
-242.000000
 20
-250.580000
 11
-245.000000
 21
-249.080000
  0
LINE
  8
A-DIMS-1
 10
-143.000000
 20
-246.080000
 11
-143.000000
 21
-252.080000
  0
LINE
  8
A-DIMS-1
 10
-146.000000
 20
-247.580000
 11
-143.000000
 21
-249.080000
  0
LINE
  8
A-DIMS-1
 10
-202.406292
 20
-249.080000
 11
-245.000000
 21
-249.080000
  0
LINE
  8
A-DIMS-1
 10
-185.593708
 20
-249.080000
 11
-143.000000
 21
-249.080000
  0
TEXT
  8
A-DIMS-1
 10
-199.618687
 20
-251.755566
 40
5.598621
  1
8'6
  7
STANDARD
  0
LINE
  8
A-DIMS-1
 10
-261.500000
 20
-252.000000
 11
-263.000000
 21
-255.000000
  0
LINE
  8
A-DIMS-1
 10
-266.000000
 20
-228.000000
 11
-250.000000
 21
-228.000000
  0
LINE
  8
A-DIMS-1
 10
-264.500000
 20
-231.000000
 11
-263.000000
 21
-228.000000
  0
LINE
  8
A-DIMS-1
 10
-263.000000
 20
-249.906292
 11
-263.000000
 21
-255.000000
  0
LINE
  8
A-DIMS-1
 10
-263.000000
 20
-233.093708
 11
-263.000000
 21
-228.000000
  0
TEXT
  8
A-DIMS-1
 10
-260.324434
 20
-247.118687
 40
5.598621
  1
2'3
 50
90.000000
  7
STANDARD
  0
LINE
  8
A-DIMS-1
 10
-218.000000
 20
-235.000000
 11
-218.000000
 21
-241.000000
  0
LINE
  8
A-DIMS-1
 10
-215.000000
 20
-239.500000
 11
-218.000000
 21
-238.000000
  0
LINE
  8
A-DIMS-1
 10
-170.000000
 20
-235.000000
 11
-170.000000
 21
-241.000000
  0
LINE
  8
A-DIMS-1
 10
-173.000000
 20
-236.500000
 11
-170.000000
 21
-238.000000
  0
LINE
  8
A-DIMS-1
 10
-199.998283
 20
-238.000000
 11
-218.000000
 21
-238.000000
  0
LINE
  8
A-DIMS-1
 10
-188.001717
 20
-238.000000
 11
-170.000000
 21
-238.000000
  0
TEXT
  8
A-DIMS-1
 10
-197.210679
 20
-240.675566
 40
5.598621
  1
4'
  7
STANDARD
  0
TEXT
  8
A-DIMS-1
 10
-241.554214
 20
-245.178454
 40
5.598621
  1
2252
 50
45.000000
  7
STANDARD
  0
TEXT
  8
A-DIMS-1
 10
-160.067542
 20
-231.556699
 40
5.598621
  1
2252
 50
314.900000
  7
STANDARD
  0
TEXT
  8
A-DIMS-1
 10
-206.040045
 20
-223.491657
 40
5.598621
  1
21052
  7
STANDARD
  0
LINE
  8
A-WALL-1
 10
-110.000000
 20
-105.000000
 11
-110.000000
 21
-99.000000
  0
LINE
  8
A-WALL-1
 10
-114.000000
 20
-95.000000
 11
-114.000000
 21
-105.000000
  0
LINE
  8
A-WALL-1
 10
-114.000000
 20
-141.000000
 11
-114.000000
 21
-255.000000
  0
LINE
  8
A-WALL-1
 10
-110.000000
 20
-300.000000
 11
-110.000000
 21
-141.000000
  0
LINE
  8
A-WALL-1
 10
-114.000000
 20
-259.000000
 11
-114.000000
 21
-300.000000
  0
LINE
  8
A-WALL-1
 10
-110.000000
 20
-409.000000
 11
-110.000000
 21
-336.000000
  0
LINE
  8
A-WALL-1
 10
-114.000000
 20
-336.000000
 11
-114.000000
 21
-409.000000
  0
LINE
  8
A-GLAZ-1
 10
-114.000000
 20
-105.000000
 11
-110.000000
 21
-105.000000
  0
LINE
  8
A-GLAZ-1
 10
-110.000000
 20
-141.000000
 11
-114.000000
 21
-141.000000
  0
LINE
  8
A-GLAZ-1
 10
-110.000000
 20
-141.000000
 11
-110.000000
 21
-105.000000
  0
LINE
  8
A-GLAZ-1
 10
-114.000000
 20
-105.000000
 11
-114.000000
 21
-141.000000
  0
LINE
  8
A-GLAZ-1
 10
-112.000000
 20
-105.000000
 11
-112.000000
 21
-141.000000
  0
TEXT
  8
A-DIMS-1
 10
-118.508343
 20
-132.632036
 40
5.598621
  1
3062
 50
90.000000
  7
STANDARD
  0
LINE
  8
A-GLAZ-1
 10
-110.000000
 20
-300.000000
 11
-114.000000
 21
-300.000000
  0
LINE
  8
A-GLAZ-1
 10
-110.000000
 20
-336.000000
 11
-114.000000
 21
-336.000000
  0
TEXT
  8
A-DIMS-1
 10
-109.324434
 20
-327.632036
 40
5.598621
  1
3078
 50
90.000000
  7
STANDARD
  0
LINE
  8
A-WALL-1
  6
DOTTED
 10
70.000000
 20
-259.000000
 11
204.000000
 21
-259.000000
  0
LINE
  8
A-WALL-1
  6
DOTTED
 10
202.000000
 20
-257.000000
 11
72.000000
 21
-257.000000
  0
LINE
  8
A-WALL-1
 10
202.000000
 20
-231.000000
 11
202.000000
 21
-259.000000
  0
LINE
  8
A-WALL-1
 10
206.000000
 20
-255.000000
 11
206.000000
 21
-231.000000
  0
LINE
  8
A-WALL-1
 10
202.000000
 20
-175.000000
 11
202.000000
 21
-199.000000
  0
LINE
  8
A-WALL-1
 10
206.000000
 20
-199.000000
 11
206.000000
 21
-171.000000
  0
LINE
  8
A-GLAZ-1
 10
206.000000
 20
-231.000000
 11
202.000000
 21
-231.000000
  0
LINE
  8
A-GLAZ-1
 10
202.000000
 20
-199.000000
 11
206.000000
 21
-199.000000
  0
LINE
  8
A-GLAZ-1
 10
202.000000
 20
-199.000000
 11
202.000000
 21
-231.000000
  0
LINE
  8
A-GLAZ-1
 10
206.000000
 20
-231.000000
 11
206.000000
 21
-199.000000
  0
LINE
  8
A-GLAZ-1
 10
204.000000
 20
-231.000000
 11
204.000000
 21
-199.000000
  0
TEXT
  8
A-DIMS-1
 10
215.859474
 20
-224.632036
 40
5.598621
  1
2852
 50
90.000000
  7
STANDARD
  0
LINE
  8
A-WALL-1
 10
187.000000
 20
-175.000000
 11
202.000000
 21
-175.000000
  0
LINE
  8
A-WALL-1
 10
206.000000
 20
-171.000000
 11
187.000000
 21
-171.000000
  0
LINE
  8
A-WALL-1
 10
155.000000
 20
-175.000000
 11
157.000000
 21
-175.000000
  0
LINE
  8
A-WALL-1
 10
157.000000
 20
-171.000000
 11
155.000000
 21
-171.000000
  0
LINE
  8
A-WALL-1
 10
70.000000
 20
-175.000000
 11
93.000000
 21
-175.000000
  0
LINE
  8
A-WALL-1
 10
93.000000
 20
-171.000000
 11
74.000000
 21
-171.000000
  0
LINE
  8
A-GLAZ-1
 10
187.000000
 20
-171.000000
 11
187.000000
 21
-175.000000
  0
LINE
  8
A-GLAZ-1
 10
157.000000
 20
-175.000000
 11
157.000000
 21
-171.000000
  0
LINE
  8
A-GLAZ-1
 10
157.000000
 20
-175.000000
 11
187.000000
 21
-175.000000
  0
LINE
  8
A-GLAZ-1
 10
187.000000
 20
-171.000000
 11
157.000000
 21
-171.000000
  0
LINE
  8
A-GLAZ-1
 10
187.000000
 20
-173.000000
 11
157.000000
 21
-173.000000
  0
TEXT
  8
A-DIMS-1
 10
162.367964
 20
-166.491657
 40
5.598621
  1
2668
  7
STANDARD
  0
LINE
  8
A-GLAZ-1
 10
155.000000
 20
-175.000000
 11
155.000000
 21
-171.000000
  0
LINE
  8
A-GLAZ-1
 10
93.000000
 20
-175.000000
 11
93.000000
 21
-171.000000
  0
LINE
  8
A-GLAZ-1
 10
155.000000
 20
-173.000000
 11
124.000000
 21
-173.000000
  0
LINE
  8
A-GLAZ-1
 10
124.000000
 20
-173.000000
 11
124.000000
 21
-172.000000
  0
LINE
  8
A-GLAZ-1
 10
124.000000
 20
-172.000000
 11
155.000000
 21
-172.000000
  0
LINE
  8
A-GLAZ-1
 10
155.000000
 20
-172.000000
 11
155.000000
 21
-173.000000
  0
LINE
  8
A-GLAZ-1
 10
139.500000
 20
-175.000000
 11
108.500000
 21
-175.000000
  0
LINE
  8
A-GLAZ-1
 10
108.500000
 20
-175.000000
 11
108.500000
 21
-174.000000
  0
LINE
  8
A-GLAZ-1
 10
108.500000
 20
-174.000000
 11
139.500000
 21
-174.000000
  0
LINE
  8
A-GLAZ-1
 10
139.500000
 20
-174.000000
 11
139.500000
 21
-175.000000
  0
LINE
  8
A-GLAZ-1
 10
155.000000
 20
-171.000000
 11
93.000000
 21
-171.000000
  0
TEXT
  8
A-DIMS-1
 10
114.367964
 20
-166.491657
 40
5.598621
  1
5268
  7
STANDARD
  0
LINE
  8
A-WALL-1
  6
DOTTED
 10
70.000000
 20
-173.000000
 11
70.000000
 21
-259.000000
  0
LINE
  8
A-WALL-1
  6
DOTTED
 10
72.000000
 20
-257.000000
 11
72.000000
 21
-175.000000
  0
LINE
  8
A-WALL-1
 10
58.000000
 20
-99.000000
 11
70.000000
 21
-99.000000
  0
LINE
  8
A-WALL-1
 10
74.000000
 20
-95.000000
 11
58.000000
 21
-95.000000
  0
LINE
  8
A-WALL-1
 10
-62.000000
 20
-99.000000
 11
22.000000
 21
-99.000000
  0
LINE
  8
A-WALL-1
 10
22.000000
 20
-95.000000
 11
-62.000000
 21
-95.000000
  0
LINE
  8
A-WALL-1
 10
-110.000000
 20
-99.000000
 11
-98.000000
 21
-99.000000
  0
LINE
  8
A-WALL-1
 10
-98.000000
 20
-95.000000
 11
-114.000000
 21
-95.000000
  0
LINE
  8
A-GLAZ-1
 10
58.000000
 20
-95.000000
 11
58.000000
 21
-99.000000
  0
LINE
  8
A-GLAZ-1
 10
22.000000
 20
-99.000000
 11
22.000000
 21
-95.000000
  0
LINE
  8
A-GLAZ-1
 10
22.000000
 20
-99.000000
 11
58.000000
 21
-99.000000
  0
LINE
  8
A-GLAZ-1
 10
58.000000
 20
-95.000000
 11
22.000000
 21
-95.000000
  0
LINE
  8
A-GLAZ-1
 10
58.000000
 20
-97.000000
 11
22.000000
 21
-97.000000
  0
TEXT
  8
A-DIMS-1
 10
30.367964
 20
-90.491657
 40
5.598621
  1
3062
  7
STANDARD
  0
LINE
  8
A-GLAZ-1
 10
-62.000000
 20
-95.000000
 11
-62.000000
 21
-99.000000
  0
LINE
  8
A-GLAZ-1
 10
-98.000000
 20
-99.000000
 11
-98.000000
 21
-95.000000
  0
LINE
  8
A-GLAZ-1
 10
-98.000000
 20
-99.000000
 11
-62.000000
 21
-99.000000
  0
LINE
  8
A-GLAZ-1
 10
-62.000000
 20
-95.000000
 11
-98.000000
 21
-95.000000
  0
LINE
  8
A-GLAZ-1
 10
-62.000000
 20
-97.000000
 11
-98.000000
 21
-97.000000
  0
TEXT
  8
A-DIMS-1
 10
-89.632036
 20
-90.491657
 40
5.598621
  1
3062
  7
STANDARD
  0
LINE
  8
A-WALL-1
 10
-172.429367
 20
-468.000000
 11
-270.000000
 21
-468.000000
  0
LINE
  8
A-WALL-1
 10
-268.000000
 20
-472.000000
 11
-173.600937
 21
-472.000000
  0
LINE
  8
A-WALL-1
 10
-163.115662
 20
-458.686279
 11
-172.429367
 21
-468.000000
  0
LINE
  8
A-WALL-1
 10
-169.600937
 20
-470.828430
 11
-160.287231
 21
-461.514709
  0
LINE
  8
A-WALL-1
 10
-113.429367
 20
-409.000000
 11
-120.689247
 21
-416.259888
  0
LINE
  8
A-WALL-1
 10
-117.860825
 20
-419.088318
 11
-111.772514
 21
-413.000000
  0
LINE
  8
A-GLAZ-1
 10
-163.115657
 20
-458.686292
 11
-160.287230
 21
-461.514719
  0
LINE
  8
A-GLAZ-1
 10
-120.689250
 20
-416.259885
 11
-117.860823
 21
-419.088312
  0
TEXT
  8
A-DIMS-1
 10
-145.407207
 20
-447.590090
 40
5.598621
  1
5078
 50
45.000000
  7
STANDARD
  0
LINE
  8
A-WALL-1
 10
99.000000
 20
-419.000000
 11
226.000000
 21
-419.000000
  0
LINE
  8
A-WALL-1
 10
226.000000
 20
-415.000000
 11
99.000000
 21
-415.000000
  0
LINE
  8
A-WALL-1
 10
67.000000
 20
-415.000000
 11
65.000000
 21
-415.000000
  0
LINE
  8
A-WALL-1
 10
42.000000
 20
-419.000000
 11
67.000000
 21
-419.000000
  0
LINE
  8
A-WALL-1
 10
61.000000
 20
-415.000000
 11
42.000000
 21
-415.000000
  0
LINE
  8
A-GLAZ-1
 10
99.000000
 20
-419.000000
 11
99.000000
 21
-418.000000
  0
LINE
  8
A-GLAZ-1
 10
99.000000
 20
-416.000000
 11
99.000000
 21
-415.000000
  0
LINE
  8
A-GLAZ-1
 10
67.000000
 20
-419.000000
 11
67.000000
 21
-415.000000
  0
LINE
  8
A-GLAZ-1
 10
115.000000
 20
-416.312500
 11
115.000000
 21
-417.687500
  0
LINE
  8
A-GLAZ-1
 10
83.000000
 20
-416.312500
 11
83.000000
 21
-417.687500
  0
LINE
  8
A-GLAZ-1
 10
115.000000
 20
-416.312500
 11
83.000000
 21
-416.312500
  0
LINE
  8
A-GLAZ-1
 10
115.000000
 20
-417.687500
 11
83.000000
 21
-417.687500
  0
TEXT
  8
A-DIMS-1
 10
73.367964
 20
-410.491657
 40
5.598621
  1
2868
  7
STANDARD
  0
LINE
  8
A-WALL-1
 10
38.000000
 20
-391.000000
 11
38.000000
 21
-405.871368
  0
LINE
  8
A-WALL-1
 10
42.000000
 20
-415.000000
 11
42.000000
 21
-391.000000
  0
LINE
  8
A-WALL-1
 10
38.000000
 20
-409.871368
 11
38.000000
 21
-468.000000
  0
LINE
  8
A-WALL-1
 10
42.000000
 20
-473.000000
 11
42.000000
 21
-419.000000
  0
LINE
  8
A-WALL-1
 10
38.000000
 20
-472.000000
 11
38.000000
 21
-473.000000
  0
LINE
  8
A-WALL-1
 10
38.000000
 20
-521.000000
 11
38.000000
 21
-522.000000
  0
LINE
  8
A-WALL-1
 10
42.000000
 20
-563.000000
 11
42.000000
 21
-521.000000
  0
LINE
  8
A-WALL-1
 10
38.000000
 20
-526.000000
 11
38.000000
 21
-565.000000
  0
LINE
  8
A-GLAZ-1
 10
42.000000
 20
-473.000000
 11
38.000000
 21
-473.000000
  0
LINE
  8
A-GLAZ-1
 10
42.000000
 20
-521.000000
 11
38.000000
 21
-521.000000
  0
TEXT
  8
A-DIMS-1
 10
42.675566
 20
-506.632036
 40
5.598621
  1
4078
 50
90.000000
  7
STANDARD
  0
LINE
  8
A-WALL-1
  6
DOTTED
 10
-204.172806
 20
-609.000000
 11
-170.600937
 21
-609.000000
  0
LINE
  8
A-WALL-1
  6
DOTTED
 10
-172.600937
 20
-603.000000
 11
-210.001221
 21
-603.000000
  0
LINE
  8
A-WALL-1
 10
-8.203320
 20
-387.000000
 11
-16.031746
 21
-387.000000
  0
LINE
  8
A-WALL-1
 10
-14.374892
 20
-391.000000
 11
-8.203320
 21
-391.000000
  0
LINE
  8
A-WALL-1
 10
33.796680
 20
-391.000000
 11
38.000000
 21
-391.000000
  0
LINE
  8
A-WALL-1
 10
65.000000
 20
-387.000000
 11
33.796680
 21
-387.000000
  0
LINE
  8
A-WALL-1
 10
42.000000
 20
-391.000000
 11
61.000000
 21
-391.000000
  0
LINE
  8
A-GLAZ-1
 10
-8.203320
 20
-387.000000
 11
-8.203320
 21
-391.000000
  0
LINE
  8
A-GLAZ-1
 10
33.796680
 20
-387.000000
 11
33.796680
 21
-391.000000
  0
LINE
  8
A-GLAZ-1
 10
-8.203320
 20
-389.000000
 11
-0.778699
 21
-381.575379
  0
LINE
  8
A-GLAZ-1
 10
-0.778699
 20
-381.575379
 11
0.193573
 21
-382.547651
  0
LINE
  8
A-GLAZ-1
 10
0.193573
 20
-382.547651
 11
-7.231048
 21
-389.972272
  0
LINE
  8
A-GLAZ-1
 10
-7.231048
 20
-389.972272
 11
-8.203320
 21
-389.000000
  0
LINE
  8
A-GLAZ-1
 10
0.193573
 20
-382.547651
 11
7.618195
 21
-389.972272
  0
LINE
  8
A-GLAZ-1
 10
7.618195
 20
-389.972272
 11
8.590466
 21
-389.000000
  0
LINE
  8
A-GLAZ-1
 10
8.590466
 20
-389.000000
 11
1.165845
 21
-381.575379
  0
LINE
  8
A-GLAZ-1
 10
1.165845
 20
-381.575379
 11
0.193573
 21
-382.547651
  0
LINE
  8
A-GLAZ-1
 10
33.796680
 20
-389.000000
 11
26.372059
 21
-381.575379
  0
LINE
  8
A-GLAZ-1
 10
26.372059
 20
-381.575379
 11
25.399787
 21
-382.547651
  0
LINE
  8
A-GLAZ-1
 10
25.399787
 20
-382.547651
 11
32.824408
 21
-389.972272
  0
LINE
  8
A-GLAZ-1
 10
32.824408
 20
-389.972272
 11
33.796680
 21
-389.000000
  0
LINE
  8
A-GLAZ-1
 10
25.399787
 20
-382.547651
 11
17.975166
 21
-389.972272
  0
LINE
  8
A-GLAZ-1
 10
17.975166
 20
-389.972272
 11
17.002894
 21
-389.000000
  0
LINE
  8
A-GLAZ-1
 10
17.002894
 20
-389.000000
 11
24.427515
 21
-381.575379
  0
LINE
  8
A-GLAZ-1
 10
24.427515
 20
-381.575379
 11
25.399787
 21
-382.547651
  0
TEXT
  8
A-DIMS-1
 10
3.164645
 20
-391.675566
 40
5.598621
  1
3668
  7
STANDARD
  0
LINE
  8
A-WALL-1
 10
65.000000
 20
-415.000000
 11
65.000000
 21
-387.000000
  0
LINE
  8
A-WALL-1
 10
61.000000
 20
-391.000000
 11
61.000000
 21
-415.000000
  0
LINE
  8
A-WALL-1
 10
-32.074688
 20
-472.000000
 11
38.000000
 21
-472.000000
  0
LINE
  8
A-WALL-1
 10
38.000000
 20
-468.000000
 11
-32.074688
 21
-468.000000
  0
LINE
  8
A-WALL-1
 10
-36.074688
 20
-520.037354
 11
-36.074688
 21
-522.000000
  0
LINE
  8
A-WALL-1
 10
-32.074688
 20
-522.000000
 11
-32.074688
 21
-520.037354
  0
LINE
  8
A-WALL-1
 10
-32.074688
 20
-472.037354
 11
-32.074688
 21
-472.000000
  0
LINE
  8
A-WALL-1
 10
-36.074688
 20
-458.037354
 11
-36.074688
 21
-472.037354
  0
LINE
  8
A-WALL-1
 10
-32.074688
 20
-468.000000
 11
-32.074688
 21
-458.037354
  0
LINE
  8
A-WALL-1
 10
-36.074688
 20
-413.000000
 11
-36.074688
 21
-422.037354
  0
LINE
  8
A-WALL-1
 10
-36.074688
 20
-407.042938
 11
-36.074688
 21
-409.000000
  0
LINE
  8
A-WALL-1
 10
-32.074688
 20
-422.037354
 11
-32.074688
 21
-409.871368
  0
LINE
  8
A-GLAZ-1
 10
-36.074688
 20
-520.037344
 11
-32.074688
 21
-520.037344
  0
LINE
  8
A-GLAZ-1
 10
-36.074688
 20
-472.037344
 11
-32.074688
 21
-472.037344
  0
TEXT
  8
A-DIMS-1
 10
-31.399123
 20
-505.669380
 40
5.598621
  1
4078
 50
90.000000
  7
STANDARD
  0
LINE
  8
A-GLAZ-1
 10
-36.074688
 20
-458.037344
 11
-32.074688
 21
-458.037344
  0
LINE
  8
A-GLAZ-1
 10
-36.074688
 20
-422.037344
 11
-32.074688
 21
-422.037344
  0
LINE
  8
A-GLAZ-1
 10
-36.074688
 20
-458.037344
 11
-72.074688
 21
-458.037344
  0
LINE
  8
A-GLAZ-1
 10
-72.074688
 20
-456.662344
 11
-36.074688
 21
-456.662344
  0
LINE
  8
A-GLAZ-1
 10
-36.074688
 20
-456.662344
 11
-36.074688
 21
-458.037344
  0
ARC
  8
A-GLAZ-1
 10
-36.074688
 20
-458.037344
 40
36.000000
 50
90.000000
 51
180.000000
  0
TEXT
  8
A-DIMS-1
 10
-31.399123
 20
-449.669380
 40
5.598621
  1
3068
 50
90.000000
  7
STANDARD
  0
LINE
  8
A-WALL-1
 10
-29.246262
 20
-405.871368
 11
-14.374892
 21
-391.000000
  0
LINE
  8
A-WALL-1
 10
-16.031746
 20
-387.000000
 11
-36.074688
 21
-407.042938
  0
LINE
  8
A-WALL-1
 10
-210.172806
 20
-603.000000
 11
-268.000000
 21
-603.000000
  0
LINE
  8
A-WALL-1
 10
-272.000000
 20
-609.000000
 11
-209.829651
 21
-609.000000
  0
LINE
  8
A-WALL-1
 10
-38.000000
 20
-529.500000
 11
-38.000000
 21
-526.000000
  0
LINE
  8
A-WALL-1
 10
-42.000000
 20
-522.000000
 11
-42.000000
 21
-529.500000
  0
LINE
  8
A-WALL-1
 10
-38.000000
 20
-563.000000
 11
-38.000000
 21
-559.500000
  0
LINE
  8
A-WALL-1
 10
-38.000000
 20
-571.000000
 11
-38.000000
 21
-567.000000
  0
LINE
  8
A-WALL-1
 10
-42.000000
 20
-559.500000
 11
-42.000000
 21
-571.000000
  0
LINE
  8
A-WALL-1
 10
-42.000000
 20
-603.000000
 11
-42.000000
 21
-719.000000
  0
LINE
  8
A-WALL-1
 10
-42.000000
 20
-723.000000
 11
-42.000000
 21
-771.000000
  0
LINE
  8
A-WALL-1
 10
-38.000000
 20
-835.000000
 11
-38.000000
 21
-603.000000
  0
LINE
  8
A-WALL-1
 10
-42.000000
 20
-775.000000
 11
-42.000000
 21
-839.000000
  0
LINE
  8
A-GLAZ-1
 10
-38.000000
 20
-529.500000
 11
-42.000000
 21
-529.500000
  0
LINE
  8
A-GLAZ-1
 10
-38.000000
 20
-559.500000
 11
-42.000000
 21
-559.500000
  0
LINE
  8
A-GLAZ-1
 10
-42.000000
 20
-559.500000
 11
-72.000000
 21
-559.500000
  0
LINE
  8
A-GLAZ-1
 10
-72.000000
 20
-558.125000
 11
-42.000000
 21
-558.125000
  0
LINE
  8
A-GLAZ-1
 10
-42.000000
 20
-558.125000
 11
-42.000000
 21
-559.500000
  0
ARC
  8
A-GLAZ-1
 10
-42.000000
 20
-559.500000
 40
30.000000
 50
90.000000
 51
180.000000
  0
TEXT
  8
A-DIMS-1
 10
-37.324434
 20
-554.132036
 40
5.598621
  1
2668
 50
90.000000
  7
STANDARD
  0
LINE
  8
A-GLAZ-1
 10
-38.000000
 20
-571.000000
 11
-42.000000
 21
-571.000000
  0
LINE
  8
A-GLAZ-1
 10
-38.000000
 20
-603.000000
 11
-42.000000
 21
-603.000000
  0
LINE
  8
A-GLAZ-1
 10
-42.000000
 20
-571.000000
 11
-74.000000
 21
-571.000000
  0
LINE
  8
A-GLAZ-1
 10
-74.000000
 20
-572.375000
 11
-42.000000
 21
-572.375000
  0
LINE
  8
A-GLAZ-1
 10
-42.000000
 20
-572.375000
 11
-42.000000
 21
-571.000000
  0
ARC
  8
A-GLAZ-1
 10
-42.000000
 20
-571.000000
 40
32.000000
 50
180.000000
 51
270.000000
  0
TEXT
  8
A-DIMS-1
 10
-37.324434
 20
-596.632036
 40
5.598621
  1
2868
 50
90.000000
  7
STANDARD
  0
LINE
  8
A-WALL-1
 10
-274.000000
 20
-605.000000
 11
-285.994934
 21
-605.000000
  0
LINE
  8
A-WALL-1
 10
-284.338074
 20
-609.000000
 11
-272.000000
 21
-609.000000
  0
LINE
  8
A-WALL-1
 10
42.000000
 20
-602.000000
 11
42.000000
 21
-567.000000
  0
LINE
  8
A-WALL-1
 10
38.000000
 20
-565.000000
 11
38.000000
 21
-598.000000
  0
LINE
  8
A-WALL-1
 10
-68.000000
 20
-723.000000
 11
-42.000000
 21
-723.000000
  0
LINE
  8
A-WALL-1
 10
-42.000000
 20
-719.000000
 11
-68.000000
 21
-719.000000
  0
LINE
  8
A-WALL-1
 10
-174.000000
 20
-723.000000
 11
-148.000000
 21
-723.000000
  0
LINE
  8
A-WALL-1
 10
-148.000000
 20
-719.000000
 11
-174.000000
 21
-719.000000
  0
LINE
  8
A-GLAZ-1
 10
-88.000000
 20
-723.000000
 11
-88.000000
 21
-719.000000
  0
LINE
  8
A-GLAZ-1
 10
-68.000000
 20
-719.000000
 11
-68.000000
 21
-723.000000
  0
LINE
  8
A-GLAZ-1
 10
-68.000000
 20
-719.000000
 11
-88.000000
 21
-719.000000
  0
LINE
  8
A-GLAZ-1
 10
-88.000000
 20
-723.000000
 11
-68.000000
 21
-723.000000
  0
LINE
  8
A-GLAZ-1
 10
-88.000000
 20
-721.000000
 11
-68.000000
 21
-721.000000
  0
TEXT
  8
A-DIMS-1
 10
-87.632036
 20
-732.859474
 40
5.598621
  1
1868
  7
STANDARD
  0
LINE
  8
A-GLAZ-1
 10
-90.000000
 20
-723.000000
 11
-90.000000
 21
-719.000000
  0
LINE
  8
A-GLAZ-1
 10
-126.000000
 20
-723.000000
 11
-126.000000
 21
-719.000000
  0
LINE
  8
A-GLAZ-1
 10
-90.000000
 20
-723.000000
 11
-88.000000
 21
-723.000000
  0
LINE
  8
A-GLAZ-1
 10
-90.000000
 20
-719.000000
 11
-88.000000
 21
-719.000000
  0
LINE
  8
A-GLAZ-1
 10
-90.000000
 20
-719.000000
 11
-90.000000
 21
-683.000000
  0
LINE
  8
A-GLAZ-1
 10
-91.750000
 20
-683.000000
 11
-91.750000
 21
-719.000000
  0
LINE
  8
A-GLAZ-1
 10
-91.750000
 20
-719.000000
 11
-90.000000
 21
-719.000000
  0
ARC
  8
A-GLAZ-1
 10
-90.000000
 20
-719.000000
 40
36.000000
 50
90.000000
 51
180.000000
  0
LINE
  8
A-GLAZ-1
 10
-90.000000
 20
-723.000000
 11
-126.000000
 21
-723.000000
  0
TEXT
  8
A-DIMS-1
 10
-117.632036
 20
-732.859474
 40
5.598621
  1
3068
  7
STANDARD
  0
LINE
  8
A-GLAZ-1
 10
-148.000000
 20
-723.000000
 11
-148.000000
 21
-719.000000
  0
LINE
  8
A-GLAZ-1
 10
-128.000000
 20
-719.000000
 11
-128.000000
 21
-723.000000
  0
LINE
  8
A-GLAZ-1
 10
-128.000000
 20
-723.000000
 11
-126.000000
 21
-723.000000
  0
LINE
  8
A-GLAZ-1
 10
-128.000000
 20
-719.000000
 11
-126.000000
 21
-719.000000
  0
LINE
  8
A-GLAZ-1
 10
-128.000000
 20
-719.000000
 11
-148.000000
 21
-719.000000
  0
LINE
  8
A-GLAZ-1
 10
-148.000000
 20
-723.000000
 11
-128.000000
 21
-723.000000
  0
LINE
  8
A-GLAZ-1
 10
-148.000000
 20
-721.000000
 11
-128.000000
 21
-721.000000
  0
TEXT
  8
A-DIMS-1
 10
-147.632036
 20
-732.859474
 40
5.598621
  1
1868
  7
STANDARD
  0
LINE
  8
A-WALL-1
 10
-57.256229
 20
-771.000000
 11
-57.256229
 21
-775.000000
  0
LINE
  8
A-WALL-1
 10
-57.256229
 20
-775.000000
 11
-42.000000
 21
-775.000000
  0
LINE
  8
A-WALL-1
 10
-42.000000
 20
-771.000000
 11
-57.256229
 21
-771.000000
  0
LINE
  8
A-WALL-1
 10
-174.000000
 20
-799.000000
 11
-174.000000
 21
-775.000000
  0
LINE
  8
A-WALL-1
 10
-174.000000
 20
-771.000000
 11
-174.000000
 21
-723.000000
  0
LINE
  8
A-WALL-1
 10
-178.000000
 20
-709.000000
 11
-178.000000
 21
-795.000000
  0
LINE
  8
A-WALL-1
 10
-174.000000
 20
-719.000000
 11
-174.000000
 21
-709.000000
  0
LINE
  8
A-WALL-1
 10
-178.000000
 20
-640.829651
 11
-178.000000
 21
-649.000000
  0
LINE
  8
A-WALL-1
 10
-174.000000
 20
-649.000000
 11
-174.000000
 21
-639.172791
  0
LINE
  8
A-GLAZ-1
 10
-178.000000
 20
-709.000000
 11
-174.000000
 21
-709.000000
  0
LINE
  8
A-GLAZ-1
 10
-178.000000
 20
-649.000000
 11
-174.000000
 21
-649.000000
  0
LINE
  8
A-GLAZ-1
 10
-178.000000
 20
-649.000000
 11
-208.000000
 21
-649.000000
  0
LINE
  8
A-GLAZ-1
 10
-208.000000
 20
-650.375000
 11
-178.000000
 21
-650.375000
  0
LINE
  8
A-GLAZ-1
 10
-178.000000
 20
-650.375000
 11
-178.000000
 21
-649.000000
  0
ARC
  8
A-GLAZ-1
 10
-178.000000
 20
-649.000000
 40
30.000000
 50
180.000000
 51
270.000000
  0
LINE
  8
A-GLAZ-1
 10
-178.000000
 20
-709.000000
 11
-208.000000
 21
-709.000000
  0
LINE
  8
A-GLAZ-1
 10
-208.000000
 20
-707.625000
 11
-178.000000
 21
-707.625000
  0
LINE
  8
A-GLAZ-1
 10
-178.000000
 20
-707.625000
 11
-178.000000
 21
-709.000000
  0
ARC
  8
A-GLAZ-1
 10
-178.000000
 20
-709.000000
 40
30.000000
 50
90.000000
 51
180.000000
  0
TEXT
  8
A-DIMS-1
 10
-173.324434
 20
-688.632036
 40
5.598621
  1
5068
 50
90.000000
  7
STANDARD
  0
LINE
  8
A-WALL-1
 10
-199.000000
 20
-799.000000
 11
-174.000000
 21
-799.000000
  0
LINE
  8
A-WALL-1
 10
-178.000000
 20
-795.000000
 11
-199.000000
 21
-795.000000
  0
LINE
  8
A-WALL-1
 10
-230.000000
 20
-799.000000
 11
-227.000000
 21
-799.000000
  0
LINE
  8
A-WALL-1
 10
-227.000000
 20
-795.000000
 11
-230.000000
 21
-795.000000
  0
LINE
  8
A-WALL-1
 10
-269.000000
 20
-799.000000
 11
-266.000000
 21
-799.000000
  0
LINE
  8
A-WALL-1
 10
-266.000000
 20
-795.000000
 11
-269.000000
 21
-795.000000
  0
LINE
  8
A-WALL-1
 10
-322.000000
 20
-799.000000
 11
-297.000000
 21
-799.000000
  0
LINE
  8
A-WALL-1
 10
-297.000000
 20
-795.000000
 11
-318.000000
 21
-795.000000
  0
LINE
  8
A-GLAZ-1
 10
-227.000000
 20
-799.000000
 11
-227.000000
 21
-795.000000
  0
LINE
  8
A-GLAZ-1
 10
-199.000000
 20
-795.000000
 11
-199.000000
 21
-799.000000
  0
LINE
  8
A-GLAZ-1
 10
-199.000000
 20
-795.000000
 11
-227.000000
 21
-795.000000
  0
LINE
  8
A-GLAZ-1
 10
-227.000000
 20
-799.000000
 11
-199.000000
 21
-799.000000
  0
LINE
  8
A-GLAZ-1
 10
-227.000000
 20
-797.000000
 11
-199.000000
 21
-797.000000
  0
TEXT
  8
A-DIMS-1
 10
-222.632036
 20
-808.859474
 40
5.598621
  1
2462
  7
STANDARD
  0
LINE
  8
A-GLAZ-1
 10
-266.000000
 20
-799.000000
 11
-266.000000
 21
-795.000000
  0
LINE
  8
A-GLAZ-1
 10
-230.000000
 20
-795.000000
 11
-230.000000
 21
-799.000000
  0
LINE
  8
A-GLAZ-1
 10
-230.000000
 20
-795.000000
 11
-266.000000
 21
-795.000000
  0
LINE
  8
A-GLAZ-1
 10
-266.000000
 20
-799.000000
 11
-230.000000
 21
-799.000000
  0
LINE
  8
A-GLAZ-1
 10
-266.000000
 20
-797.000000
 11
-230.000000
 21
-797.000000
  0
TEXT
  8
A-DIMS-1
 10
-257.632036
 20
-808.859474
 40
5.598621
  1
3078
  7
STANDARD
  0
LINE
  8
A-GLAZ-1
 10
-297.000000
 20
-799.000000
 11
-297.000000
 21
-795.000000
  0
LINE
  8
A-GLAZ-1
 10
-269.000000
 20
-795.000000
 11
-269.000000
 21
-799.000000
  0
LINE
  8
A-GLAZ-1
 10
-269.000000
 20
-795.000000
 11
-297.000000
 21
-795.000000
  0
LINE
  8
A-GLAZ-1
 10
-297.000000
 20
-799.000000
 11
-269.000000
 21
-799.000000
  0
LINE
  8
A-GLAZ-1
 10
-297.000000
 20
-797.000000
 11
-269.000000
 21
-797.000000
  0
TEXT
  8
A-DIMS-1
 10
-292.632036
 20
-808.859474
 40
5.598621
  1
2462
  7
STANDARD
  0
LINE
  8
A-WALL-1
 10
-322.000000
 20
-787.000000
 11
-322.000000
 21
-799.000000
  0
LINE
  8
A-WALL-1
 10
-318.000000
 20
-795.000000
 11
-318.000000
 21
-787.000000
  0
LINE
  8
A-WALL-1
 10
-322.000000
 20
-641.005066
 11
-322.000000
 21
-755.000000
  0
LINE
  8
A-WALL-1
 10
-318.000000
 20
-755.000000
 11
-318.000000
 21
-642.661926
  0
LINE
  8
A-GLAZ-1
 10
-322.000000
 20
-755.000000
 11
-318.000000
 21
-755.000000
  0
LINE
  8
A-GLAZ-1
 10
-318.000000
 20
-787.000000
 11
-322.000000
 21
-787.000000
  0
LINE
  8
A-GLAZ-1
 10
-318.000000
 20
-787.000000
 11
-318.000000
 21
-755.000000
  0
LINE
  8
A-GLAZ-1
 10
-322.000000
 20
-755.000000
 11
-322.000000
 21
-787.000000
  0
LINE
  8
A-GLAZ-1
 10
-320.000000
 20
-755.000000
 11
-320.000000
 21
-787.000000
  0
TEXT
  8
A-DIMS-1
 10
-326.508343
 20
-780.632036
 40
5.598621
  1
2862
 50
90.000000
  7
STANDARD
  0
LINE
  8
A-WALL-1
 10
-315.269196
 20
-634.274231
 11
-322.000000
 21
-641.005066
  0
LINE
  8
A-WALL-1
 10
-318.000000
 20
-642.661926
 11
-312.440765
 21
-637.102661
  0
LINE
  8
A-WALL-1
 10
-285.994934
 20
-605.000000
 11
-292.641785
 21
-611.646851
  0
LINE
  8
A-WALL-1
 10
-289.813354
 20
-614.475281
 11
-284.338074
 21
-609.000000
  0
LINE
  8
A-GLAZ-1
 10
-292.641770
 20
-611.646836
 11
-289.813343
 21
-614.475263
  0
LINE
  8
A-GLAZ-1
 10
-312.440760
 20
-637.102680
 11
-315.269187
 21
-634.274253
  0
LINE
  8
A-GLAZ-1
 10
-312.440760
 20
-637.102680
 11
-289.813343
 21
-614.475263
  0
LINE
  8
A-GLAZ-1
 10
-292.641770
 20
-611.646836
 11
-315.269187
 21
-634.274253
  0
LINE
  8
A-GLAZ-1
 10
-291.227557
 20
-613.061050
 11
-313.854974
 21
-635.688467
  0
TEXT
  8
A-DIMS-1
 10
-313.954236
 20
-626.583543
 40
5.598621
  1
2862
 50
45.000000
  7
STANDARD
  0
LINE
  8
A-WALL-1
 10
230.000000
 20
-255.000000
 11
206.000000
 21
-255.000000
  0
LINE
  8
A-WALL-1
 10
202.000000
 20
-259.000000
 11
226.000000
 21
-259.000000
  0
LINE
  8
A-WALL-1
 10
74.000000
 20
-105.000000
 11
74.000000
 21
-95.000000
  0
LINE
  8
A-WALL-1
 10
70.000000
 20
-99.000000
 11
70.000000
 21
-105.000000
  0
LINE
  8
A-WALL-1
 10
74.000000
 20
-171.000000
 11
74.000000
 21
-141.000000
  0
LINE
  8
A-WALL-1
 10
70.000000
 20
-141.000000
 11
70.000000
 21
-175.000000
  0
LINE
  8
A-GLAZ-1
 10
74.000000
 20
-105.000000
 11
70.000000
 21
-105.000000
  0
LINE
  8
A-GLAZ-1
 10
74.000000
 20
-141.000000
 11
70.000000
 21
-141.000000
  0
LINE
  8
A-GLAZ-1
 10
70.000000
 20
-105.000000
 11
34.000000
 21
-105.000000
  0
LINE
  8
A-GLAZ-1
 10
34.000000
 20
-106.750000
 11
70.000000
 21
-106.750000
  0
LINE
  8
A-GLAZ-1
 10
70.000000
 20
-106.750000
 11
70.000000
 21
-105.000000
  0
ARC
  8
A-GLAZ-1
 10
70.000000
 20
-105.000000
 40
36.000000
 50
180.000000
 51
270.000000
  0
LINE
  8
A-GLAZ-1
 10
74.000000
 20
-105.000000
 11
74.000000
 21
-141.000000
  0
TEXT
  8
A-DIMS-1
 10
83.859474
 20
-132.632036
 40
5.598621
  1
3068
 50
90.000000
  7
STANDARD
  0
LINE
  8
A-WALL-1
 10
-14.000000
 20
-563.000000
 11
-38.000000
 21
-563.000000
  0
LINE
  8
A-WALL-1
 10
4.000000
 20
-563.000000
 11
-10.000000
 21
-563.000000
  0
LINE
  8
A-WALL-1
 10
-38.000000
 20
-567.000000
 11
0.000000
 21
-567.000000
  0
LINE
  8
A-WALL-1
 10
72.707108
 20
-256.804657
 11
71.292892
 21
-255.390442
  0
LINE
  8
A-WALL-1
 10
-12.707107
 20
-339.390442
 11
-11.292893
 21
-340.804657
  0
LINE
  8
A-WALL-1
 10
-11.292893
 20
-340.804657
 11
72.707108
 21
-256.804657
  0
LINE
  8
A-WALL-1
 10
71.292892
 20
-255.390442
 11
-12.707107
 21
-339.390442
  0
LINE
  8
A-WALL-1
 10
-173.600937
 20
-514.000000
 11
-169.600937
 21
-514.000000
  0
LINE
  8
A-WALL-1
 10
-169.600937
 20
-474.000000
 11
-169.600937
 21
-470.828430
  0
LINE
  8
A-WALL-1
 10
-173.600937
 20
-472.000000
 11
-173.600937
 21
-474.000000
  0
LINE
  8
A-WALL-1
 10
-169.600937
 20
-514.000000
 11
-169.600937
 21
-510.000000
  0
LINE
  8
A-WALL-1
 10
-173.600937
 20
-510.000000
 11
-173.600937
 21
-514.000000
  0
LINE
  8
A-GLAZ-1
 10
-169.600938
 20
-474.000000
 11
-173.600938
 21
-474.000000
  0
LINE
  8
A-GLAZ-1
 10
-169.600938
 20
-510.000000
 11
-173.600938
 21
-510.000000
  0
LINE
  8
A-GLAZ-1
 10
-169.600938
 20
-474.000000
 11
-133.600938
 21
-474.000000
  0
LINE
  8
A-GLAZ-1
 10
-133.600938
 20
-475.375000
 11
-169.600938
 21
-475.375000
  0
LINE
  8
A-GLAZ-1
 10
-169.600938
 20
-475.375000
 11
-169.600938
 21
-474.000000
  0
ARC
  8
A-GLAZ-1
 10
-169.600938
 20
-474.000000
 40
36.000000
 50
270.000000
 51
0.000000
  0
TEXT
  8
A-DIMS-1
 10
-168.925373
 20
-501.632036
 40
5.598621
  1
3068
 50
90.000000
  7
STANDARD
  0
LINE
  8
A-WALL-1
 10
34.000000
 20
-526.000000
 11
38.000000
 21
-526.000000
  0
LINE
  8
A-WALL-1
 10
38.000000
 20
-522.000000
 11
34.000000
 21
-522.000000
  0
LINE
  8
A-WALL-1
 10
-10.000000
 20
-526.000000
 11
6.000000
 21
-526.000000
  0
LINE
  8
A-WALL-1
 10
6.000000
 20
-522.000000
 11
-32.074688
 21
-522.000000
  0
LINE
  8
A-WALL-1
 10
-38.000000
 20
-526.000000
 11
-14.000000
 21
-526.000000
  0
LINE
  8
A-WALL-1
 10
-36.074688
 20
-522.000000
 11
-42.000000
 21
-522.000000
  0
LINE
  8
A-GLAZ-1
 10
34.000000
 20
-526.000000
 11
34.000000
 21
-522.000000
  0
LINE
  8
A-GLAZ-1
 10
6.000000
 20
-526.000000
 11
6.000000
 21
-522.000000
  0
LINE
  8
A-GLAZ-1
 10
6.000000
 20
-522.000000
 11
6.000000
 21
-494.000000
  0
LINE
  8
A-GLAZ-1
 10
7.375000
 20
-494.000000
 11
7.375000
 21
-522.000000
  0
LINE
  8
A-GLAZ-1
 10
7.375000
 20
-522.000000
 11
6.000000
 21
-522.000000
  0
ARC
  8
A-GLAZ-1
 10
6.000000
 20
-522.000000
 40
28.000000
 50
0.000000
 51
90.000000
  0
TEXT
  8
A-DIMS-1
 10
10.367964
 20
-526.675566
 40
5.598621
  1
2468
  7
STANDARD
  0
LINE
  8
A-WALL-1
 10
-103.600937
 20
-409.000000
 11
-110.000000
 21
-409.000000
  0
LINE
  8
A-WALL-1
 10
-111.772514
 20
-413.000000
 11
-103.600937
 21
-413.000000
  0
LINE
  8
A-WALL-1
 10
-36.074688
 20
-409.000000
 11
-43.600937
 21
-409.000000
  0
LINE
  8
A-WALL-1
 10
-43.600937
 20
-413.000000
 11
-36.074688
 21
-413.000000
  0
LINE
  8
A-GLAZ-1
 10
-103.600938
 20
-409.000000
 11
-103.600938
 21
-413.000000
  0
LINE
  8
A-GLAZ-1
 10
-43.600938
 20
-409.000000
 11
-43.600938
 21
-413.000000
  0
TEXT
  8
A-DIMS-1
 10
-83.232974
 20
-413.675566
 40
5.598621
  1
5078
  7
STANDARD
  0
LINE
  8
A-WALL-1
 10
0.000000
 20
-567.000000
 11
0.000000
 21
-602.000000
  0
LINE
  8
A-WALL-1
 10
4.000000
 20
-598.000000
 11
4.000000
 21
-563.000000
  0
LINE
  8
A-WALL-1
  6
DOTTED
 10
-170.600937
 20
-609.000000
 11
-170.600937
 21
-514.000000
  0
LINE
  8
A-WALL-1
  6
DOTTED
 10
-172.600937
 20
-514.000000
 11
-172.600937
 21
-603.000000
  0
LINE
  8
A-WALL-1
  6
DOTTED
 10
-12.000000
 20
-341.097534
 11
-12.000000
 21
-339.097534
  0
LINE
  8
A-WALL-1
  6
DOTTED
 10
-110.000000
 20
-341.097534
 11
-12.000000
 21
-341.097534
  0
LINE
  8
A-WALL-1
  6
DOTTED
 10
-12.000000
 20
-339.097534
 11
-110.000000
 21
-339.097534
  0
LINE
  8
A-WALL-1
  6
DOTTED
 10
2.000000
 20
-607.000000
 11
2.000000
 21
-605.000000
  0
LINE
  8
A-WALL-1
  6
DOTTED
 10
2.000000
 20
-605.000000
 11
-38.000000
 21
-605.000000
  0
LINE
  8
A-WALL-1
  6
DOTTED
 10
-38.000000
 20
-607.000000
 11
2.000000
 21
-607.000000
  0
LINE
  8
A-WALL-1
 10
38.000000
 20
-405.871368
 11
-29.246262
 21
-405.871368
  0
LINE
  8
A-WALL-1
 10
-32.074688
 20
-409.871368
 11
38.000000
 21
-409.871368
  0
LINE
  8
A-WALL-1
  6
DOTTED
 10
1.000000
 20
-606.000000
 11
3.000000
 21
-606.000000
  0
LINE
  8
A-WALL-1
  6
DOTTED
 10
3.000000
 20
-606.000000
 11
3.000000
 21
-602.000000
  0
LINE
  8
A-WALL-1
  6
DOTTED
 10
1.000000
 20
-600.000000
 11
1.000000
 21
-606.000000
  0
LINE
  8
A-WALL-1
 10
38.000000
 20
-598.000000
 11
4.000000
 21
-598.000000
  0
LINE
  8
A-WALL-1
 10
0.000000
 20
-602.000000
 11
42.000000
 21
-602.000000
  0
LINE
  8
A-WALL-1
 10
226.000000
 20
-563.000000
 11
42.000000
 21
-563.000000
  0
LINE
  8
A-WALL-1
 10
42.000000
 20
-567.000000
 11
226.000000
 21
-567.000000
  0
LINE
  8
A-WALL-1
 10
-10.000000
 20
-563.000000
 11
-10.000000
 21
-526.000000
  0
LINE
  8
A-WALL-1
 10
-14.000000
 20
-526.000000
 11
-14.000000
 21
-563.000000
  0
LINE
  8
A-WALL-1
 10
-159.256226
 20
-775.000000
 11
-159.256226
 21
-771.000000
  0
LINE
  8
A-WALL-1
 10
-174.000000
 20
-775.000000
 11
-159.256226
 21
-775.000000
  0
LINE
  8
A-WALL-1
 10
-159.256226
 20
-771.000000
 11
-174.000000
 21
-771.000000
  0
LINE
  8
A-WALL-1
  6
DOTTED
 10
-57.256229
 20
-771.000000
 11
-159.256226
 21
-771.000000
  0
LINE
  8
A-WALL-1
  6
DOTTED
 10
-159.256226
 20
-775.000000
 11
-57.256229
 21
-775.000000
  0
LINE
  8
A-WALL-1
  6
DOTTED
 10
178.000000
 20
-233.000000
 11
178.000000
 21
-185.000000
  0
LINE
  8
A-WALL-1
  6
DOTTED
 10
176.000000
 20
-187.000000
 11
176.000000
 21
-231.000000
  0
LINE
  8
A-WALL-1
  6
DOTTED
 10
178.000000
 20
-185.000000
 11
156.000000
 21
-185.000000
  0
LINE
  8
A-WALL-1
  6
DOTTED
 10
158.000000
 20
-187.000000
 11
176.000000
 21
-187.000000
  0
LINE
  8
A-WALL-1
  6
DOTTED
 10
158.000000
 20
-231.000000
 11
158.000000
 21
-187.000000
  0
LINE
  8
A-WALL-1
  6
DOTTED
 10
156.000000
 20
-185.000000
 11
156.000000
 21
-233.000000
  0
LINE
  8
A-WALL-1
  6
DOTTED
 10
176.000000
 20
-231.000000
 11
158.000000
 21
-231.000000
  0
LINE
  8
A-WALL-1
  6
DOTTED
 10
156.000000
 20
-233.000000
 11
178.000000
 21
-233.000000
  0
LINE
  8
A-WALL-1
  6
DOTTED
 10
126.000000
 20
-233.000000
 11
126.000000
 21
-185.000000
  0
LINE
  8
A-WALL-1
  6
DOTTED
 10
124.000000
 20
-187.000000
 11
124.000000
 21
-231.000000
  0
LINE
  8
A-WALL-1
  6
DOTTED
 10
104.000000
 20
-233.000000
 11
126.000000
 21
-233.000000
  0
LINE
  8
A-WALL-1
  6
DOTTED
 10
124.000000
 20
-231.000000
 11
106.000000
 21
-231.000000
  0
LINE
  8
A-WALL-1
  6
DOTTED
 10
104.000000
 20
-185.000000
 11
104.000000
 21
-233.000000
  0
LINE
  8
A-WALL-1
  6
DOTTED
 10
106.000000
 20
-231.000000
 11
106.000000
 21
-187.000000
  0
LINE
  8
A-WALL-1
  6
DOTTED
 10
126.000000
 20
-185.000000
 11
104.000000
 21
-185.000000
  0
LINE
  8
A-WALL-1
  6
DOTTED
 10
106.000000
 20
-187.000000
 11
124.000000
 21
-187.000000
  0
LINE
  8
A-STAR-1
 10
-38.000000
 20
-606.000000
 11
-38.000000
 21
-616.000000
  0
LINE
  8
A-STAR-1
 10
-38.000000
 20
-616.000000
 11
1.000000
 21
-616.000000
  0
LINE
  8
A-STAR-1
 10
1.000000
 20
-616.000000
 11
1.000000
 21
-606.000000
  0
LINE
  8
A-STAR-1
 10
-38.000000
 20
-606.000000
 11
1.000000
 21
-606.000000
  0
LINE
  8
A-STAR-1
 10
-217.000000
 20
-603.000000
 11
-208.000000
 21
-603.000000
  0
LINE
  8
A-STAR-1
 10
-208.000000
 20
-603.000000
 11
-208.000000
 21
-561.000000
  0
LINE
  8
A-STAR-1
 10
-208.000000
 20
-561.000000
 11
-217.000000
 21
-561.000000
  0
LINE
  8
A-STAR-1
 10
-226.000000
 20
-603.000000
 11
-217.000000
 21
-603.000000
  0
LINE
  8
A-STAR-1
 10
-217.000000
 20
-603.000000
 11
-217.000000
 21
-561.000000
  0
LINE
  8
A-STAR-1
 10
-217.000000
 20
-561.000000
 11
-226.000000
 21
-561.000000
  0
LINE
  8
A-STAR-1
 10
-226.000000
 20
-603.000000
 11
-226.000000
 21
-561.000000
  0
TEXT
  8
A-POWR-1
 10
-221.692280
 20
-580.915948
 40
4.198966
  1
UP
  7
STANDARD
  0
LINE
  8
A-STAR-1
 10
-227.000000
 20
-584.000000
 11
-216.000000
 21
-584.000000
  0
LINE
  8
A-STAR-1
 10
-226.000000
 20
-560.500000
 11
-226.000000
 21
-603.500000
  0
LINE
  8
A-STAR-1
 10
-226.000000
 20
-603.500000
 11
-268.000000
 21
-603.500000
  0
LINE
  8
A-STAR-1
 10
-268.000000
 20
-603.500000
 11
-268.000000
 21
-560.500000
  0
LINE
  8
A-STAR-1
 10
-268.000000
 20
-560.500000
 11
-226.000000
 21
-560.500000
  0
LINE
  8
A-STAR-1
 10
-268.000000
 20
-551.200000
 11
-268.000000
 21
-560.500000
  0
LINE
  8
A-STAR-1
 10
-268.000000
 20
-560.500000
 11
-226.000000
 21
-560.500000
  0
LINE
  8
A-STAR-1
 10
-226.000000
 20
-560.500000
 11
-226.000000
 21
-551.200000
  0
LINE
  8
A-STAR-1
 10
-268.000000
 20
-541.900000
 11
-268.000000
 21
-551.200000
  0
LINE
  8
A-STAR-1
 10
-268.000000
 20
-551.200000
 11
-226.000000
 21
-551.200000
  0
LINE
  8
A-STAR-1
 10
-226.000000
 20
-551.200000
 11
-226.000000
 21
-541.900000
  0
LINE
  8
A-STAR-1
 10
-268.000000
 20
-532.600000
 11
-268.000000
 21
-541.900000
  0
LINE
  8
A-STAR-1
 10
-268.000000
 20
-541.900000
 11
-226.000000
 21
-541.900000
  0
LINE
  8
A-STAR-1
 10
-226.000000
 20
-541.900000
 11
-226.000000
 21
-532.600000
  0
LINE
  8
A-STAR-1
 10
-268.000000
 20
-523.300000
 11
-268.000000
 21
-532.600000
  0
LINE
  8
A-STAR-1
 10
-268.000000
 20
-532.600000
 11
-226.000000
 21
-532.600000
  0
LINE
  8
A-STAR-1
 10
-226.000000
 20
-532.600000
 11
-226.000000
 21
-523.300000
  0
LINE
  8
A-STAR-1
 10
-268.000000
 20
-514.000000
 11
-268.000000
 21
-523.300000
  0
LINE
  8
A-STAR-1
 10
-268.000000
 20
-523.300000
 11
-226.000000
 21
-523.300000
  0
LINE
  8
A-STAR-1
 10
-226.000000
 20
-523.300000
 11
-226.000000
 21
-514.000000
  0
LINE
  8
A-STAR-1
 10
-268.000000
 20
-514.000000
 11
-226.000000
 21
-514.000000
  0
LINE
  8
A-STAR-1
 10
-225.500000
 20
-514.000000
 11
-268.000000
 21
-514.000000
  0
LINE
  8
A-STAR-1
 10
-268.000000
 20
-514.000000
 11
-268.000000
 21
-472.000000
  0
LINE
  8
A-STAR-1
 10
-268.000000
 20
-472.000000
 11
-225.500000
 21
-472.000000
  0
LINE
  8
A-STAR-1
 10
-225.500000
 20
-472.000000
 11
-225.500000
 21
-514.000000
  0
LINE
  8
A-STAR-1
 10
-216.500000
 20
-472.000000
 11
-225.500000
 21
-472.000000
  0
LINE
  8
A-STAR-1
 10
-225.500000
 20
-472.000000
 11
-225.500000
 21
-514.000000
  0
LINE
  8
A-STAR-1
 10
-225.500000
 20
-514.000000
 11
-216.500000
 21
-514.000000
  0
LINE
  8
A-STAR-1
 10
-207.500000
 20
-472.000000
 11
-216.500000
 21
-472.000000
  0
LINE
  8
A-STAR-1
 10
-216.500000
 20
-472.000000
 11
-216.500000
 21
-514.000000
  0
LINE
  8
A-STAR-1
 10
-216.500000
 20
-514.000000
 11
-207.500000
 21
-514.000000
  0
LINE
  8
A-STAR-1
 10
-198.500000
 20
-472.000000
 11
-207.500000
 21
-472.000000
  0
LINE
  8
A-STAR-1
 10
-207.500000
 20
-472.000000
 11
-207.500000
 21
-514.000000
  0
LINE
  8
A-STAR-1
 10
-207.500000
 20
-514.000000
 11
-198.500000
 21
-514.000000
  0
LINE
  8
A-STAR-1
 10
-189.500000
 20
-472.000000
 11
-198.500000
 21
-472.000000
  0
LINE
  8
A-STAR-1
 10
-198.500000
 20
-472.000000
 11
-198.500000
 21
-514.000000
  0
LINE
  8
A-STAR-1
 10
-198.500000
 20
-514.000000
 11
-189.500000
 21
-514.000000
  0
LINE
  8
A-STAR-1
 10
-180.500000
 20
-472.000000
 11
-189.500000
 21
-472.000000
  0
LINE
  8
A-STAR-1
 10
-189.500000
 20
-472.000000
 11
-189.500000
 21
-514.000000
  0
LINE
  8
A-STAR-1
 10
-189.500000
 20
-514.000000
 11
-180.500000
 21
-514.000000
  0
LINE
  8
A-STAR-1
 10
-171.500000
 20
-472.000000
 11
-180.500000
 21
-472.000000
  0
LINE
  8
A-STAR-1
 10
-180.500000
 20
-472.000000
 11
-180.500000
 21
-514.000000
  0
LINE
  8
A-STAR-1
 10
-180.500000
 20
-514.000000
 11
-171.500000
 21
-514.000000
  0
LINE
  8
A-STAR-1
 10
-171.500000
 20
-472.000000
 11
-171.500000
 21
-514.000000
  0
INSERT
  8
A-POWR-1
  2
FIXT-RecLight
 10
-73.045662
 20
-463.979114
 41
1.000000
 42
1.000000
 43
 1.0
 50
0.000000
  0
INSERT
  8
A-POWR-1
  2
FIXT-RecLight
 10
-73.263596
 20
-385.086932
 41
1.000000
 42
1.000000
 43
 1.0
 50
0.000000
  0
ARC
  8
A-POWR-1
 10
-17.930102
 20
-410.905323
 40
67.865879
 50
150.500089
 51
209.816460
  0
LINE
  8
A-POWR-1
 10
212.230103
 20
-398.135539
 11
212.230103
 21
-395.802205
  0
LINE
  8
A-POWR-1
 10
212.230103
 20
-404.802205
 11
212.230103
 21
-407.135539
  0
LINE
  8
A-POWR-1
 10
208.896769
 20
-401.468872
 11
206.563436
 21
-401.468872
  0
LINE
  8
A-POWR-1
 10
215.563436
 20
-401.468872
 11
217.896769
 21
-401.468872
  0
CIRCLE
  8
A-POWR-1
 10
212.230103
 20
-401.468872
 40
3.333333
  0
ARC
  8
A-POWR-1
 10
197.301627
 20
-428.819620
 40
31.159634
 50
75.170430
 51
118.652088
  0
LINE
  8
A-POWR-1
 10
219.639862
 20
-331.229747
 11
219.639862
 21
-328.896413
  0
LINE
  8
A-POWR-1
 10
219.639862
 20
-337.896413
 11
219.639862
 21
-340.229747
  0
LINE
  8
A-POWR-1
 10
216.306529
 20
-334.563080
 11
213.973195
 21
-334.563080
  0
LINE
  8
A-POWR-1
 10
222.973195
 20
-334.563080
 11
225.306529
 21
-334.563080
  0
CIRCLE
  8
A-POWR-1
 10
219.639862
 20
-334.563080
 40
3.333333
  0
ARC
  8
A-POWR-1
 10
262.769037
 20
-373.202808
 40
57.906427
 50
145.111656
 51
202.248935
  0
LINE
  8
A-POWR-1
 10
219.639862
 20
-270.644053
 11
219.639862
 21
-268.310720
  0
LINE
  8
A-POWR-1
 10
219.639862
 20
-277.310720
 11
219.639862
 21
-279.644053
  0
LINE
  8
A-POWR-1
 10
216.306529
 20
-273.977386
 11
213.973195
 21
-273.977386
  0
LINE
  8
A-POWR-1
 10
222.973195
 20
-273.977386
 11
225.306529
 21
-273.977386
  0
CIRCLE
  8
A-POWR-1
 10
219.639862
 20
-273.977386
 40
3.333333
  0
ARC
  8
A-POWR-1
 10
262.049847
 20
-304.270233
 40
52.117784
 50
152.271300
 51
207.728700
  0
LINE
  8
A-POWR-1
 10
176.270966
 20
-409.160909
 11
176.270966
 21
-411.494242
  0
LINE
  8
A-POWR-1
 10
176.270966
 20
-402.494242
 11
176.270966
 21
-400.160909
  0
LINE
  8
A-POWR-1
 10
179.604299
 20
-405.827576
 11
181.937632
 21
-405.827576
  0
LINE
  8
A-POWR-1
 10
172.937632
 20
-405.827576
 11
170.604299
 21
-405.827576
  0
CIRCLE
  8
A-POWR-1
 10
176.270966
 20
-405.827576
 40
3.333333
  0
INSERT
  8
A-POWR-1
  2
FIXT-RecLight
 10
203.294907
 20
-287.452411
 41
1.000000
 42
1.000000
 43
 1.0
 50
0.000000
  0
INSERT
  8
A-POWR-1
  2
FIXT-RecLight
 10
-66.507637
 20
-232.097141
 41
1.000000
 42
1.000000
 43
 1.0
 50
0.000000
  0
ARC
  8
A-POWR-1
 10
-14.791858
 20
-255.561836
 40
63.553708
 50
150.768883
 51
209.231117
  0
INSERT
  8
A-POWR-1
  2
FIXT-RecLight
 10
-66.725571
 20
-157.999500
 41
1.000000
 42
1.000000
 43
 1.0
 50
0.000000
  0
ARC
  8
A-POWR-1
 10
-14.748255
 20
-181.420620
 40
63.741477
 50
150.917520
 51
209.419512
  0
INSERT
  8
A-POWR-1
  2
FIXT-RecLight
 10
25.896463
 20
-158.217441
 41
1.000000
 42
1.000000
 43
 1.0
 50
0.000000
  0
ARC
  8
A-POWR-1
 10
-20.567113
 20
-209.468748
 40
79.676707
 50
59.286481
 51
120.443884
  0
INSERT
  8
A-POWR-1
  2
FIXT-RecLight
 10
26.114397
 20
-232.315067
 41
1.000000
 42
1.000000
 43
 1.0
 50
0.000000
  0
ARC
  8
A-POWR-1
 10
-25.862908
 20
-181.943661
 40
63.741463
 50
330.917522
 51
29.419510
  0
INSERT
  8
A-POWR-1
  2
FIXT-RecLight
 10
-66.507637
 20
-305.976825
 41
1.000000
 42
1.000000
 43
 1.0
 50
0.000000
  0
INSERT
  8
A-POWR-1
  2
FIXT-RecLight
 10
96.914047
 20
-228.383197
 41
1.000000
 42
1.000000
 43
 1.0
 50
0.000000
  0
ARC
  8
A-POWR-1
 10
140.754604
 20
-279.601274
 40
78.148625
 50
129.185801
 51
190.138064
  0
INSERT
  8
A-POWR-1
  2
FIXT-RecLight
 10
185.049484
 20
-228.837497
 41
1.000000
 42
1.000000
 43
 1.0
 50
0.000000
  0
ARC
  8
A-POWR-1
 10
140.663756
 20
-276.830006
 40
75.817977
 50
59.393391
 51
120.015945
  0
INSERT
  8
A-POWR-1
  2
FIXT-RecLight
 10
30.908951
 20
-347.166400
 41
1.000000
 42
1.000000
 43
 1.0
 50
0.000000
  0
INSERT
  8
A-POWR-1
  2
FIXT-RecLight
 10
65.339752
 20
-313.565631
 41
1.000000
 42
1.000000
 43
 1.0
 50
0.000000
  0
ARC
  8
A-POWR-1
 10
71.644890
 20
-340.992430
 40
41.385069
 50
108.812414
 51
159.789559
  0
INSERT
  8
A-POWR-1
  2
FIXT-RecLight
 10
195.271393
 20
-377.622852
 41
1.000000
 42
1.000000
 43
 1.0
 50
0.000000
  0
ARC
  8
A-POWR-1
 10
214.525107
 20
-373.188058
 40
21.270484
 50
176.237198
 51
204.534464
  0
INSERT
  8
A-POWR-1
  2
FIXT-RecLight
 10
203.221741
 20
-346.957172
 41
1.000000
 42
1.000000
 43
 1.0
 50
0.000000
  0
ARC
  8
A-POWR-1
 10
220.712543
 20
-354.380109
 40
27.251753
 50
145.995545
 51
184.935592
  0
INSERT
  8
A-POWR-1
  2
FIXT-RecLight
 10
202.994598
 20
-317.200092
 41
1.000000
 42
1.000000
 43
 1.0
 50
0.000000
  0
ARC
  8
A-POWR-1
 10
223.938126
 20
-318.444485
 40
25.598754
 50
162.162330
 51
198.712356
  0
INSERT
  8
A-POWR-1
  2
FIXT-RecLight
 10
12.413054
 20
-390.570575
 41
1.000000
 42
1.000000
 43
 1.0
 50
0.000000
  0
INSERT
  8
A-POWR-1
  2
FIXT-RecLight
 10
115.341705
 20
-398.398486
 41
1.000000
 42
1.000000
 43
 1.0
 50
0.000000
  0
ARC
  8
A-POWR-1
 10
58.397842
 20
-453.059440
 40
88.798264
 50
54.536939
 51
116.764908
  0
INSERT
  8
A-POWR-1
  2
FIXT-RecLight
 10
145.324402
 20
-377.459247
 41
1.000000
 42
1.000000
 43
 1.0
 50
0.000000
  0
ARC
  8
A-POWR-1
 10
144.990521
 20
-395.441608
 40
31.459279
 50
103.040344
 51
146.818817
  0
INSERT
  8
A-POWR-1
  2
FIXT-RecLight
 10
175.181381
 20
-398.380939
 41
1.000000
 42
1.000000
 43
 1.0
 50
0.000000
  0
ARC
  8
A-POWR-1
 10
145.607707
 20
-395.344832
 40
31.362011
 50
33.138498
 51
76.821311
  0
INSERT
  8
A-POWR-1
  2
FIXT-RecLight
 10
199.728973
 20
-401.944171
 41
1.000000
 42
1.000000
 43
 1.0
 50
0.000000
  0
ARC
  8
A-POWR-1
 10
184.960915
 20
-403.870723
 40
21.337944
 50
67.513527
 51
95.968181
  0
INSERT
  8
A-POWR-1
  2
FIXT-RecLight
 10
-3.239296
 20
-138.936618
 41
1.000000
 42
1.000000
 43
 1.0
 50
0.000000
  0
ARC
  8
A-POWR-1
 10
-20.081289
 20
-149.040262
 40
28.976061
 50
69.444068
 51
110.555932
  0
INSERT
  8
A-POWR-1
  2
FIXT-RecLight
 10
-36.923283
 20
-138.936618
 41
1.000000
 42
1.000000
 43
 1.0
 50
0.000000
  0
INSERT
  8
A-POWR-1
  2
FIXT-RecLight
 10
-176.220612
 20
-257.181445
 41
1.000000
 42
1.000000
 43
 1.0
 50
0.000000
  0
INSERT
  8
A-POWR-1
  2
FIXT-RecLight
 10
-209.553711
 20
-256.830570
 41
1.000000
 42
1.000000
 43
 1.0
 50
0.000000
  0
ARC
  8
A-POWR-1
 10
-192.641548
 20
-220.197691
 40
28.675805
 50
249.019637
 51
289.774177
  0
INSERT
  8
A-POWR-1
  2
FIXT-RecLight
 10
2.023827
 20
-509.109607
 41
1.000000
 42
1.000000
 43
 1.0
 50
0.000000
  0
INSERT
  8
A-POWR-1
  2
FIXT-RecLight
 10
-69.905518
 20
-695.775012
 41
1.000000
 42
1.000000
 43
 1.0
 50
0.000000
  0
ARC
  8
A-POWR-1
 10
-103.519332
 20
-657.177229
 40
41.964693
 50
333.122038
 51
24.405158
  0
INSERT
  8
A-POWR-1
  2
FIXT-RecLight
 10
-68.852898
 20
-647.003406
 41
1.000000
 42
1.000000
 43
 1.0
 50
0.000000
  0
LINE
  8
A-POWR-1
 10
-105.694855
 20
-536.862345
 11
-105.694855
 21
-534.529012
  0
LINE
  8
A-POWR-1
 10
-105.694855
 20
-543.529012
 11
-105.694855
 21
-545.862345
  0
LINE
  8
A-POWR-1
 10
-109.028188
 20
-540.195679
 11
-111.361521
 21
-540.195679
  0
LINE
  8
A-POWR-1
 10
-102.361521
 20
-540.195679
 11
-100.028188
 21
-540.195679
  0
CIRCLE
  8
A-POWR-1
 10
-105.694855
 20
-540.195679
 40
3.333333
  0
LINE
  8
A-POWR-1
 10
30.795567
 20
-666.685954
 11
30.795567
 21
-664.352620
  0
LINE
  8
A-POWR-1
 10
30.795567
 20
-673.352620
 11
30.795567
 21
-675.685954
  0
LINE
  8
A-POWR-1
 10
27.462233
 20
-670.019287
 11
25.128900
 21
-670.019287
  0
LINE
  8
A-POWR-1
 10
34.128900
 20
-670.019287
 11
36.462233
 21
-670.019287
  0
CIRCLE
  8
A-POWR-1
 10
30.795567
 20
-670.019287
 40
3.333333
  0
LINE
  8
A-POWR-1
 10
166.233261
 20
-665.282450
 11
166.233261
 21
-662.949117
  0
LINE
  8
A-POWR-1
 10
166.233261
 20
-671.949117
 11
166.233261
 21
-674.282450
  0
LINE
  8
A-POWR-1
 10
162.899928
 20
-668.615784
 11
160.566594
 21
-668.615784
  0
LINE
  8
A-POWR-1
 10
169.566594
 20
-668.615784
 11
171.899928
 21
-668.615784
  0
CIRCLE
  8
A-POWR-1
 10
166.233261
 20
-668.615784
 40
3.333333
  0
ARC
  8
A-POWR-1
 10
99.496866
 20
-764.123922
 40
116.514166
 50
58.386576
 51
122.800863
  0
INSERT
  8
A-POWR-1
  2
FIXT-Light
 10
-160.080368
 20
-864.296197
 41
1.000000
 42
1.000000
 43
 1.0
 50
0.000000
  0
ARC
  8
A-POWR-1
 10
-183.378450
 20
-835.421700
 40
29.291885
 50
337.489056
 51
18.967994
  0
INSERT
  8
A-POWR-1
  2
FIXT-Light
 10
-159.027740
 20
-830.261346
 41
1.000000
 42
1.000000
 43
 1.0
 50
0.000000
  0
INSERT
  8
A-POWR-1
  2
FIXT-RecLight
 10
-107.800003
 20
-759.283374
 41
1.000000
 42
1.000000
 43
 1.0
 50
0.000000
  0
INSERT
  8
A-POWR-1
  2
FIXT-RecExFan
 10
21.672819
 20
-572.257983
 41
1.000000
 42
1.000000
 43
 1.0
 50
0.000000
  0
CIRCLE
  8
A-POWR-1
 10
-248.500824
 20
-746.159119
 40
3.333333
  0
LINE
  8
A-POWR-1
 10
-246.500824
 20
-740.492452
 11
-246.500824
 21
-748.592452
  0
LINE
  8
A-POWR-1
 10
-250.500824
 20
-740.492452
 11
-250.500824
 21
-748.592452
  0
INSERT
  8
A-POWR-1
  2
FIXT-RecLight
 10
239.916992
 20
-484.899249
 41
1.000000
 42
1.000000
 43
 1.0
 50
0.000000
  0
INSERT
  8
A-POWR-1
  2
FIXT-RecLight
 10
239.916992
 20
-526.653369
 41
1.000000
 42
1.000000
 43
 1.0
 50
0.000000
  0
ARC
  8
A-POWR-1
 10
210.689108
 20
-492.301163
 40
35.918252
 50
336.222935
 51
23.777065
  0
LINE
  8
A-POWR-1
 10
122.022934
 20
-293.706034
 11
122.022934
 21
-291.372701
  0
LINE
  8
A-POWR-1
 10
122.022934
 20
-300.372701
 11
122.022934
 21
-302.706034
  0
LINE
  8
A-POWR-1
 10
118.689601
 20
-297.039368
 11
116.356267
 21
-297.039368
  0
LINE
  8
A-POWR-1
 10
125.356267
 20
-297.039368
 11
127.689601
 21
-297.039368
  0
CIRCLE
  8
A-POWR-1
 10
122.022934
 20
-297.039368
 40
3.333333
  0
ARC
  8
A-POWR-1
 10
127.005374
 20
-334.723340
 40
38.011925
 50
108.573038
 51
157.565834
  0
LINE
  8
A-POWR-1
 10
170.443756
 20
-292.302439
 11
170.443756
 21
-289.969106
  0
LINE
  8
A-POWR-1
 10
170.443756
 20
-298.969106
 11
170.443756
 21
-301.302439
  0
LINE
  8
A-POWR-1
 10
167.110423
 20
-295.635773
 11
164.777089
 21
-295.635773
  0
LINE
  8
A-POWR-1
 10
173.777089
 20
-295.635773
 11
176.110423
 21
-295.635773
  0
CIRCLE
  8
A-POWR-1
 10
170.443756
 20
-295.635773
 40
3.333333
  0
ARC
  8
A-POWR-1
 10
147.215862
 20
-330.232146
 40
41.670662
 50
66.095859
 51
117.224926
  0
LINE
  8
A-POWR-1
 10
89.742447
 20
-323.881297
 11
89.742447
 21
-321.547963
  0
LINE
  8
A-POWR-1
 10
89.742447
 20
-330.547963
 11
89.742447
 21
-332.881297
  0
LINE
  8
A-POWR-1
 10
86.409114
 20
-327.214630
 11
84.075780
 21
-327.214630
  0
LINE
  8
A-POWR-1
 10
93.075780
 20
-327.214630
 11
95.409114
 21
-327.214630
  0
CIRCLE
  8
A-POWR-1
 10
89.742447
 20
-327.214630
 40
3.333333
  0
INSERT
  8
A-POWR-1
  2
FIXT-CeilFan
 10
-21.133915
 20
-180.565430
 41
1.000000
 42
1.000000
 43
 1.0
 50
0.000000
  0
INSERT
  8
A-POWR-1
  2
FIXT-RecLight
 10
-249.553452
 20
-392.268268
 41
1.000000
 42
1.000000
 43
 1.0
 50
0.000000
  0
ARC
  8
A-POWR-1
 10
-271.483128
 20
-362.758141
 40
27.166732
 50
339.950903
 51
18.775906
  0
INSERT
  8
A-POWR-1
  2
FIXT-RecLight
 10
-249.202576
 20
-360.689533
 41
1.000000
 42
1.000000
 43
 1.0
 50
0.000000
  0
LINE
  8
A-POWR-1
 10
-107.449234
 20
-655.107157
 11
-107.449234
 21
-652.773824
  0
LINE
  8
A-POWR-1
 10
-107.449234
 20
-661.773824
 11
-107.449234
 21
-664.107157
  0
LINE
  8
A-POWR-1
 10
-110.782567
 20
-658.440491
 11
-113.115901
 21
-658.440491
  0
LINE
  8
A-POWR-1
 10
-104.115901
 20
-658.440491
 11
-101.782567
 21
-658.440491
  0
CIRCLE
  8
A-POWR-1
 10
-107.449234
 20
-658.440491
 40
3.333333
  0
INSERT
  8
A-POWR-1
  2
FIXT-RecLight
 10
-222.536087
 20
-443.145129
 41
1.000000
 42
1.000000
 43
 1.0
 50
0.000000
  0
ARC
  8
A-POWR-1
 10
-189.659122
 20
-384.161505
 40
56.141931
 50
241.359676
 51
298.024272
  0
INSERT
  8
A-POWR-1
  2
FIXT-RecLight
 10
-223.237839
 20
-307.356555
 41
1.000000
 42
1.000000
 43
 1.0
 50
0.000000
  0
INSERT
  8
A-POWR-1
  2
FIXT-RecLight
 10
-155.518982
 20
-307.356555
 41
1.000000
 42
1.000000
 43
 1.0
 50
0.000000
  0
ARC
  8
A-POWR-1
 10
-189.378410
 20
-341.284608
 40
58.253963
 50
61.386618
 51
118.613382
  0
INSERT
  8
A-POWR-1
  2
FIXT-RecLight
 10
-156.922485
 20
-376.829791
 41
1.000000
 42
1.000000
 43
 1.0
 50
0.000000
  0
ARC
  8
A-POWR-1
 10
-204.851999
 20
-327.635574
 40
59.775332
 50
330.039963
 51
27.645365
  0
INSERT
  8
A-POWR-1
  2
FIXT-RecLight
 10
-157.273361
 20
-443.495990
 41
1.000000
 42
1.000000
 43
 1.0
 50
0.000000
  0
ARC
  8
A-POWR-1
 10
-203.764262
 20
-396.442131
 40
57.349227
 50
331.202755
 51
28.194136
  0
LINE
  8
A-POWR-1
 10
133.250931
 20
-487.388987
 11
133.250931
 21
-485.055654
  0
LINE
  8
A-POWR-1
 10
133.250931
 20
-494.055654
 11
133.250931
 21
-496.388987
  0
LINE
  8
A-POWR-1
 10
129.917597
 20
-490.722321
 11
127.584264
 21
-490.722321
  0
LINE
  8
A-POWR-1
 10
136.584264
 20
-490.722321
 11
138.917597
 21
-490.722321
  0
CIRCLE
  8
A-POWR-1
 10
133.250931
 20
-490.722321
 40
3.333333
  0
LINE
  8
A-POWR-1
 10
-247.448303
 20
-698.966532
 11
-247.448303
 21
-696.633199
  0
LINE
  8
A-POWR-1
 10
-247.448303
 20
-705.633199
 11
-247.448303
 21
-707.966532
  0
LINE
  8
A-POWR-1
 10
-250.781637
 20
-702.299866
 11
-253.114970
 21
-702.299866
  0
LINE
  8
A-POWR-1
 10
-244.114970
 20
-702.299866
 11
-241.781637
 21
-702.299866
  0
CIRCLE
  8
A-POWR-1
 10
-247.448303
 20
-702.299866
 40
3.333333
  0
INSERT
  8
A-POWR-1
  2
FIXT-RecLight
 10
-292.360199
 20
-692.968005
 41
1.000000
 42
1.000000
 43
 1.0
 50
0.000000
  0
ARC
  8
A-POWR-1
 10
-260.676184
 20
-702.124298
 40
38.936600
 50
155.212863
 51
204.787137
  0
INSERT
  8
A-POWR-1
  2
FIXT-RecLight
 10
-292.009308
 20
-647.705188
 41
1.000000
 42
1.000000
 43
 1.0
 50
0.000000
  0
ARC
  8
A-POWR-1
 10
-260.500781
 20
-657.107074
 40
38.937718
 50
154.768356
 51
204.343314
  0
INSERT
  8
A-POWR-1
  2
FIXT-RecLight
 10
-205.343216
 20
-647.354297
 41
1.000000
 42
1.000000
 43
 1.0
 50
0.000000
  0
ARC
  8
A-POWR-1
 10
-248.430638
 20
-694.720860
 40
74.553602
 50
60.014693
 51
120.449259
  0
INSERT
  8
A-POWR-1
  2
FIXT-RecLight
 10
-205.343216
 20
-737.879993
 41
1.000000
 42
1.000000
 43
 1.0
 50
0.000000
  0
INSERT
  8
A-POWR-1
  2
FIXT-RecLight
 10
-205.694092
 20
-782.441150
 41
1.000000
 42
1.000000
 43
 1.0
 50
0.000000
  0
ARC
  8
A-POWR-1
 10
-236.711464
 20
-746.439812
 40
38.334145
 50
334.949403
 51
24.148319
  0
INSERT
  8
A-POWR-1
  2
FIXT-RecLight
 10
-292.711060
 20
-783.142871
 41
1.000000
 42
1.000000
 43
 1.0
 50
0.000000
  0
ARC
  8
A-POWR-1
 10
-249.693781
 20
-708.404987
 40
74.857260
 50
240.221871
 51
300.702197
  0
INSERT
  8
A-POWR-1
  2
FIXT-RecLight
 10
-292.360199
 20
-738.230884
 41
1.000000
 42
1.000000
 43
 1.0
 50
0.000000
  0
ARC
  8
A-POWR-1
 10
-261.097238
 20
-747.457333
 40
38.635931
 50
154.858130
 51
204.246678
  0
INSERT
  8
A-POWR-1
  2
FIXT-RecLight
 10
-182.536346
 20
-625.600085
 41
1.000000
 42
1.000000
 43
 1.0
 50
0.000000
  0
LINE
  8
A-POWR-1
 10
141.208817
 20
-216.572184
 11
141.208817
 21
-214.238851
  0
LINE
  8
A-POWR-1
 10
141.208817
 20
-223.238851
 11
141.208817
 21
-225.572184
  0
LINE
  8
A-POWR-1
 10
137.875483
 20
-219.905518
 11
135.542150
 21
-219.905518
  0
LINE
  8
A-POWR-1
 10
144.542150
 20
-219.905518
 11
146.875483
 21
-219.905518
  0
CIRCLE
  8
A-POWR-1
 10
141.208817
 20
-219.905518
 40
3.333333
  0
CIRCLE
  8
A-POWR-1
 10
-2.434982
 20
-222.980667
 40
3.333333
  0
LINE
  8
A-POWR-1
 10
-0.434982
 20
-217.314000
 11
-0.434982
 21
-225.414000
  0
LINE
  8
A-POWR-1
 10
-4.434982
 20
-217.314000
 11
-4.434982
 21
-225.414000
  0
LINE
  8
A-POWR-1
 10
-108.852730
 20
-777.211589
 11
-108.852730
 21
-774.878255
  0
LINE
  8
A-POWR-1
 10
-108.852730
 20
-783.878255
 11
-108.852730
 21
-786.211589
  0
LINE
  8
A-POWR-1
 10
-112.186063
 20
-780.544922
 11
-114.519396
 21
-780.544922
  0
LINE
  8
A-POWR-1
 10
-105.519396
 20
-780.544922
 11
-103.186063
 21
-780.544922
  0
CIRCLE
  8
A-POWR-1
 10
-108.852730
 20
-780.544922
 40
3.333333
  0
ARC
  8
A-POWR-1
 10
-135.239569
 20
-755.623530
 40
36.295193
 50
245.560660
 51
305.011655
  0
LINE
  8
A-POWR-1
 10
-267.666667
 20
-405.108734
 11
-270.000000
 21
-405.108734
  0
LINE
  8
A-POWR-1
 10
-261.000000
 20
-405.108734
 11
-258.666667
 21
-405.108734
  0
LINE
  8
A-POWR-1
 10
-264.333333
 20
-408.442067
 11
-264.333333
 21
-410.775401
  0
LINE
  8
A-POWR-1
 10
-264.333333
 20
-401.775401
 11
-264.333333
 21
-399.442067
  0
CIRCLE
  8
A-POWR-1
 10
-264.333333
 20
-405.108734
 40
3.333333
  0
ARC
  8
A-POWR-1
 10
-313.806633
 20
-364.056377
 40
70.629145
 50
324.462322
 51
35.537678
  0
LINE
  8
A-POWR-1
 10
-267.666667
 20
-323.004021
 11
-270.000000
 21
-323.004021
  0
LINE
  8
A-POWR-1
 10
-261.000000
 20
-323.004021
 11
-258.666667
 21
-323.004021
  0
LINE
  8
A-POWR-1
 10
-264.333333
 20
-326.337354
 11
-264.333333
 21
-328.670687
  0
LINE
  8
A-POWR-1
 10
-264.333333
 20
-319.670687
 11
-264.333333
 21
-317.337354
  0
CIRCLE
  8
A-POWR-1
 10
-264.333333
 20
-323.004021
 40
3.333333
  0
CIRCLE
  8
A-POWR-1
 10
-264.333333
 20
-419.494705
 40
3.333333
  0
LINE
  8
A-POWR-1
 10
-270.000000
 20
-417.494705
 11
-261.900000
 21
-417.494705
  0
LINE
  8
A-POWR-1
 10
-270.000000
 20
-421.494705
 11
-261.900000
 21
-421.494705
  0
LINE
  8
A-POWR-1
 10
-265.666667
 20
-492.827557
 11
-268.000000
 21
-492.827557
  0
LINE
  8
A-POWR-1
 10
-259.000000
 20
-492.827557
 11
-256.666667
 21
-492.827557
  0
LINE
  8
A-POWR-1
 10
-262.333333
 20
-496.160890
 11
-262.333333
 21
-498.494223
  0
LINE
  8
A-POWR-1
 10
-262.333333
 20
-489.494223
 11
-262.333333
 21
-487.160890
  0
CIRCLE
  8
A-POWR-1
 10
-262.333333
 20
-492.827557
 40
3.333333
  0
ARC
  8
A-POWR-1
 10
-240.640384
 20
-463.059310
 40
32.766529
 50
245.298275
 51
316.373630
  0
LINE
  8
A-POWR-1
 10
-265.666667
 20
-537.037788
 11
-268.000000
 21
-537.037788
  0
LINE
  8
A-POWR-1
 10
-259.000000
 20
-537.037788
 11
-256.666667
 21
-537.037788
  0
LINE
  8
A-POWR-1
 10
-262.333333
 20
-540.371122
 11
-262.333333
 21
-542.704455
  0
LINE
  8
A-POWR-1
 10
-262.333333
 20
-533.704455
 11
-262.333333
 21
-531.371122
  0
CIRCLE
  8
A-POWR-1
 10
-262.333333
 20
-537.037788
 40
3.333333
  0
ARC
  8
A-POWR-1
 10
-285.280496
 20
-514.932673
 40
38.031079
 50
324.462322
 51
35.537678
  0
LINE
  8
A-POWR-1
 10
-265.666667
 20
-581.949776
 11
-268.000000
 21
-581.949776
  0
LINE
  8
A-POWR-1
 10
-259.000000
 20
-581.949776
 11
-256.666667
 21
-581.949776
  0
LINE
  8
A-POWR-1
 10
-262.333333
 20
-585.283109
 11
-262.333333
 21
-587.616442
  0
LINE
  8
A-POWR-1
 10
-262.333333
 20
-578.616442
 11
-262.333333
 21
-576.283109
  0
CIRCLE
  8
A-POWR-1
 10
-262.333333
 20
-581.949776
 40
3.333333
  0
ARC
  8
A-POWR-1
 10
-285.771724
 20
-559.493782
 40
38.634752
 50
324.462322
 51
35.537678
  0
LINE
  8
A-POWR-1
 10
90.093318
 20
-841.333333
 11
90.093318
 21
-839.000000
  0
LINE
  8
A-POWR-1
 10
90.093318
 20
-848.000000
 11
90.093318
 21
-850.333333
  0
LINE
  8
A-POWR-1
 10
86.759985
 20
-844.666667
 11
84.426651
 21
-844.666667
  0
LINE
  8
A-POWR-1
 10
93.426651
 20
-844.666667
 11
95.759985
 21
-844.666667
  0
CIRCLE
  8
A-POWR-1
 10
90.093318
 20
-844.666667
 40
3.333333
  0
ARC
  8
A-POWR-1
 10
30.093717
 20
-768.667225
 40
103.227216
 50
234.462322
 51
305.537678
  0
LINE
  8
A-POWR-1
 10
-29.905884
 20
-841.333333
 11
-29.905884
 21
-839.000000
  0
LINE
  8
A-POWR-1
 10
-29.905884
 20
-848.000000
 11
-29.905884
 21
-850.333333
  0
LINE
  8
A-POWR-1
 10
-33.239217
 20
-844.666667
 11
-35.572550
 21
-844.666667
  0
LINE
  8
A-POWR-1
 10
-26.572550
 20
-844.666667
 11
-24.239217
 21
-844.666667
  0
CIRCLE
  8
A-POWR-1
 10
-29.905884
 20
-844.666667
 40
3.333333
  0
LINE
  8
A-POWR-1
 10
220.969644
 20
-813.333333
 11
220.969644
 21
-811.000000
  0
LINE
  8
A-POWR-1
 10
220.969644
 20
-820.000000
 11
220.969644
 21
-822.333333
  0
LINE
  8
A-POWR-1
 10
217.636310
 20
-816.666667
 11
215.302977
 21
-816.666667
  0
LINE
  8
A-POWR-1
 10
224.302977
 20
-816.666667
 11
226.636310
 21
-816.666667
  0
CIRCLE
  8
A-POWR-1
 10
220.969644
 20
-816.666667
 40
3.333333
  0
ARC
  8
A-POWR-1
 10
135.931481
 20
-747.053239
 40
115.131808
 50
246.538273
 51
317.613629
  0
LINE
  8
A-POWR-1
 10
232.333333
 20
-614.581024
 11
230.000000
 21
-614.581024
  0
LINE
  8
A-POWR-1
 10
239.000000
 20
-614.581024
 11
241.333333
 21
-614.581024
  0
LINE
  8
A-POWR-1
 10
235.666667
 20
-617.914358
 11
235.666667
 21
-620.247691
  0
LINE
  8
A-POWR-1
 10
235.666667
 20
-611.247691
 11
235.666667
 21
-608.914358
  0
CIRCLE
  8
A-POWR-1
 10
235.666667
 20
-614.581024
 40
3.333333
  0
CIRCLE
  8
A-POWR-1
 10
-104.333333
 20
-198.443542
 40
3.333333
  0
LINE
  8
A-POWR-1
 10
-110.000000
 20
-196.443542
 11
-101.900000
 21
-196.443542
  0
LINE
  8
A-POWR-1
 10
-110.000000
 20
-200.443542
 11
-101.900000
 21
-200.443542
  0
LINE
  8
A-POWR-1
 10
198.162877
 20
-168.666667
 11
198.162877
 21
-171.000000
  0
LINE
  8
A-POWR-1
 10
198.162877
 20
-162.000000
 11
198.162877
 21
-159.666667
  0
LINE
  8
A-POWR-1
 10
194.829544
 20
-165.333333
 11
192.496210
 21
-165.333333
  0
LINE
  8
A-POWR-1
 10
201.496210
 20
-165.333333
 11
203.829544
 21
-165.333333
  0
CIRCLE
  8
A-POWR-1
 10
198.162877
 20
-165.333333
 40
3.333333
  0
LINE
  8
A-POWR-1
 10
16.058823
 20
-92.666667
 11
16.058823
 21
-95.000000
  0
LINE
  8
A-POWR-1
 10
16.058823
 20
-86.000000
 11
16.058823
 21
-83.666667
  0
LINE
  8
A-POWR-1
 10
12.725489
 20
-89.333333
 11
10.392156
 21
-89.333333
  0
LINE
  8
A-POWR-1
 10
19.392156
 20
-89.333333
 11
21.725489
 21
-89.333333
  0
CIRCLE
  8
A-POWR-1
 10
16.058823
 20
-89.333333
 40
3.333333
  0
LINE
  8
A-POWR-1
 10
-180.782082
 20
-474.333333
 11
-180.782082
 21
-472.000000
  0
LINE
  8
A-POWR-1
 10
-180.782082
 20
-481.000000
 11
-180.782082
 21
-483.333333
  0
LINE
  8
A-POWR-1
 10
-177.448748
 20
-477.666667
 11
-175.115415
 21
-477.666667
  0
LINE
  8
A-POWR-1
 10
-184.115415
 20
-477.666667
 11
-186.448748
 21
-477.666667
  0
CIRCLE
  8
A-POWR-1
 10
-180.782082
 20
-477.666667
 40
3.333333
  0
LINE
  8
A-POWR-1
 10
-216.922188
 20
-474.333333
 11
-216.922188
 21
-472.000000
  0
LINE
  8
A-POWR-1
 10
-216.922188
 20
-481.000000
 11
-216.922188
 21
-483.333333
  0
LINE
  8
A-POWR-1
 10
-213.588854
 20
-477.666667
 11
-211.255521
 21
-477.666667
  0
LINE
  8
A-POWR-1
 10
-220.255521
 20
-477.666667
 11
-222.588854
 21
-477.666667
  0
CIRCLE
  8
A-POWR-1
 10
-216.922188
 20
-477.666667
 40
3.333333
  0
ARC
  8
A-POWR-1
 10
-198.852135
 20
-460.368592
 40
31.088895
 50
234.462322
 51
305.537678
  0
LINE
  8
A-POWR-1
 10
-216.922188
 20
-600.666667
 11
-216.922188
 21
-603.000000
  0
LINE
  8
A-POWR-1
 10
-216.922188
 20
-594.000000
 11
-216.922188
 21
-591.666667
  0
LINE
  8
A-POWR-1
 10
-213.588854
 20
-597.333333
 11
-211.255521
 21
-597.333333
  0
LINE
  8
A-POWR-1
 10
-220.255521
 20
-597.333333
 11
-222.588854
 21
-597.333333
  0
CIRCLE
  8
A-POWR-1
 10
-216.922188
 20
-597.333333
 40
3.333333
  0
ARC
  8
A-POWR-1
 10
-240.796251
 20
-611.829356
 40
32.803078
 50
43.297768
 51
114.373124
  0
LINE
  8
A-POWR-1
 10
-59.379375
 20
-725.333333
 11
-59.379375
 21
-723.000000
  0
LINE
  8
A-POWR-1
 10
-59.379375
 20
-732.000000
 11
-59.379375
 21
-734.333333
  0
LINE
  8
A-POWR-1
 10
-62.712709
 20
-728.666667
 11
-65.046042
 21
-728.666667
  0
LINE
  8
A-POWR-1
 10
-56.046042
 20
-728.666667
 11
-53.712709
 21
-728.666667
  0
CIRCLE
  8
A-POWR-1
 10
-59.379375
 20
-728.666667
 40
3.333333
  0
ARC
  8
A-POWR-1
 10
-107.449232
 20
-669.368867
 40
82.702508
 50
234.462322
 51
305.537678
  0
LINE
  8
A-POWR-1
 10
-155.519089
 20
-725.333333
 11
-155.519089
 21
-723.000000
  0
LINE
  8
A-POWR-1
 10
-155.519089
 20
-732.000000
 11
-155.519089
 21
-734.333333
  0
LINE
  8
A-POWR-1
 10
-158.852422
 20
-728.666667
 11
-161.185755
 21
-728.666667
  0
LINE
  8
A-POWR-1
 10
-152.185755
 20
-728.666667
 11
-149.852422
 21
-728.666667
  0
CIRCLE
  8
A-POWR-1
 10
-155.519089
 20
-728.666667
 40
3.333333
  0
LINE
  8
A-POWR-1
 10
-65.344248
 20
-777.333333
 11
-65.344248
 21
-775.000000
  0
LINE
  8
A-POWR-1
 10
-65.344248
 20
-784.000000
 11
-65.344248
 21
-786.333333
  0
LINE
  8
A-POWR-1
 10
-68.677581
 20
-780.666667
 11
-71.010914
 21
-780.666667
  0
LINE
  8
A-POWR-1
 10
-62.010914
 20
-780.666667
 11
-59.677581
 21
-780.666667
  0
CIRCLE
  8
A-POWR-1
 10
-65.344248
 20
-780.666667
 40
3.333333
  0
ARC
  8
A-POWR-1
 10
-81.413267
 20
-754.149857
 40
38.073922
 50
234.909895
 51
294.963949
  0
LINE
  8
A-POWR-1
 10
76.333333
 20
-99.496832
 11
74.000000
 21
-99.496832
  0
LINE
  8
A-POWR-1
 10
83.000000
 20
-99.496832
 11
85.333333
 21
-99.496832
  0
LINE
  8
A-POWR-1
 10
79.666667
 20
-102.830166
 11
79.666667
 21
-105.163499
  0
LINE
  8
A-POWR-1
 10
79.666667
 20
-96.163499
 11
79.666667
 21
-93.830166
  0
CIRCLE
  8
A-POWR-1
 10
79.666667
 20
-99.496832
 40
3.333333
  0
ARC
  8
A-POWR-1
 10
102.429221
 20
-205.762430
 40
107.286114
 50
26.833629
 51
97.908984
  0
CIRCLE
  8
A-POWR-1
 10
25.051317
 20
-293.618139
 40
3.333333
  0
LINE
  8
A-POWR-1
 10
30.472469
 20
-296.210864
 11
24.744904
 21
-290.483299
  0
LINE
  8
A-POWR-1
 10
27.644042
 20
-299.039291
 11
21.916477
 21
-293.311726
  0
ARC
  8
A-POWR-1
 10
53.966173
 20
-240.190365
 40
58.968330
 50
169.865565
 51
234.106823
  0
LINE
  8
A-POWR-1
 10
72.198799
 20
-560.666667
 11
72.198799
 21
-563.000000
  0
LINE
  8
A-POWR-1
 10
72.198799
 20
-554.000000
 11
72.198799
 21
-551.666667
  0
LINE
  8
A-POWR-1
 10
75.532132
 20
-557.333333
 11
77.865466
 21
-557.333333
  0
LINE
  8
A-POWR-1
 10
68.865466
 20
-557.333333
 11
66.532132
 21
-557.333333
  0
CIRCLE
  8
A-POWR-1
 10
72.198799
 20
-557.333333
 40
3.333333
  0
LINE
  8
A-POWR-1
 10
197.461029
 20
-560.666667
 11
197.461029
 21
-563.000000
  0
LINE
  8
A-POWR-1
 10
197.461029
 20
-554.000000
 11
197.461029
 21
-551.666667
  0
LINE
  8
A-POWR-1
 10
200.794362
 20
-557.333333
 11
203.127696
 21
-557.333333
  0
LINE
  8
A-POWR-1
 10
194.127696
 20
-557.333333
 11
191.794362
 21
-557.333333
  0
CIRCLE
  8
A-POWR-1
 10
197.461029
 20
-557.333333
 40
3.333333
  0
ARC
  8
A-POWR-1
 10
134.829914
 20
-637.016894
 40
107.754644
 50
54.462322
 51
125.537678
  0
LINE
  8
A-POWR-1
 10
-7.666667
 20
-544.406162
 11
-10.000000
 21
-544.406162
  0
LINE
  8
A-POWR-1
 10
-1.000000
 20
-544.406162
 11
1.333333
 21
-544.406162
  0
LINE
  8
A-POWR-1
 10
-4.333333
 20
-547.739496
 11
-4.333333
 21
-550.072829
  0
LINE
  8
A-POWR-1
 10
-4.333333
 20
-541.072829
 11
-4.333333
 21
-538.739496
  0
CIRCLE
  8
A-POWR-1
 10
-4.333333
 20
-544.406162
 40
3.333333
  0
LINE
  8
A-POWR-1
 10
-150.255965
 20
-777.333333
 11
-150.255965
 21
-775.000000
  0
LINE
  8
A-POWR-1
 10
-150.255965
 20
-784.000000
 11
-150.255965
 21
-786.333333
  0
LINE
  8
A-POWR-1
 10
-153.589298
 20
-780.666667
 11
-155.922632
 21
-780.666667
  0
LINE
  8
A-POWR-1
 10
-146.922632
 20
-780.666667
 11
-144.589298
 21
-780.666667
  0
CIRCLE
  8
A-POWR-1
 10
-150.255965
 20
-780.666667
 40
3.333333
  0
INSERT
  8
A-CASE-1
  2
FIXT-Toilet
 10
20.750017
 20
-568.019364
 41
1.000000
 42
1.071429
 43
 1.0
 50
-180.000000
  0
INSERT
  8
A-CASE-1
  2
FIXT-OvalFree
 10
6.399609
 20
-544.628700
 41
1.000000
 42
0.842105
 43
 1.0
 50
-270.000000
  0
INSERT
  8
A-CASE-1
  2
FIXT-fire3618
 10
-274.017510
 20
-363.107800
 41
1.000000
 42
0.857143
 43
 1.0
 50
-270.000000
  0
INSERT
  8
A-CASE-1
  2
FIXT-fire3618
 10
-20.108852
 20
-94.979571
 41
1.000000
 42
1.000000
 43
 1.0
 50
0.000000
  0
INSERT
  8
A-CASE-1
  2
FIXT-Rng30G
 10
199.713395
 20
-364.000000
 41
0.937500
 42
1.000000
 43
 1.0
 50
-90.000000
  0
LINE
  8
A-CASE-1
 10
151.000000
 20
-280.105156
 11
151.000000
 21
-314.105156
  0
LINE
  8
A-CASE-1
 10
127.000000
 20
-314.105156
 11
127.000000
 21
-311.105156
  0
LINE
  8
A-CASE-1
 10
127.000000
 20
-283.105156
 11
127.000000
 21
-280.105156
  0
LINE
  8
A-CASE-1
 10
127.000000
 20
-280.105156
 11
151.000000
 21
-280.105156
  0
LINE
  8
A-CASE-1
 10
151.000000
 20
-314.105156
 11
127.000000
 21
-314.105156
  0
INSERT
  8
A-CASE-1
  2
FIXT-DishWash
 10
139.000000
 20
-324.450241
 41
1.000000
 42
1.000000
 43
 1.0
 50
0.000000
  0
LINE
  8
A-CASE-1
 10
202.000000
 20
-379.000000
 11
226.000000
 21
-379.000000
  0
LINE
  8
A-CASE-1
 10
202.000000
 20
-391.000000
 11
202.000000
 21
-379.000000
  0
LINE
  8
A-CASE-1
 10
207.000000
 20
-402.000000
 11
202.000000
 21
-397.000000
  0
LINE
  8
A-CASE-1
 10
207.000000
 20
-392.000000
 11
202.000000
 21
-397.000000
  0
LINE
  8
A-CASE-1
 10
190.000000
 20
-415.000000
 11
190.000000
 21
-412.000000
  0
LINE
  8
A-CASE-1
 10
190.000000
 20
-394.000000
 11
190.000000
 21
-391.000000
  0
LINE
  8
A-CASE-1
 10
202.000000
 20
-391.000000
 11
202.000000
 21
-394.000000
  0
LINE
  8
A-CASE-1
 10
202.000000
 20
-412.000000
 11
202.000000
 21
-415.000000
  0
LINE
  8
A-CASE-1
 10
190.000000
 20
-391.000000
 11
202.000000
 21
-391.000000
  0
LINE
  8
A-CASE-1
 10
191.000000
 20
-396.000000
 11
196.000000
 21
-391.000000
  0
LINE
  8
A-CASE-1
 10
201.000000
 20
-396.000000
 11
196.000000
 21
-391.000000
  0
LINE
  8
A-CASE-1
 10
163.000000
 20
-415.000000
 11
163.000000
 21
-391.000000
  0
LINE
  8
A-CASE-1
 10
190.000000
 20
-391.000000
 11
190.000000
 21
-394.000000
  0
LINE
  8
A-CASE-1
 10
190.000000
 20
-412.000000
 11
190.000000
 21
-415.000000
  0
LINE
  8
A-CASE-1
 10
163.000000
 20
-391.000000
 11
190.000000
 21
-391.000000
  0
LINE
  8
A-CASE-1
 10
171.500000
 20
-396.000000
 11
176.500000
 21
-391.000000
  0
LINE
  8
A-CASE-1
 10
181.500000
 20
-396.000000
 11
176.500000
 21
-391.000000
  0
INSERT
  8
A-CASE-1
  2
FIXT-ref002
 10
145.175943
 20
-379.648889
 41
1.166667
 42
1.133333
 43
 1.0
 50
-180.000000
  0
LINE
  8
A-CASE-1
 10
103.000000
 20
-415.000000
 11
103.000000
 21
-391.000000
  0
LINE
  8
A-CASE-1
 10
127.000000
 20
-391.000000
 11
127.000000
 21
-415.000000
  0
LINE
  8
A-CASE-1
 10
103.000000
 20
-391.000000
 11
127.000000
 21
-391.000000
  0
LINE
  8
A-CASE-1
 10
110.000000
 20
-396.000000
 11
115.000000
 21
-391.000000
  0
LINE
  8
A-CASE-1
 10
120.000000
 20
-396.000000
 11
115.000000
 21
-391.000000
  0
LINE
  8
A-CASE-1
 10
226.000000
 20
-325.000000
 11
223.000000
 21
-325.000000
  0
LINE
  8
A-CASE-1
 10
205.000000
 20
-325.000000
 11
202.000000
 21
-325.000000
  0
LINE
  8
A-CASE-1
 10
202.000000
 20
-289.000000
 11
205.000000
 21
-289.000000
  0
LINE
  8
A-CASE-1
 10
223.000000
 20
-289.000000
 11
226.000000
 21
-289.000000
  0
LINE
  8
A-CASE-1
 10
202.000000
 20
-325.000000
 11
202.000000
 21
-289.000000
  0
LINE
  8
A-CASE-1
 10
207.000000
 20
-312.000000
 11
202.000000
 21
-307.000000
  0
LINE
  8
A-CASE-1
 10
207.000000
 20
-302.000000
 11
202.000000
 21
-307.000000
  0
LINE
  8
A-CASE-1
 10
202.000000
 20
-280.105156
 11
202.000000
 21
-283.105156
  0
LINE
  8
A-CASE-1
 10
202.000000
 20
-311.105156
 11
202.000000
 21
-314.105156
  0
LINE
  8
A-CASE-1
 10
190.000000
 20
-314.105156
 11
190.000000
 21
-311.105156
  0
LINE
  8
A-CASE-1
 10
190.000000
 20
-283.105156
 11
190.000000
 21
-280.105156
  0
LINE
  8
A-CASE-1
 10
190.000000
 20
-280.105156
 11
202.000000
 21
-280.105156
  0
LINE
  8
A-CASE-1
 10
202.000000
 20
-314.105156
 11
190.000000
 21
-314.105156
  0
LINE
  8
A-CASE-1
 10
201.000000
 20
-309.105156
 11
196.000000
 21
-314.105156
  0
LINE
  8
A-CASE-1
 10
191.000000
 20
-309.105156
 11
196.000000
 21
-314.105156
  0
LINE
  8
A-CASE-1
 10
190.000000
 20
-280.105156
 11
190.000000
 21
-283.105156
  0
LINE
  8
A-CASE-1
 10
190.000000
 20
-311.105156
 11
190.000000
 21
-314.105156
  0
LINE
  8
A-CASE-1
 10
151.000000
 20
-314.105156
 11
151.000000
 21
-280.105156
  0
LINE
  8
A-CASE-1
 10
151.000000
 20
-280.105156
 11
190.000000
 21
-280.105156
  0
LINE
  8
A-CASE-1
 10
190.000000
 20
-314.105156
 11
151.000000
 21
-314.105156
  0
INSERT
  8
A-CASE-1
  2
FIXT-OffKit32
 10
170.500000
 20
-324.123905
 41
1.000000
 42
1.000000
 43
 1.0
 50
0.000000
  0
LINE
  8
A-CASE-1
 10
226.000000
 20
-349.000000
 11
202.000000
 21
-349.000000
  0
LINE
  8
A-CASE-1
 10
202.000000
 20
-325.000000
 11
205.000000
 21
-325.000000
  0
LINE
  8
A-CASE-1
 10
223.000000
 20
-325.000000
 11
226.000000
 21
-325.000000
  0
LINE
  8
A-CASE-1
 10
202.000000
 20
-349.000000
 11
202.000000
 21
-325.000000
  0
LINE
  8
A-CASE-1
 10
207.000000
 20
-342.000000
 11
202.000000
 21
-337.000000
  0
LINE
  8
A-CASE-1
 10
207.000000
 20
-332.000000
 11
202.000000
 21
-337.000000
  0
LINE
  8
A-CASE-1
 10
102.816497
 20
-290.305088
 11
104.937817
 21
-292.426408
  0
LINE
  8
A-CASE-1
 10
124.736807
 20
-312.225398
 11
126.858127
 21
-314.346719
  0
LINE
  8
A-CASE-1
 10
118.372846
 20
-322.832000
 11
116.251526
 21
-320.710680
  0
LINE
  8
A-CASE-1
 10
96.452536
 20
-300.911690
 11
94.331215
 21
-298.790369
  0
LINE
  8
A-CASE-1
 10
94.331215
 20
-298.790369
 11
102.816497
 21
-290.305088
  0
LINE
  8
A-CASE-1
 10
126.858127
 20
-314.346719
 11
118.372846
 21
-322.832000
  0
LINE
  8
A-CASE-1
 10
122.615487
 20
-311.518291
 11
122.615487
 21
-318.589359
  0
LINE
  8
A-CASE-1
 10
115.544419
 20
-318.589359
 11
122.615487
 21
-318.589359
  0
LINE
  8
A-CASE-1
 10
94.331215
 20
-298.790369
 11
96.452536
 21
-300.911690
  0
LINE
  8
A-CASE-1
 10
116.251526
 20
-320.710680
 11
118.372846
 21
-322.832000
  0
LINE
  8
A-CASE-1
 10
97.159643
 20
-344.045203
 11
95.038322
 21
-341.923883
  0
LINE
  8
A-CASE-1
 10
75.239332
 20
-322.124893
 11
73.118012
 21
-320.003573
  0
LINE
  8
A-CASE-1
 10
73.118012
 20
-320.003573
 11
94.331215
 21
-298.790369
  0
LINE
  8
A-CASE-1
 10
118.372846
 20
-322.832000
 11
97.159643
 21
-344.045203
  0
LINE
  8
A-CASE-1
 10
107.766244
 20
-326.367534
 11
107.766244
 21
-333.438602
  0
LINE
  8
A-CASE-1
 10
100.695177
 20
-333.438602
 11
107.766244
 21
-333.438602
  0
LINE
  8
A-CASE-1
 10
73.118012
 20
-320.003573
 11
75.239332
 21
-322.124893
  0
LINE
  8
A-CASE-1
 10
94.331215
 20
-341.216776
 11
96.452536
 21
-343.338097
  0
ARC
  8
A-CASE-1
 10
89.381468
 20
-336.267029
 40
10.000000
 50
225.000000
 51
315.000000
  0
ARC
  8
A-CASE-1
 10
80.189080
 20
-327.074641
 40
10.000000
 50
135.000000
 51
225.000000
  0
LINE
  8
A-CASE-1
 10
82.310400
 20
-343.338097
 11
73.118012
 21
-334.145708
  0
LINE
  8
A-CASE-1
 10
84.785274
 20
-338.741902
 11
77.714206
 21
-338.741902
  0
LINE
  8
A-CASE-1
 10
77.714206
 20
-331.670835
 11
77.714206
 21
-338.741902
  0
LINE
  8
A-CASE-1
 10
226.000000
 20
-289.000000
 11
223.000000
 21
-289.000000
  0
LINE
  8
A-CASE-1
 10
205.000000
 20
-289.000000
 11
202.000000
 21
-289.000000
  0
LINE
  8
A-CASE-1
 10
202.000000
 20
-259.000000
 11
204.000000
 21
-259.000000
  0
LINE
  8
A-CASE-1
 10
202.000000
 20
-289.000000
 11
202.000000
 21
-259.000000
  0
LINE
  8
A-CASE-1
 10
207.000000
 20
-279.000000
 11
202.000000
 21
-274.000000
  0
LINE
  8
A-CASE-1
 10
207.000000
 20
-269.000000
 11
202.000000
 21
-274.000000
  0
LINE
  8
A-CASE-1
  6
DASHED
 10
103.222848
 20
-415.000000
 11
103.222848
 21
-400.000000
  0
LINE
  8
A-CASE-1
  6
DASHED
 10
127.222848
 20
-400.000000
 11
127.222848
 21
-403.000000
  0
LINE
  8
A-CASE-1
  6
DASHED
 10
127.222848
 20
-412.000000
 11
127.222848
 21
-415.000000
  0
LINE
  8
A-CASE-1
  6
DASHED
 10
103.222848
 20
-400.000000
 11
127.222848
 21
-400.000000
  0
LINE
  8
A-CASE-1
  6
DASHED
 10
127.222848
 20
-415.000000
 11
127.222848
 21
-412.000000
  0
LINE
  8
A-CASE-1
  6
DASHED
 10
127.222848
 20
-394.000000
 11
127.222848
 21
-391.000000
  0
LINE
  8
A-CASE-1
  6
DASHED
 10
163.222848
 20
-391.000000
 11
163.222848
 21
-394.000000
  0
LINE
  8
A-CASE-1
  6
DASHED
 10
163.222848
 20
-412.000000
 11
163.222848
 21
-415.000000
  0
LINE
  8
A-CASE-1
  6
DASHED
 10
127.222848
 20
-391.000000
 11
163.222848
 21
-391.000000
  0
LINE
  8
A-CASE-1
  6
DASHED
 10
226.000000
 20
-391.000000
 11
223.000000
 21
-391.000000
  0
LINE
  8
A-CASE-1
  6
DASHED
 10
217.000000
 20
-391.000000
 11
214.000000
 21
-391.000000
  0
LINE
  8
A-CASE-1
  6
DASHED
 10
214.000000
 20
-379.000000
 11
226.000000
 21
-379.000000
  0
LINE
  8
A-CASE-1
  6
DASHED
 10
214.000000
 20
-391.000000
 11
214.000000
 21
-379.000000
  0
LINE
  8
A-CASE-1
  6
DASHED
 10
190.222848
 20
-415.000000
 11
190.222848
 21
-412.000000
  0
LINE
  8
A-CASE-1
  6
DASHED
 10
190.222848
 20
-406.000000
 11
190.222848
 21
-403.000000
  0
LINE
  8
A-CASE-1
  6
DASHED
 10
202.222848
 20
-403.000000
 11
202.222848
 21
-406.000000
  0
LINE
  8
A-CASE-1
  6
DASHED
 10
202.222848
 20
-412.000000
 11
202.222848
 21
-415.000000
  0
LINE
  8
A-CASE-1
  6
DASHED
 10
190.222848
 20
-403.000000
 11
202.222848
 21
-403.000000
  0
LINE
  8
A-CASE-1
  6
DASHED
 10
163.222848
 20
-415.000000
 11
163.222848
 21
-412.000000
  0
LINE
  8
A-CASE-1
  6
DASHED
 10
163.222848
 20
-400.000000
 11
163.222848
 21
-397.000000
  0
LINE
  8
A-CASE-1
  6
DASHED
 10
190.222848
 20
-397.000000
 11
190.222848
 21
-400.000000
  0
LINE
  8
A-CASE-1
  6
DASHED
 10
190.222848
 20
-412.000000
 11
190.222848
 21
-415.000000
  0
LINE
  8
A-CASE-1
  6
DASHED
 10
163.222848
 20
-397.000000
 11
190.222848
 21
-397.000000
  0
LINE
  8
A-CASE-1
  6
DASHED
 10
226.000000
 20
-379.000000
 11
214.000000
 21
-379.000000
  0
LINE
  8
A-CASE-1
  6
DASHED
 10
214.000000
 20
-349.000000
 11
217.000000
 21
-349.000000
  0
LINE
  8
A-CASE-1
  6
DASHED
 10
223.000000
 20
-349.000000
 11
226.000000
 21
-349.000000
  0
LINE
  8
A-CASE-1
  6
DASHED
 10
214.000000
 20
-379.000000
 11
214.000000
 21
-349.000000
  0
LINE
  8
A-CASE-1
  6
DASHED
 10
226.000000
 20
-349.000000
 11
223.000000
 21
-349.000000
  0
LINE
  8
A-CASE-1
  6
DASHED
 10
217.000000
 20
-349.000000
 11
214.000000
 21
-349.000000
  0
LINE
  8
A-CASE-1
  6
DASHED
 10
214.000000
 20
-319.000000
 11
217.000000
 21
-319.000000
  0
LINE
  8
A-CASE-1
  6
DASHED
 10
223.000000
 20
-319.000000
 11
226.000000
 21
-319.000000
  0
LINE
  8
A-CASE-1
  6
DASHED
 10
214.000000
 20
-349.000000
 11
214.000000
 21
-319.000000
  0
LINE
  8
A-CASE-1
  6
DASHED
 10
226.000000
 20
-319.000000
 11
223.000000
 21
-319.000000
  0
LINE
  8
A-CASE-1
  6
DASHED
 10
217.000000
 20
-319.000000
 11
214.000000
 21
-319.000000
  0
LINE
  8
A-CASE-1
  6
DASHED
 10
214.000000
 20
-289.000000
 11
217.000000
 21
-289.000000
  0
LINE
  8
A-CASE-1
  6
DASHED
 10
223.000000
 20
-289.000000
 11
226.000000
 21
-289.000000
  0
LINE
  8
A-CASE-1
  6
DASHED
 10
214.000000
 20
-319.000000
 11
214.000000
 21
-289.000000
  0
LINE
  8
A-CASE-1
  6
DASHED
 10
210.708130
 20
-412.213203
 11
208.586809
 21
-410.091883
  0
LINE
  8
A-CASE-1
  6
DASHED
 10
204.344169
 20
-405.849242
 11
202.222848
 21
-403.727922
  0
LINE
  8
A-CASE-1
  6
DASHED
 10
214.950770
 20
-391.000000
 11
217.072091
 21
-393.121320
  0
LINE
  8
A-CASE-1
  6
DASHED
 10
221.314731
 20
-397.363961
 11
223.436052
 21
-399.485281
  0
LINE
  8
A-CASE-1
  6
DASHED
 10
223.436052
 20
-399.485281
 11
210.708130
 21
-412.213203
  0
LINE
  8
A-CASE-1
  6
DASHED
 10
202.222848
 20
-403.727922
 11
214.950770
 21
-391.000000
  0
LINE
  8
A-CASE-1
  6
DASHED
 10
226.000000
 20
-289.000000
 11
223.000000
 21
-289.000000
  0
LINE
  8
A-CASE-1
  6
DASHED
 10
217.000000
 20
-289.000000
 11
214.000000
 21
-289.000000
  0
LINE
  8
A-CASE-1
  6
DASHED
 10
214.000000
 20
-289.000000
 11
214.000000
 21
-259.000000
  0
LINE
  8
A-CASE-1
 10
102.153584
 20
-292.382214
 11
100.032264
 21
-290.260894
  0
LINE
  8
A-CASE-1
 10
103.567798
 20
-293.796428
 11
101.446477
 21
-291.675107
  0
LINE
  8
A-CASE-1
 10
112.053079
 20
-281.068506
 11
114.174400
 21
-283.189826
  0
LINE
  8
A-CASE-1
 10
110.638866
 20
-279.654292
 11
112.760186
 21
-281.775612
  0
LINE
  8
A-CASE-1
 10
112.760186
 20
-281.775612
 11
102.153584
 21
-292.382214
  0
LINE
  8
A-CASE-1
 10
101.446477
 20
-291.675107
 11
112.053079
 21
-281.068506
  0
LINE
  8
A-CASE-1
 10
106.749778
 20
-293.442874
 11
106.749778
 21
-286.371807
  0
LINE
  8
A-CASE-1
 10
113.820846
 20
-286.371807
 11
106.749778
 21
-286.371807
  0
LINE
  8
A-CASE-1
 10
112.000000
 20
-281.105156
 11
112.000000
 21
-278.105156
  0
LINE
  8
A-CASE-1
 10
112.000000
 20
-283.105156
 11
112.000000
 21
-280.105156
  0
LINE
  8
A-CASE-1
 10
127.000000
 20
-280.105156
 11
127.000000
 21
-281.105156
  0
LINE
  8
A-CASE-1
 10
127.000000
 20
-281.105156
 11
112.000000
 21
-281.105156
  0
LINE
  8
A-CASE-1
 10
112.000000
 20
-280.105156
 11
127.000000
 21
-280.105156
  0
LINE
  8
A-CASE-1
 10
114.500000
 20
-285.105156
 11
119.500000
 21
-280.105156
  0
LINE
  8
A-CASE-1
 10
124.500000
 20
-285.105156
 11
119.500000
 21
-280.105156
  0
LINE
  8
A-CASE-1
  6
DASHED
 10
214.000000
 20
-377.917416
 11
204.000000
 21
-377.917416
  0
LINE
  8
A-CASE-1
  6
DASHED
 10
204.000000
 20
-347.917416
 11
214.000000
 21
-347.917416
  0
LINE
  8
A-CASE-1
  6
DASHED
 10
214.000000
 20
-347.917416
 11
214.000000
 21
-377.917416
  0
LINE
  8
A-CASE-1
  6
DASHED
 10
204.000000
 20
-377.917416
 11
204.000000
 21
-347.917416
  0
TEXT
  8
A-NOTE-1
 10
-34.482395
 20
-583.227363
 40
5.183908
  1
LANDING
  7
STANDARD
  0
TEXT
  8
A-NOTE-1
 10
-27.100699
 20
-590.799082
 40
3.924163
  1
3'2 x 3'2
  7
STANDARD
  0
TEXT
  8
A-NOTE-1
 10
-2.992458
 20
-397.484193
 40
4.147126
  1
CLOSET
  7
STANDARD
  0
TEXT
  8
A-NOTE-1
 10
-0.094497
 20
-404.214338
 40
3.433642
  1
3'10 x 1'3
  7
STANDARD
  0
TEXT
  8
A-NOTE-1
 10
-235.122854
 20
-329.541967
 40
8.294253
  1
LIVING ROOM
  7
STANDARD
  0
TEXT
  8
A-NOTE-1
 10
-213.186923
 20
-340.251556
 40
5.886244
  1
13' x 17'5
  7
STANDARD
  0
TEXT
  8
A-NOTE-1
 10
68.278494
 20
-709.376996
 40
8.294253
  1
GARAGE
  7
STANDARD
  0
TEXT
  8
A-NOTE-1
 10
76.034027
 20
-720.086585
 40
5.886244
  1
22' x 22'4
  7
STANDARD
  0
TEXT
  8
A-NOTE-1
 10
97.461847
 20
-447.683962
 40
8.294253
  1
DINING ROOM
  7
STANDARD
  0
TEXT
  8
A-NOTE-1
 10
120.852181
 20
-458.393550
 40
5.886244
  1
15'4 x 12'
  7
STANDARD
  0
TEXT
  8
A-NOTE-1
 10
44.039305
 20
-402.284406
 40
3.628736
  1
CHASE
  7
STANDARD
  0
TEXT
  8
A-NOTE-1
 10
47.732151
 20
-406.911839
 40
2.452602
  1
1'7 x 2'
  7
STANDARD
  0
TEXT
  8
A-NOTE-1
 10
129.817922
 20
-338.238343
 40
8.294253
  1
KITCHEN
  7
STANDARD
  0
TEXT
  8
A-NOTE-1
 10
140.708665
 20
-348.947931
 40
5.886244
  1
28' x 13'
  7
STANDARD
  0
TEXT
  8
A-NOTE-1
 10
-99.851525
 20
-312.144619
 40
8.294253
  1
FAMILY ROOM
  7
STANDARD
  0
TEXT
  8
A-NOTE-1
 10
-73.871385
 20
-322.854207
 40
5.886244
  1
15' x 20'
  7
STANDARD
  0
TEXT
  8
A-NOTE-1
 10
-170.549609
 20
-757.475339
 40
7.257471
  1
PORCH
  7
STANDARD
  0
TEXT
  8
A-NOTE-1
 10
-163.297987
 20
-767.343354
 40
5.395724
  1
11' x 4'
  7
STANDARD
  0
TEXT
  8
A-NOTE-1
 10
12.050616
 20
-543.476357
 40
5.183908
  1
BATH
  7
STANDARD
  0
TEXT
  8
A-NOTE-1
 10
15.613390
 20
-551.048076
 40
3.924163
  1
4' x 6'
  7
STANDARD
  0
TEXT
  8
A-NOTE-1
 10
-222.426777
 20
-536.394299
 40
5.183908
  1
OPEN ABOVE
  7
STANDARD
  0
TEXT
  8
A-NOTE-1
 10
-211.377100
 20
-543.966018
 40
3.924163
  1
7'11 x 10'11
  7
STANDARD
  0
TEXT
  8
A-NOTE-1
 10
-89.904701
 20
-888.663793
 40
9.331035
  1
LIVING AREA
  7
STANDARD
  0
TEXT
  8
A-NOTE-1
 10
-70.080089
 20
-902.203457
 40
7.357805
  1
1761 sq ft
  7
STANDARD
  0
TEXT
  8
A-NOTE-1
 10
74.704198
 20
-246.986547
 40
5.183908
  1
BREAKFAST
  7
STANDARD
  0
TEXT
  8
A-NOTE-1
 10
83.329875
 20
-254.558266
 40
3.924163
  1
10'10 x 6'10
  7
STANDARD
  0
TEXT
  8
A-NOTE-1
 10
-26.158190
 20
-437.829176
 40
7.257471
  1
ELEVATOR
  7
STANDARD
  0
TEXT
  8
A-NOTE-1
 10
-16.317392
 20
-447.697192
 40
5.395724
  1
5'10 x 4'10
  7
STANDARD
  0
TEXT
  8
A-NOTE-1
 10
-126.195064
 20
-582.226296
 40
8.294253
  1
FOYER
  7
STANDARD
  0
TEXT
  8
A-NOTE-1
 10
-126.119740
 20
-592.935885
 40
5.886244
  1
10'8 x 25'6
  7
STANDARD
  0
TEXT
  8
A-NOTE-1
 10
-27.803874
 20
-505.286570
 40
7.257471
  1
HALL
  7
STANDARD
  0
TEXT
  8
A-NOTE-1
 10
-31.107735
 20
-515.154586
 40
5.395724
  1
5'10 x 4'2
  7
STANDARD
  0
TEXT
  8
A-NOTE-1
 10
-267.611830
 20
-765.248387
 40
8.294253
  1
STUDY
  7
STANDARD
  0
TEXT
  8
A-NOTE-1
 10
-267.718305
 20
-775.957975
 40
5.886244
  1
11'8 x 15'6
  7
STANDARD
  0
TEXT
  8
A-NOTE-1
 10
-35.692041
 20
-545.821659
 40
3.628736
  1
CLOSET
  7
STANDARD
  0
TEXT
  8
A-NOTE-1
 10
-30.463995
 20
-550.449091
 40
2.452602
  1
2' x 3'1
  7
STANDARD
  0
TEXT
  8
A-TEXT-1
 10
35.579247
 20
-335.465278
 40
3.628736
  1
L129
  7
STANDARD
  0
TEXT
  8
A-TEXT-1
 10
30.583033
 20
-220.645147
 40
3.628736
  1
L132
  7
STANDARD
  0
TEXT
  8
A-TEXT-1
 10
1.820225
 20
-127.190393
 40
3.628736
  1
L131
  7
STANDARD
  0
TEXT
  8
A-TEXT-1
 10
-225.195813
 20
-247.189597
 40
3.628736
  1
L134
  7
STANDARD
  0
TEXT
  8
A-TEXT-1
 10
-68.609729
 20
-373.722483
 40
3.628736
  1
L125
  7
STANDARD
  0
TEXT
  8
A-TEXT-1
 10
-3.793773
 20
-490.345880
 40
3.628736
  1
L113
  7
STANDARD
  0
TEXT
  8
A-TEXT-1
 10
-177.476832
 20
-615.257332
 40
3.628736
  1
L111
  7
STANDARD
  0
TEXT
  8
A-TEXT-1
 10
-63.793375
 20
-635.257199
 40
3.628736
  1
L106
  7
STANDARD
  0
TEXT
  8
A-TEXT-1
 10
-100.284361
 20
-659.818440
 40
3.628736
  1
L107
  7
STANDARD
  0
TEXT
  8
A-TEXT-1
 10
-99.231736
 20
-542.275360
 40
3.628736
  1
L112
  7
STANDARD
  0
TEXT
  8
A-TEXT-1
 10
172.696285
 20
-670.695561
 40
3.628736
  1
L105
  7
STANDARD
  0
TEXT
  8
A-TEXT-1
 10
-58.881127
 20
-782.624643
 40
3.628736
  1
L102
  7
STANDARD
  0
TEXT
  8
A-TEXT-1
 10
9.890347
 20
-82.629285
 40
3.628736
  1
L124
  7
STANDARD
  0
TEXT
  8
A-TEXT-1
 10
84.275819
 20
-151.751634
 40
3.628736
  1
L133
  7
STANDARD
  0
TEXT
  8
A-TEXT-1
 10
242.169508
 20
-616.660831
 40
3.628736
  1
L117
  7
STANDARD
  0
TEXT
  8
A-TEXT-1
 10
-151.536298
 20
-820.519129
 40
3.628736
  1
LOCATION TBD
  7
STANDARD
  0
TEXT
  8
A-TEXT-1
 10
-165.204846
 20
-813.150756
 40
3.628736
  1
L101  2 POST LIGHTS
  7
STANDARD
  0
TEXT
  8
A-TEXT-1
 10
-112.915856
 20
-739.817909
 40
3.628736
  1
L103
  7
STANDARD
  0
TEXT
  8
A-TEXT-1
 10
-57.126752
 20
-735.958286
 40
3.628736
  1
L104
  7
STANDARD
  0
TEXT
  8
A-TEXT-1
 10
-23.793640
 20
-846.834744
 40
3.628736
  1
L100
  7
STANDARD
  0
TEXT
  8
A-TEXT-1
 10
-393.523301
 20
-50.581476
 40
7.257471
  1
Strang/Smith 1/14/2001
  7
STANDARD
  0
TEXT
  8
A-TEXT-1
 10
114.331341
 20
-278.027036
 40
3.628736
  1
10" counter overhang on this side
  7
STANDARD
  0
TEXT
  8
A-TEXT-1
 10
-1.688524
 20
-541.222735
 40
3.628736
  1
L118
  7
STANDARD
  0
TEXT
  8
A-TEXT-1
 10
25.328841
 20
-565.783976
 40
3.628736
  1
L119
  7
STANDARD
  0
TEXT
  8
A-TEXT-1
 10
-210.108194
 20
-598.766213
 40
3.628736
  1
L135
  7
STANDARD
  0
TEXT
  8
A-TEXT-1
 10
-274.246128
 20
-740.168784
 40
3.628736
  1
L109 FLOOR OUTLET
  7
STANDARD
  0
TEXT
  8
A-TEXT-1
 10
-240.634307
 20
-704.730423
 40
3.628736
  1
L110
  7
STANDARD
  0
TEXT
  8
A-TEXT-1
 10
223.573141
 20
-514.907120
 40
3.628736
  1
L116
  7
STANDARD
  0
TEXT
  8
A-TEXT-1
 10
140.064922
 20
-492.451129
 40
3.628736
  1
L115
  7
STANDARD
  0
TEXT
  8
A-TEXT-1
 10
204.275023
 20
-558.766478
 40
3.628736
  1
L114
  7
STANDARD
  0
TEXT
  8
A-TEXT-1
 10
-218.178316
 20
-295.961204
 40
3.628736
  1
L123
  7
STANDARD
  0
TEXT
  8
A-TEXT-1
 10
6.588736
 20
-372.087998
 40
3.628736
  1
L126
  7
STANDARD
  0
TEXT
  8
A-TEXT-1
 10
93.047690
 20
-324.732943
 40
3.628736
  1
L127
  7
STANDARD
  0
TEXT
  8
A-TEXT-1
 10
-244.143056
 20
-381.223796
 40
3.628736
  1
L121
  7
STANDARD
  0
TEXT
  8
A-TEXT-1
 10
-260.634175
 20
-411.399035
 40
3.628736
  1
L120
  7
STANDARD
  0
TEXT
  8
A-TEXT-1
 10
-99.582611
 20
-200.874115
 40
3.628736
  1
L136
  7
STANDARD
  0
TEXT
  8
A-TEXT-1
 10
1.992506
 20
-224.792535
 40
3.628736
  1
L130
  7
STANDARD
  0
TEXT
  8
A-TEXT-1
 10
179.868524
 20
-410.745232
 40
3.628736
  1
L131
  7
STANDARD
  0
TEXT
  8
A-TEXT-1
 10
-200.283698
 20
-726.835539
 40
3.628736
  1
L108
  7
STANDARD
  0
TEXT
  8
A-TEXT-1
 10
-259.581550
 20
-421.925281
 40
3.628736
  1
L122
  7
STANDARD
  0
TEXT
  8
A-TEXT-1
 10
135.517896
 20
-230.229825
 40
3.628736
  1
L128
  7
STANDARD
  0
LINE
  8
A-DIMS-1
 10
-13.227506
 20
-344.097546
 11
-11.727506
 21
-341.097546
  0
LINE
  8
A-DIMS-1
 10
-10.227506
 20
-384.000001
 11
-11.727506
 21
-387.000001
  0
LINE
  8
A-DIMS-1
 10
-11.727506
 20
-351.629133
 11
-11.727506
 21
-341.097546
  0
LINE
  8
A-DIMS-1
 10
-11.727506
 20
-376.468414
 11
-11.727506
 21
-387.000001
  0
TEXT
  8
A-DIMS-1
 10
-9.051940
 20
-373.680809
 40
5.598621
  1
3'9"7
 50
90.000000
  7
STANDARD
  0
LINE
  8
A-DIMS-1
 10
-290.090210
 20
-600.871792
 11
-313.424734
 21
-577.537269
  0
LINE
  8
A-DIMS-1
 10
-314.485394
 20
-580.719249
 11
-311.303413
 21
-579.658589
  0
LINE
  8
A-DIMS-1
 10
-313.016968
 20
-613.899056
 11
-331.401744
 21
-595.514279
  0
LINE
  8
A-DIMS-1
 10
-332.462405
 20
-598.696260
 11
-329.280424
 21
-597.635600
  0
LINE
  8
A-DIMS-1
 10
-326.098443
 20
-596.574939
 11
-329.280424
 21
-597.635600
  0
LINE
  8
A-DIMS-1
 10
-311.509907
 20
-579.865082
 11
-311.303413
 21
-579.658589
  0
LINE
  8
A-DIMS-1
 10
-329.073931
 20
-597.429106
 11
-329.280424
 21
-597.635600
  0
TEXT
  8
A-DIMS-1
 10
-325.210886
 20
-597.349883
 40
5.598621
  1
2'1"3
 50
45.000000
  7
STANDARD
  0
LINE
  8
A-DIMS-1
 10
-326.100480
 20
-636.882063
 11
-349.435004
 21
-613.547539
  0
LINE
  8
A-DIMS-1
 10
-344.131703
 20
-614.608199
 11
-347.313683
 21
-615.668859
  0
LINE
  8
A-DIMS-1
 10
-329.515042
 20
-597.870217
 11
-329.280424
 21
-597.635600
  0
LINE
  8
A-DIMS-1
 10
-347.079066
 20
-615.434241
 11
-347.313683
 21
-615.668859
  0
TEXT
  8
A-DIMS-1
 10
-343.216021
 20
-615.355018
 40
5.598621
  1
2'1"4
 50
45.000000
  7
STANDARD
  0
LINE
  8
A-DIMS-1
 10
-315.546054
 20
-575.415948
 11
-326.152656
 21
-564.809347
  0
LINE
  8
A-DIMS-1
 10
-327.213316
 20
-567.991327
 11
-324.031335
 21
-566.930667
  0
LINE
  8
A-DIMS-1
 10
-351.556324
 20
-611.426218
 11
-362.162926
 21
-600.819617
  0
LINE
  8
A-DIMS-1
 10
-356.859625
 20
-601.880277
 11
-360.041606
 21
-602.940937
  0
LINE
  8
A-DIMS-1
 10
-333.254458
 20
-576.153790
 11
-324.031335
 21
-566.930667
  0
LINE
  8
A-DIMS-1
 10
-350.818482
 20
-593.717814
 11
-360.041606
 21
-602.940937
  0
TEXT
  8
A-DIMS-1
 10
-346.955438
 20
-593.638590
 40
5.598621
  1
4'2"7
 50
45.000000
  7
STANDARD
  0
LINE
  8
A-DIMS-1
 10
-277.890313
 20
-254.999999
 11
-360.890313
 21
-254.999999
  0
LINE
  8
A-DIMS-1
 10
-359.390313
 20
-257.999999
 11
-357.890313
 21
-254.999999
  0
LINE
  8
A-DIMS-1
 10
-286.890313
 20
-295.999999
 11
-360.890313
 21
-295.999999
  0
LINE
  8
A-DIMS-1
 10
-359.390313
 20
-298.999999
 11
-357.890313
 21
-295.999999
  0
LINE
  8
A-DIMS-1
 10
-356.390313
 20
-292.999999
 11
-357.890313
 21
-295.999999
  0
LINE
  8
A-DIMS-1
 10
-357.890313
 20
-267.093707
 11
-357.890313
 21
-254.999999
  0
LINE
  8
A-DIMS-1
 10
-357.890313
 20
-283.906292
 11
-357.890313
 21
-295.999999
  0
TEXT
  8
A-DIMS-1
 10
-355.214747
 20
-281.118687
 40
5.598621
  1
3'5
 50
90.000000
  7
STANDARD
  0
LINE
  8
A-DIMS-1
 10
-286.890313
 20
-431.999999
 11
-360.890313
 21
-431.999999
  0
LINE
  8
A-DIMS-1
 10
-359.390313
 20
-434.999999
 11
-357.890313
 21
-431.999999
  0
LINE
  8
A-DIMS-1
 10
-356.390313
 20
-428.999999
 11
-357.890313
 21
-431.999999
  0
LINE
  8
A-DIMS-1
 10
-357.890313
 20
-353.185698
 11
-357.890313
 21
-295.999999
  0
LINE
  8
A-DIMS-1
 10
-357.890313
 20
-374.814301
 11
-357.890313
 21
-431.999999
  0
TEXT
  8
A-DIMS-1
 10
-355.214747
 20
-372.026696
 40
5.598621
  1
11'4
 50
90.000000
  7
STANDARD
  0
LINE
  8
A-DIMS-1
 10
-277.890313
 20
-469.999999
 11
-360.890313
 21
-469.999999
  0
LINE
  8
A-DIMS-1
 10
-359.390313
 20
-472.999999
 11
-357.890313
 21
-469.999999
  0
LINE
  8
A-DIMS-1
 10
-356.390313
 20
-466.999999
 11
-357.890313
 21
-469.999999
  0
LINE
  8
A-DIMS-1
 10
-357.890313
 20
-442.593707
 11
-357.890313
 21
-431.999999
  0
LINE
  8
A-DIMS-1
 10
-357.890313
 20
-459.406292
 11
-357.890313
 21
-469.999999
  0
TEXT
  8
A-DIMS-1
 10
-355.214747
 20
-456.618687
 40
5.598621
  1
3'2
 50
90.000000
  7
STANDARD
  0
LINE
  8
A-DIMS-1
 10
-286.890313
 20
-538.999999
 11
-360.890313
 21
-538.999999
  0
LINE
  8
A-DIMS-1
 10
-359.390313
 20
-541.999999
 11
-357.890313
 21
-538.999999
  0
LINE
  8
A-DIMS-1
 10
-356.390313
 20
-535.999999
 11
-357.890313
 21
-538.999999
  0
LINE
  8
A-DIMS-1
 10
-357.890313
 20
-496.093707
 11
-357.890313
 21
-469.999999
  0
LINE
  8
A-DIMS-1
 10
-357.890313
 20
-512.906292
 11
-357.890313
 21
-538.999999
  0
TEXT
  8
A-DIMS-1
 10
-355.214747
 20
-510.118687
 40
5.598621
  1
5'9
 50
90.000000
  7
STANDARD
  0
LINE
  8
A-DIMS-1
 10
-289.890313
 20
-604.999999
 11
-360.890313
 21
-604.999999
  0
LINE
  8
A-DIMS-1
 10
-356.390313
 20
-601.999999
 11
-357.890313
 21
-604.999999
  0
LINE
  8
A-DIMS-1
 10
-357.890313
 20
-563.593707
 11
-357.890313
 21
-538.999999
  0
LINE
  8
A-DIMS-1
 10
-357.890313
 20
-580.406292
 11
-357.890313
 21
-604.999999
  0
TEXT
  8
A-DIMS-1
 10
-355.214747
 20
-577.618687
 40
5.598621
  1
5'6
 50
90.000000
  7
STANDARD
  0
LINE
  8
A-DIMS-1
 10
-327.890313
 20
-641.020993
 11
-360.890313
 21
-641.020993
  0
LINE
  8
A-DIMS-1
 10
-359.390313
 20
-644.020993
 11
-357.890313
 21
-641.020993
  0
LINE
  8
A-DIMS-1
 10
-334.890313
 20
-770.999997
 11
-360.890313
 21
-770.999997
  0
LINE
  8
A-DIMS-1
 10
-359.390313
 20
-773.999997
 11
-357.890313
 21
-770.999997
  0
LINE
  8
A-DIMS-1
 10
-356.390313
 20
-767.999997
 11
-357.890313
 21
-770.999997
  0
LINE
  8
A-DIMS-1
 10
-357.890313
 20
-692.788185
 11
-357.890313
 21
-641.020993
  0
LINE
  8
A-DIMS-1
 10
-357.890313
 20
-719.232805
 11
-357.890313
 21
-770.999997
  0
TEXT
  8
A-DIMS-1
 10
-355.214747
 20
-716.445200
 40
5.598621
  1
10'10
 50
90.000000
  7
STANDARD
  0
LINE
  8
A-DIMS-1
 10
-325.890313
 20
-798.999997
 11
-360.890313
 21
-798.999997
  0
LINE
  8
A-DIMS-1
 10
-356.390313
 20
-795.999997
 11
-357.890313
 21
-798.999997
  0
LINE
  8
A-DIMS-1
 10
-357.890313
 20
-776.593704
 11
-357.890313
 21
-770.999997
  0
LINE
  8
A-DIMS-1
 10
-357.890313
 20
-793.406289
 11
-357.890313
 21
-798.999997
  0
TEXT
  8
A-DIMS-1
 10
-355.214747
 20
-790.618684
 40
5.598621
  1
2'4
 50
90.000000
  7
STANDARD
  0
LINE
  8
A-DIMS-1
 10
-362.890313
 20
-255.000000
 11
-378.890313
 21
-255.000000
  0
LINE
  8
A-DIMS-1
 10
-377.390313
 20
-258.000000
 11
-375.890313
 21
-255.000000
  0
LINE
  8
A-DIMS-1
 10
-362.890313
 20
-469.999999
 11
-378.890313
 21
-469.999999
  0
LINE
  8
A-DIMS-1
 10
-377.390313
 20
-472.999999
 11
-375.890313
 21
-469.999999
  0
LINE
  8
A-DIMS-1
 10
-374.390313
 20
-466.999999
 11
-375.890313
 21
-469.999999
  0
LINE
  8
A-DIMS-1
 10
-375.890313
 20
-349.277690
 11
-375.890313
 21
-255.000000
  0
LINE
  8
A-DIMS-1
 10
-375.890313
 20
-375.722310
 11
-375.890313
 21
-469.999999
  0
TEXT
  8
A-DIMS-1
 10
-373.214747
 20
-372.934705
 40
5.598621
  1
17'11
 50
90.000000
  7
STANDARD
  0
LINE
  8
A-DIMS-1
 10
-362.890313
 20
-604.999999
 11
-378.890313
 21
-604.999999
  0
LINE
  8
A-DIMS-1
 10
-377.390313
 20
-607.999999
 11
-375.890313
 21
-604.999999
  0
LINE
  8
A-DIMS-1
 10
-374.390313
 20
-601.999999
 11
-375.890313
 21
-604.999999
  0
LINE
  8
A-DIMS-1
 10
-375.890313
 20
-526.685698
 11
-375.890313
 21
-469.999999
  0
LINE
  8
A-DIMS-1
 10
-375.890313
 20
-548.314301
 11
-375.890313
 21
-604.999999
  0
TEXT
  8
A-DIMS-1
 10
-373.214747
 20
-545.526696
 40
5.598621
  1
11'3
 50
90.000000
  7
STANDARD
  0
LINE
  8
A-DIMS-1
 10
-362.890313
 20
-641.020995
 11
-378.890313
 21
-641.020995
  0
LINE
  8
A-DIMS-1
 10
-377.390313
 20
-644.020995
 11
-375.890313
 21
-641.020995
  0
LINE
  8
A-DIMS-1
 10
-374.390313
 20
-638.020995
 11
-375.890313
 21
-641.020995
  0
LINE
  8
A-DIMS-1
 10
-375.890313
 20
-617.012214
 11
-375.890313
 21
-604.999999
  0
LINE
  8
A-DIMS-1
 10
-375.890313
 20
-629.008781
 11
-375.890313
 21
-641.020995
  0
TEXT
  8
A-DIMS-1
 10
-373.214747
 20
-626.221176
 40
5.598621
  1
3'
 50
90.000000
  7
STANDARD
  0
LINE
  8
A-DIMS-1
 10
-362.890313
 20
-798.999999
 11
-378.890313
 21
-798.999999
  0
LINE
  8
A-DIMS-1
 10
-374.390313
 20
-795.999999
 11
-375.890313
 21
-798.999999
  0
LINE
  8
A-DIMS-1
 10
-375.890313
 20
-709.196196
 11
-375.890313
 21
-641.020995
  0
LINE
  8
A-DIMS-1
 10
-375.890313
 20
-730.824799
 11
-375.890313
 21
-798.999999
  0
TEXT
  8
A-DIMS-1
 10
-373.214747
 20
-728.037194
 40
5.598621
  1
13'2
 50
90.000000
  7
STANDARD
  0
LINE
  8
A-DIMS-1
 10
-172.890313
 20
-95.000000
 11
-396.890313
 21
-95.000000
  0
LINE
  8
A-DIMS-1
 10
-395.390313
 20
-98.000000
 11
-393.890313
 21
-95.000000
  0
LINE
  8
A-DIMS-1
 10
-82.890313
 20
-839.000000
 11
-396.890313
 21
-839.000000
  0
LINE
  8
A-DIMS-1
 10
-392.390313
 20
-836.000000
 11
-393.890313
 21
-839.000000
  0
LINE
  8
A-DIMS-1
 10
-393.890313
 20
-458.593708
 11
-393.890313
 21
-95.000000
  0
LINE
  8
A-DIMS-1
 10
-393.890313
 20
-475.406292
 11
-393.890313
 21
-839.000000
  0
TEXT
  8
A-DIMS-1
 10
-391.214747
 20
-472.618687
 40
5.598621
  1
62'
 50
90.000000
  7
STANDARD
  0
LINE
  8
A-DIMS-1
 10
-117.890313
 20
-95.000000
 11
-152.890313
 21
-95.000000
  0
LINE
  8
A-DIMS-1
 10
-151.390313
 20
-98.000000
 11
-149.890313
 21
-95.000000
  0
LINE
  8
A-DIMS-1
 10
-126.890313
 20
-123.000000
 11
-152.890313
 21
-123.000000
  0
LINE
  8
A-DIMS-1
 10
-151.390313
 20
-126.000000
 11
-149.890313
 21
-123.000000
  0
LINE
  8
A-DIMS-1
 10
-148.390313
 20
-120.000000
 11
-149.890313
 21
-123.000000
  0
LINE
  8
A-DIMS-1
 10
-149.890313
 20
-100.593708
 11
-149.890313
 21
-95.000000
  0
LINE
  8
A-DIMS-1
 10
-149.890313
 20
-117.406292
 11
-149.890313
 21
-123.000000
  0
TEXT
  8
A-DIMS-1
 10
-147.214747
 20
-114.618687
 40
5.598621
  1
2'4
 50
90.000000
  7
STANDARD
  0
LINE
  8
A-DIMS-1
 10
-148.390313
 20
-252.000000
 11
-149.890313
 21
-255.000000
  0
LINE
  8
A-DIMS-1
 10
-149.890313
 20
-180.593708
 11
-149.890313
 21
-123.000000
  0
LINE
  8
A-DIMS-1
 10
-149.890313
 20
-197.406292
 11
-149.890313
 21
-255.000000
  0
TEXT
  8
A-DIMS-1
 10
-147.214747
 20
-194.618687
 40
5.598621
  1
11'
 50
90.000000
  7
STANDARD
  0
LINE
  8
A-DIMS-1
 10
-154.890313
 20
-95.000000
 11
-170.890313
 21
-95.000000
  0
LINE
  8
A-DIMS-1
 10
-169.390313
 20
-98.000000
 11
-167.890313
 21
-95.000000
  0
LINE
  8
A-DIMS-1
 10
-166.390313
 20
-252.000000
 11
-167.890313
 21
-255.000000
  0
LINE
  8
A-DIMS-1
 10
-167.890313
 20
-164.185699
 11
-167.890313
 21
-95.000000
  0
LINE
  8
A-DIMS-1
 10
-167.890313
 20
-185.814301
 11
-167.890313
 21
-255.000000
  0
TEXT
  8
A-DIMS-1
 10
-165.214747
 20
-183.026696
 40
5.598621
  1
13'4
 50
90.000000
  7
STANDARD
  0
LINE
  8
A-DIMS-1
 10
-62.890313
 20
-775.000000
 11
-80.890313
 21
-775.000000
  0
LINE
  8
A-DIMS-1
 10
-79.390313
 20
-778.000000
 11
-77.890313
 21
-775.000000
  0
LINE
  8
A-DIMS-1
 10
-45.890313
 20
-839.000000
 11
-80.890313
 21
-839.000000
  0
LINE
  8
A-DIMS-1
 10
-76.390313
 20
-836.000000
 11
-77.890313
 21
-839.000000
  0
LINE
  8
A-DIMS-1
 10
-77.890313
 20
-798.593708
 11
-77.890313
 21
-775.000000
  0
LINE
  8
A-DIMS-1
 10
-77.890313
 20
-815.406292
 11
-77.890313
 21
-839.000000
  0
TEXT
  8
A-DIMS-1
 10
-75.214747
 20
-812.618687
 40
5.598621
  1
5'4
 50
90.000000
  7
STANDARD
  0
LINE
  8
A-DIMS-1
 10
206.000000
 20
-167.892242
 11
206.000000
 21
-37.892242
  0
LINE
  8
A-DIMS-1
 10
203.000000
 20
-39.392242
 11
206.000000
 21
-40.892242
  0
LINE
  8
A-DIMS-1
 10
172.000000
 20
-158.892242
 11
172.000000
 21
-37.892242
  0
LINE
  8
A-DIMS-1
 10
169.000000
 20
-39.392242
 11
172.000000
 21
-40.892242
  0
LINE
  8
A-DIMS-1
 10
175.000000
 20
-42.392242
 11
172.000000
 21
-40.892242
  0
LINE
  8
A-DIMS-1
 10
199.814301
 20
-40.892242
 11
206.000000
 21
-40.892242
  0
LINE
  8
A-DIMS-1
 10
178.185699
 20
-40.892242
 11
172.000000
 21
-40.892242
  0
TEXT
  8
A-DIMS-1
 10
180.973304
 20
-43.567808
 40
5.598621
  1
2'10
  7
STANDARD
  0
LINE
  8
A-DIMS-1
 10
124.000000
 20
-158.892242
 11
124.000000
 21
-37.892242
  0
LINE
  8
A-DIMS-1
 10
121.000000
 20
-39.392242
 11
124.000000
 21
-40.892242
  0
LINE
  8
A-DIMS-1
 10
127.000000
 20
-42.392242
 11
124.000000
 21
-40.892242
  0
LINE
  8
A-DIMS-1
 10
153.998283
 20
-40.892242
 11
172.000000
 21
-40.892242
  0
LINE
  8
A-DIMS-1
 10
142.001717
 20
-40.892242
 11
124.000000
 21
-40.892242
  0
TEXT
  8
A-DIMS-1
 10
144.789321
 20
-43.567808
 40
5.598621
  1
4'
  7
STANDARD
  0
LINE
  8
A-DIMS-1
 10
74.000000
 20
-91.892242
 11
74.000000
 21
-37.892242
  0
LINE
  8
A-DIMS-1
 10
71.000000
 20
-39.392242
 11
74.000000
 21
-40.892242
  0
LINE
  8
A-DIMS-1
 10
77.000000
 20
-42.392242
 11
74.000000
 21
-40.892242
  0
LINE
  8
A-DIMS-1
 10
107.406292
 20
-40.892242
 11
124.000000
 21
-40.892242
  0
LINE
  8
A-DIMS-1
 10
90.593708
 20
-40.892242
 11
74.000000
 21
-40.892242
  0
TEXT
  8
A-DIMS-1
 10
93.381313
 20
-43.567808
 40
5.598621
  1
4'2
  7
STANDARD
  0
LINE
  8
A-DIMS-1
 10
40.000000
 20
-82.892242
 11
40.000000
 21
-37.892242
  0
LINE
  8
A-DIMS-1
 10
37.000000
 20
-39.392242
 11
40.000000
 21
-40.892242
  0
LINE
  8
A-DIMS-1
 10
43.000000
 20
-42.392242
 11
40.000000
 21
-40.892242
  0
LINE
  8
A-DIMS-1
 10
67.814301
 20
-40.892242
 11
74.000000
 21
-40.892242
  0
LINE
  8
A-DIMS-1
 10
46.185699
 20
-40.892242
 11
40.000000
 21
-40.892242
  0
TEXT
  8
A-DIMS-1
 10
48.973304
 20
-43.567808
 40
5.598621
  1
2'10
  7
STANDARD
  0
LINE
  8
A-DIMS-1
 10
-80.000000
 20
-82.892242
 11
-80.000000
 21
-37.892242
  0
LINE
  8
A-DIMS-1
 10
-83.000000
 20
-39.392242
 11
-80.000000
 21
-40.892242
  0
LINE
  8
A-DIMS-1
 10
-77.000000
 20
-42.392242
 11
-80.000000
 21
-40.892242
  0
LINE
  8
A-DIMS-1
 10
-11.593708
 20
-40.892242
 11
40.000000
 21
-40.892242
  0
LINE
  8
A-DIMS-1
 10
-28.406292
 20
-40.892242
 11
-80.000000
 21
-40.892242
  0
TEXT
  8
A-DIMS-1
 10
-25.618687
 20
-43.567808
 40
5.598621
  1
10'
  7
STANDARD
  0
LINE
  8
A-DIMS-1
 10
-114.000000
 20
-91.892242
 11
-114.000000
 21
-37.892242
  0
LINE
  8
A-DIMS-1
 10
-117.000000
 20
-39.392242
 11
-114.000000
 21
-40.892242
  0
LINE
  8
A-DIMS-1
 10
-111.000000
 20
-42.392242
 11
-114.000000
 21
-40.892242
  0
LINE
  8
A-DIMS-1
 10
-86.185699
 20
-40.892242
 11
-80.000000
 21
-40.892242
  0
LINE
  8
A-DIMS-1
 10
-107.814301
 20
-40.892242
 11
-114.000000
 21
-40.892242
  0
TEXT
  8
A-DIMS-1
 10
-105.026696
 20
-43.567808
 40
5.598621
  1
2'10
  7
STANDARD
  0
LINE
  8
A-DIMS-1
 10
-194.000000
 20
-215.892242
 11
-194.000000
 21
-37.892242
  0
LINE
  8
A-DIMS-1
 10
-197.000000
 20
-39.392242
 11
-194.000000
 21
-40.892242
  0
LINE
  8
A-DIMS-1
 10
-191.000000
 20
-42.392242
 11
-194.000000
 21
-40.892242
  0
LINE
  8
A-DIMS-1
 10
-145.593708
 20
-40.892242
 11
-114.000000
 21
-40.892242
  0
LINE
  8
A-DIMS-1
 10
-162.406292
 20
-40.892242
 11
-194.000000
 21
-40.892242
  0
TEXT
  8
A-DIMS-1
 10
-159.618687
 20
-43.567808
 40
5.598621
  1
6'8
  7
STANDARD
  0
LINE
  8
A-DIMS-1
 10
-274.000000
 20
-251.892242
 11
-274.000000
 21
-37.892242
  0
LINE
  8
A-DIMS-1
 10
-271.000000
 20
-42.392242
 11
-274.000000
 21
-40.892242
  0
LINE
  8
A-DIMS-1
 10
-225.593708
 20
-40.892242
 11
-194.000000
 21
-40.892242
  0
LINE
  8
A-DIMS-1
 10
-242.406292
 20
-40.892242
 11
-274.000000
 21
-40.892242
  0
TEXT
  8
A-DIMS-1
 10
-239.618687
 20
-43.567808
 40
5.598621
  1
6'8
  7
STANDARD
  0
LINE
  8
A-DIMS-1
 10
230.000000
 20
-251.892242
 11
230.000000
 21
-19.892242
  0
LINE
  8
A-DIMS-1
 10
227.000000
 20
-21.392242
 11
230.000000
 21
-22.892242
  0
LINE
  8
A-DIMS-1
 10
206.000000
 20
-35.892242
 11
206.000000
 21
-19.892242
  0
LINE
  8
A-DIMS-1
 10
203.000000
 20
-21.392242
 11
206.000000
 21
-22.892242
  0
LINE
  8
A-DIMS-1
 10
209.000000
 20
-24.392242
 11
206.000000
 21
-22.892242
  0
LINE
  8
A-DIMS-1
 10
223.998283
 20
-22.892242
 11
230.000000
 21
-22.892242
  0
LINE
  8
A-DIMS-1
 10
212.001717
 20
-22.892242
 11
206.000000
 21
-22.892242
  0
TEXT
  8
A-DIMS-1
 10
214.789321
 20
-25.567808
 40
5.598621
  1
2'
  7
STANDARD
  0
LINE
  8
A-DIMS-1
 10
74.000000
 20
-35.892242
 11
74.000000
 21
-19.892242
  0
LINE
  8
A-DIMS-1
 10
71.000000
 20
-21.392242
 11
74.000000
 21
-22.892242
  0
LINE
  8
A-DIMS-1
 10
77.000000
 20
-24.392242
 11
74.000000
 21
-22.892242
  0
LINE
  8
A-DIMS-1
 10
148.406292
 20
-22.892242
 11
206.000000
 21
-22.892242
  0
LINE
  8
A-DIMS-1
 10
131.593708
 20
-22.892242
 11
74.000000
 21
-22.892242
  0
TEXT
  8
A-DIMS-1
 10
134.381313
 20
-25.567808
 40
5.598621
  1
11'
  7
STANDARD
  0
LINE
  8
A-DIMS-1
 10
-114.000000
 20
-35.892242
 11
-114.000000
 21
-19.892242
  0
LINE
  8
A-DIMS-1
 10
-117.000000
 20
-21.392242
 11
-114.000000
 21
-22.892242
  0
LINE
  8
A-DIMS-1
 10
-111.000000
 20
-24.392242
 11
-114.000000
 21
-22.892242
  0
LINE
  8
A-DIMS-1
 10
-9.185699
 20
-22.892242
 11
74.000000
 21
-22.892242
  0
LINE
  8
A-DIMS-1
 10
-30.814301
 20
-22.892242
 11
-114.000000
 21
-22.892242
  0
TEXT
  8
A-DIMS-1
 10
-28.026696
 20
-25.567808
 40
5.598621
  1
15'8
  7
STANDARD
  0
LINE
  8
A-DIMS-1
 10
-274.000000
 20
-35.892242
 11
-274.000000
 21
-19.892242
  0
LINE
  8
A-DIMS-1
 10
-271.000000
 20
-24.392242
 11
-274.000000
 21
-22.892242
  0
LINE
  8
A-DIMS-1
 10
-183.185699
 20
-22.892242
 11
-114.000000
 21
-22.892242
  0
LINE
  8
A-DIMS-1
 10
-204.814301
 20
-22.892242
 11
-274.000000
 21
-22.892242
  0
TEXT
  8
A-DIMS-1
 10
-202.026696
 20
-25.567808
 40
5.598621
  1
13'4
  7
STANDARD
  0
LINE
  8
A-DIMS-1
 10
230.000000
 20
-17.892242
 11
230.000000
 21
-1.892242
  0
LINE
  8
A-DIMS-1
 10
227.000000
 20
-3.392242
 11
230.000000
 21
-4.892242
  0
LINE
  8
A-DIMS-1
 10
-274.000000
 20
-17.892242
 11
-274.000000
 21
-1.892242
  0
LINE
  8
A-DIMS-1
 10
-271.000000
 20
-6.392242
 11
-274.000000
 21
-4.892242
  0
LINE
  8
A-DIMS-1
 10
-13.593708
 20
-4.892242
 11
230.000000
 21
-4.892242
  0
LINE
  8
A-DIMS-1
 10
-30.406292
 20
-4.892242
 11
-274.000000
 21
-4.892242
  0
TEXT
  8
A-DIMS-1
 10
-27.618687
 20
-7.567808
 40
5.598621
  1
42'
  7
STANDARD
  0
LINE
  8
A-DIMS-1
 10
-277.000000
 20
-566.392242
 11
-274.000000
 21
-567.892242
  0
LINE
  8
A-DIMS-1
 10
-285.979008
 20
-599.892242
 11
-285.979008
 21
-564.892242
  0
LINE
  8
A-DIMS-1
 10
-282.979008
 20
-569.392242
 11
-285.979008
 21
-567.892242
  0
LINE
  8
A-DIMS-1
 10
-273.991221
 20
-567.892242
 11
-274.000000
 21
-567.892242
  0
LINE
  8
A-DIMS-1
 10
-285.987787
 20
-567.892242
 11
-285.979008
 21
-567.892242
  0
TEXT
  8
A-DIMS-1
 10
-283.200182
 20
-570.567808
 40
5.598621
  1
1'
  7
STANDARD
  0
LINE
  8
A-DIMS-1
 10
-322.000000
 20
-802.892242
 11
-322.000000
 21
-877.892242
  0
LINE
  8
A-DIMS-1
 10
-319.000000
 20
-876.392242
 11
-322.000000
 21
-874.892242
  0
LINE
  8
A-DIMS-1
 10
-283.000000
 20
-811.892242
 11
-283.000000
 21
-877.892242
  0
LINE
  8
A-DIMS-1
 10
-280.000000
 20
-876.392242
 11
-283.000000
 21
-874.892242
  0
LINE
  8
A-DIMS-1
 10
-286.000000
 20
-873.392242
 11
-283.000000
 21
-874.892242
  0
LINE
  8
A-DIMS-1
 10
-310.906292
 20
-874.892242
 11
-322.000000
 21
-874.892242
  0
LINE
  8
A-DIMS-1
 10
-294.093708
 20
-874.892242
 11
-283.000000
 21
-874.892242
  0
TEXT
  8
A-DIMS-1
 10
-308.118687
 20
-877.567808
 40
5.598621
  1
3'3
  7
STANDARD
  0
LINE
  8
A-DIMS-1
 10
-248.000000
 20
-811.892242
 11
-248.000000
 21
-877.892242
  0
LINE
  8
A-DIMS-1
 10
-245.000000
 20
-876.392242
 11
-248.000000
 21
-874.892242
  0
LINE
  8
A-DIMS-1
 10
-251.000000
 20
-873.392242
 11
-248.000000
 21
-874.892242
  0
LINE
  8
A-DIMS-1
 10
-276.314301
 20
-874.892242
 11
-283.000000
 21
-874.892242
  0
LINE
  8
A-DIMS-1
 10
-254.685699
 20
-874.892242
 11
-248.000000
 21
-874.892242
  0
TEXT
  8
A-DIMS-1
 10
-273.526696
 20
-877.567808
 40
5.598621
  1
2'11
  7
STANDARD
  0
LINE
  8
A-DIMS-1
 10
-213.000000
 20
-811.892242
 11
-213.000000
 21
-877.892242
  0
LINE
  8
A-DIMS-1
 10
-210.000000
 20
-876.392242
 11
-213.000000
 21
-874.892242
  0
LINE
  8
A-DIMS-1
 10
-216.000000
 20
-873.392242
 11
-213.000000
 21
-874.892242
  0
LINE
  8
A-DIMS-1
 10
-241.314301
 20
-874.892242
 11
-248.000000
 21
-874.892242
  0
LINE
  8
A-DIMS-1
 10
-219.685699
 20
-874.892242
 11
-213.000000
 21
-874.892242
  0
TEXT
  8
A-DIMS-1
 10
-238.526696
 20
-877.567808
 40
5.598621
  1
2'11
  7
STANDARD
  0
LINE
  8
A-DIMS-1
 10
-174.000000
 20
-802.892242
 11
-174.000000
 21
-877.892242
  0
LINE
  8
A-DIMS-1
 10
-177.000000
 20
-873.392242
 11
-174.000000
 21
-874.892242
  0
LINE
  8
A-DIMS-1
 10
-201.906292
 20
-874.892242
 11
-213.000000
 21
-874.892242
  0
LINE
  8
A-DIMS-1
 10
-185.093708
 20
-874.892242
 11
-174.000000
 21
-874.892242
  0
TEXT
  8
A-DIMS-1
 10
-199.118687
 20
-877.567808
 40
5.598621
  1
3'3
  7
STANDARD
  0
LINE
  8
A-DIMS-1
 10
-42.000000
 20
-842.892242
 11
-42.000000
 21
-877.892242
  0
LINE
  8
A-DIMS-1
 10
-39.000000
 20
-876.392242
 11
-42.000000
 21
-874.892242
  0
LINE
  8
A-DIMS-1
 10
30.000000
 20
-851.892242
 11
30.000000
 21
-877.892242
  0
LINE
  8
A-DIMS-1
 10
33.000000
 20
-876.392242
 11
30.000000
 21
-874.892242
  0
LINE
  8
A-DIMS-1
 10
27.000000
 20
-873.392242
 11
30.000000
 21
-874.892242
  0
LINE
  8
A-DIMS-1
 10
-11.998283
 20
-874.892242
 11
-42.000000
 21
-874.892242
  0
LINE
  8
A-DIMS-1
 10
-0.001717
 20
-874.892242
 11
30.000000
 21
-874.892242
  0
TEXT
  8
A-DIMS-1
 10
-9.210679
 20
-877.567808
 40
5.598621
  1
6'
  7
STANDARD
  0
LINE
  8
A-DIMS-1
 10
101.999985
 20
-842.892242
 11
101.999985
 21
-877.892242
  0
LINE
  8
A-DIMS-1
 10
104.999985
 20
-876.392242
 11
101.999985
 21
-874.892242
  0
LINE
  8
A-DIMS-1
 10
98.999985
 20
-873.392242
 11
101.999985
 21
-874.892242
  0
LINE
  8
A-DIMS-1
 10
60.001709
 20
-874.892242
 11
30.000000
 21
-874.892242
  0
LINE
  8
A-DIMS-1
 10
71.998276
 20
-874.892242
 11
101.999985
 21
-874.892242
  0
TEXT
  8
A-DIMS-1
 10
62.789314
 20
-877.567808
 40
5.598621
  1
6'
  7
STANDARD
  0
LINE
  8
A-DIMS-1
 10
163.999985
 20
-823.892242
 11
163.999985
 21
-877.892242
  0
LINE
  8
A-DIMS-1
 10
166.999985
 20
-876.392242
 11
163.999985
 21
-874.892242
  0
LINE
  8
A-DIMS-1
 10
160.999985
 20
-873.392242
 11
163.999985
 21
-874.892242
  0
LINE
  8
A-DIMS-1
 10
124.593692
 20
-874.892242
 11
101.999985
 21
-874.892242
  0
LINE
  8
A-DIMS-1
 10
141.406277
 20
-874.892242
 11
163.999985
 21
-874.892242
  0
TEXT
  8
A-DIMS-1
 10
127.381297
 20
-877.567808
 40
5.598621
  1
5'2
  7
STANDARD
  0
LINE
  8
A-DIMS-1
 10
229.999985
 20
-814.892242
 11
229.999985
 21
-877.892242
  0
LINE
  8
A-DIMS-1
 10
226.999985
 20
-873.392242
 11
229.999985
 21
-874.892242
  0
LINE
  8
A-DIMS-1
 10
188.593692
 20
-874.892242
 11
163.999985
 21
-874.892242
  0
LINE
  8
A-DIMS-1
 10
205.406277
 20
-874.892242
 11
229.999985
 21
-874.892242
  0
TEXT
  8
A-DIMS-1
 10
191.381297
 20
-877.567808
 40
5.598621
  1
5'6
  7
STANDARD
  0
LINE
  8
A-DIMS-1
 10
-322.000000
 20
-879.892242
 11
-322.000000
 21
-895.892242
  0
LINE
  8
A-DIMS-1
 10
-319.000000
 20
-894.392242
 11
-322.000000
 21
-892.892242
  0
LINE
  8
A-DIMS-1
 10
-174.000000
 20
-879.892242
 11
-174.000000
 21
-895.892242
  0
LINE
  8
A-DIMS-1
 10
-171.000000
 20
-894.392242
 11
-174.000000
 21
-892.892242
  0
LINE
  8
A-DIMS-1
 10
-177.000000
 20
-891.392242
 11
-174.000000
 21
-892.892242
  0
LINE
  8
A-DIMS-1
 10
-258.814301
 20
-892.892242
 11
-322.000000
 21
-892.892242
  0
LINE
  8
A-DIMS-1
 10
-237.185699
 20
-892.892242
 11
-174.000000
 21
-892.892242
  0
TEXT
  8
A-DIMS-1
 10
-256.026696
 20
-895.567808
 40
5.598621
  1
12'4
  7
STANDARD
  0
LINE
  8
A-DIMS-1
 10
-57.256226
 20
-780.892242
 11
-57.256226
 21
-895.892242
  0
LINE
  8
A-DIMS-1
 10
-54.256226
 20
-894.392242
 11
-57.256226
 21
-892.892242
  0
LINE
  8
A-DIMS-1
 10
-60.256226
 20
-891.392242
 11
-57.256226
 21
-892.892242
  0
LINE
  8
A-DIMS-1
 10
-128.047753
 20
-892.892242
 11
-174.000000
 21
-892.892242
  0
LINE
  8
A-DIMS-1
 10
-103.208472
 20
-892.892242
 11
-57.256226
 21
-892.892242
  0
TEXT
  8
A-DIMS-1
 10
-125.260148
 20
-895.567808
 40
5.598621
  1
9'8"6
  7
STANDARD
  0
LINE
  8
A-DIMS-1
 10
-42.000000
 20
-879.892242
 11
-42.000000
 21
-895.892242
  0
LINE
  8
A-DIMS-1
 10
-39.000000
 20
-894.392242
 11
-42.000000
 21
-892.892242
  0
LINE
  8
A-DIMS-1
 10
-45.000000
 20
-891.392242
 11
-42.000000
 21
-892.892242
  0
TEXT
  8
A-DIMS-1
 10
-37.183982
 20
-889.882231
 40
5.598621
  1
1'3"2
  7
STANDARD
  0
LINE
  8
A-DIMS-1
 10
-57.256226
 20
-892.892242
 11
-42.000000
 21
-892.892242
  0
LINE
  8
A-DIMS-1
 10
102.000000
 20
-879.892242
 11
102.000000
 21
-895.892242
  0
LINE
  8
A-DIMS-1
 10
105.000000
 20
-894.392242
 11
102.000000
 21
-892.892242
  0
LINE
  8
A-DIMS-1
 10
99.000000
 20
-891.392242
 11
102.000000
 21
-892.892242
  0
LINE
  8
A-DIMS-1
 10
21.593708
 20
-892.892242
 11
-42.000000
 21
-892.892242
  0
LINE
  8
A-DIMS-1
 10
38.406292
 20
-892.892242
 11
102.000000
 21
-892.892242
  0
TEXT
  8
A-DIMS-1
 10
24.381313
 20
-895.567808
 40
5.598621
  1
12'
  7
STANDARD
  0
LINE
  8
A-DIMS-1
 10
230.000000
 20
-879.892242
 11
230.000000
 21
-895.892242
  0
LINE
  8
A-DIMS-1
 10
227.000000
 20
-891.392242
 11
230.000000
 21
-892.892242
  0
LINE
  8
A-DIMS-1
 10
155.185699
 20
-892.892242
 11
102.000000
 21
-892.892242
  0
LINE
  8
A-DIMS-1
 10
176.814301
 20
-892.892242
 11
230.000000
 21
-892.892242
  0
TEXT
  8
A-DIMS-1
 10
157.973304
 20
-895.567808
 40
5.598621
  1
10'8
  7
STANDARD
  0
LINE
  8
A-DIMS-1
 10
-322.000000
 20
-897.892242
 11
-322.000000
 21
-913.892242
  0
LINE
  8
A-DIMS-1
 10
-319.000000
 20
-912.392242
 11
-322.000000
 21
-910.892242
  0
LINE
  8
A-DIMS-1
 10
230.000000
 20
-897.892242
 11
230.000000
 21
-913.892242
  0
LINE
  8
A-DIMS-1
 10
227.000000
 20
-909.392242
 11
230.000000
 21
-910.892242
  0
LINE
  8
A-DIMS-1
 10
-54.406292
 20
-910.892242
 11
-322.000000
 21
-910.892242
  0
LINE
  8
A-DIMS-1
 10
-37.593708
 20
-910.892242
 11
230.000000
 21
-910.892242
  0
TEXT
  8
A-DIMS-1
 10
-51.618687
 20
-913.567808
 40
5.598621
  1
46'
  7
STANDARD
  0
LINE
  8
A-DIMS-1
 10
233.109687
 20
-811.000000
 11
284.109687
 21
-811.000000
  0
LINE
  8
A-DIMS-1
 10
282.609687
 20
-808.000000
 11
281.109687
 21
-811.000000
  0
LINE
  8
A-DIMS-1
 10
242.109687
 20
-589.000000
 11
284.109687
 21
-589.000000
  0
LINE
  8
A-DIMS-1
 10
282.609687
 20
-586.000000
 11
281.109687
 21
-589.000000
  0
LINE
  8
A-DIMS-1
 10
279.609687
 20
-592.000000
 11
281.109687
 21
-589.000000
  0
LINE
  8
A-DIMS-1
 10
281.109687
 20
-710.814301
 11
281.109687
 21
-811.000000
  0
LINE
  8
A-DIMS-1
 10
281.109687
 20
-689.185699
 11
281.109687
 21
-589.000000
  0
TEXT
  8
A-DIMS-1
 10
283.785253
 20
-708.026696
 40
5.598621
  1
18'6
 50
90.000000
  7
STANDARD
  0
LINE
  8
A-DIMS-1
 10
233.109687
 20
-565.000000
 11
284.109687
 21
-565.000000
  0
LINE
  8
A-DIMS-1
 10
282.609687
 20
-562.000000
 11
281.109687
 21
-565.000000
  0
LINE
  8
A-DIMS-1
 10
279.609687
 20
-568.000000
 11
281.109687
 21
-565.000000
  0
LINE
  8
A-DIMS-1
 10
281.109687
 20
-582.998283
 11
281.109687
 21
-589.000000
  0
LINE
  8
A-DIMS-1
 10
281.109687
 20
-571.001717
 11
281.109687
 21
-565.000000
  0
TEXT
  8
A-DIMS-1
 10
283.785253
 20
-580.210679
 40
5.598621
  1
2'
 50
90.000000
  7
STANDARD
  0
LINE
  8
A-DIMS-1
 10
266.109687
 20
-491.000000
 11
284.109687
 21
-491.000000
  0
LINE
  8
A-DIMS-1
 10
282.609687
 20
-488.000000
 11
281.109687
 21
-491.000000
  0
LINE
  8
A-DIMS-1
 10
279.609687
 20
-494.000000
 11
281.109687
 21
-491.000000
  0
LINE
  8
A-DIMS-1
 10
281.109687
 20
-536.406292
 11
281.109687
 21
-565.000000
  0
LINE
  8
A-DIMS-1
 10
281.109687
 20
-519.593708
 11
281.109687
 21
-491.000000
  0
TEXT
  8
A-DIMS-1
 10
283.785253
 20
-533.618687
 40
5.598621
  1
6'2
 50
90.000000
  7
STANDARD
  0
LINE
  8
A-DIMS-1
 10
233.109687
 20
-417.000000
 11
284.109687
 21
-417.000000
  0
LINE
  8
A-DIMS-1
 10
279.609687
 20
-420.000000
 11
281.109687
 21
-417.000000
  0
LINE
  8
A-DIMS-1
 10
281.109687
 20
-462.406292
 11
281.109687
 21
-491.000000
  0
LINE
  8
A-DIMS-1
 10
281.109687
 20
-445.593708
 11
281.109687
 21
-417.000000
  0
TEXT
  8
A-DIMS-1
 10
283.785253
 20
-459.618687
 40
5.598621
  1
6'2
 50
90.000000
  7
STANDARD
  0
LINE
  8
A-DIMS-1
 10
233.109687
 20
-255.000000
 11
284.109687
 21
-255.000000
  0
LINE
  8
A-DIMS-1
 10
282.609687
 20
-252.000000
 11
281.109687
 21
-255.000000
  0
LINE
  8
A-DIMS-1
 10
218.109687
 20
-215.000000
 11
284.109687
 21
-215.000000
  0
LINE
  8
A-DIMS-1
 10
282.609687
 20
-212.000000
 11
281.109687
 21
-215.000000
  0
LINE
  8
A-DIMS-1
 10
279.609687
 20
-218.000000
 11
281.109687
 21
-215.000000
  0
LINE
  8
A-DIMS-1
 10
281.109687
 20
-243.406292
 11
281.109687
 21
-255.000000
  0
LINE
  8
A-DIMS-1
 10
281.109687
 20
-226.593708
 11
281.109687
 21
-215.000000
  0
TEXT
  8
A-DIMS-1
 10
283.785253
 20
-240.618687
 40
5.598621
  1
3'4
 50
90.000000
  7
STANDARD
  0
LINE
  8
A-DIMS-1
 10
209.109687
 20
-171.000000
 11
284.109687
 21
-171.000000
  0
LINE
  8
A-DIMS-1
 10
282.609687
 20
-168.000000
 11
281.109687
 21
-171.000000
  0
LINE
  8
A-DIMS-1
 10
279.609687
 20
-174.000000
 11
281.109687
 21
-171.000000
  0
LINE
  8
A-DIMS-1
 10
281.109687
 20
-201.406292
 11
281.109687
 21
-215.000000
  0
LINE
  8
A-DIMS-1
 10
281.109687
 20
-184.593708
 11
281.109687
 21
-171.000000
  0
TEXT
  8
A-DIMS-1
 10
283.785253
 20
-198.618687
 40
5.598621
  1
3'8
 50
90.000000
  7
STANDARD
  0
LINE
  8
A-DIMS-1
 10
86.109687
 20
-123.000000
 11
284.109687
 21
-123.000000
  0
LINE
  8
A-DIMS-1
 10
282.609687
 20
-120.000000
 11
281.109687
 21
-123.000000
  0
LINE
  8
A-DIMS-1
 10
279.609687
 20
-126.000000
 11
281.109687
 21
-123.000000
  0
LINE
  8
A-DIMS-1
 10
281.109687
 20
-152.998283
 11
281.109687
 21
-171.000000
  0
LINE
  8
A-DIMS-1
 10
281.109687
 20
-141.001717
 11
281.109687
 21
-123.000000
  0
TEXT
  8
A-DIMS-1
 10
283.785253
 20
-150.210679
 40
5.598621
  1
4'
 50
90.000000
  7
STANDARD
  0
LINE
  8
A-DIMS-1
 10
77.109687
 20
-95.000000
 11
284.109687
 21
-95.000000
  0
LINE
  8
A-DIMS-1
 10
279.609687
 20
-98.000000
 11
281.109687
 21
-95.000000
  0
LINE
  8
A-DIMS-1
 10
281.109687
 20
-117.406292
 11
281.109687
 21
-123.000000
  0
LINE
  8
A-DIMS-1
 10
281.109687
 20
-100.593708
 11
281.109687
 21
-95.000000
  0
TEXT
  8
A-DIMS-1
 10
283.785253
 20
-114.618687
 40
5.598621
  1
2'4
 50
90.000000
  7
STANDARD
  0
LINE
  8
A-DIMS-1
 10
105.109687
 20
-839.000000
 11
302.109687
 21
-839.000000
  0
LINE
  8
A-DIMS-1
 10
300.609687
 20
-836.000000
 11
299.109687
 21
-839.000000
  0
LINE
  8
A-DIMS-1
 10
286.109687
 20
-811.000000
 11
302.109687
 21
-811.000000
  0
LINE
  8
A-DIMS-1
 10
300.609687
 20
-808.000000
 11
299.109687
 21
-811.000000
  0
LINE
  8
A-DIMS-1
 10
297.609687
 20
-814.000000
 11
299.109687
 21
-811.000000
  0
LINE
  8
A-DIMS-1
 10
299.109687
 20
-833.406292
 11
299.109687
 21
-839.000000
  0
LINE
  8
A-DIMS-1
 10
299.109687
 20
-816.593708
 11
299.109687
 21
-811.000000
  0
TEXT
  8
A-DIMS-1
 10
301.785253
 20
-830.618687
 40
5.598621
  1
2'4
 50
90.000000
  7
STANDARD
  0
LINE
  8
A-DIMS-1
 10
286.109687
 20
-565.000000
 11
302.109687
 21
-565.000000
  0
LINE
  8
A-DIMS-1
 10
300.609687
 20
-562.000000
 11
299.109687
 21
-565.000000
  0
LINE
  8
A-DIMS-1
 10
297.609687
 20
-568.000000
 11
299.109687
 21
-565.000000
  0
LINE
  8
A-DIMS-1
 10
299.109687
 20
-698.814301
 11
299.109687
 21
-811.000000
  0
LINE
  8
A-DIMS-1
 10
299.109687
 20
-677.185699
 11
299.109687
 21
-565.000000
  0
TEXT
  8
A-DIMS-1
 10
301.785253
 20
-696.026696
 40
5.598621
  1
20'6
 50
90.000000
  7
STANDARD
  0
LINE
  8
A-DIMS-1
 10
286.109687
 20
-417.000000
 11
302.109687
 21
-417.000000
  0
LINE
  8
A-DIMS-1
 10
300.609687
 20
-414.000000
 11
299.109687
 21
-417.000000
  0
LINE
  8
A-DIMS-1
 10
297.609687
 20
-420.000000
 11
299.109687
 21
-417.000000
  0
LINE
  8
A-DIMS-1
 10
299.109687
 20
-501.814301
 11
299.109687
 21
-565.000000
  0
LINE
  8
A-DIMS-1
 10
299.109687
 20
-480.185699
 11
299.109687
 21
-417.000000
  0
TEXT
  8
A-DIMS-1
 10
301.785253
 20
-499.026696
 40
5.598621
  1
12'4
 50
90.000000
  7
STANDARD
  0
LINE
  8
A-DIMS-1
 10
286.109687
 20
-255.000000
 11
302.109687
 21
-255.000000
  0
LINE
  8
A-DIMS-1
 10
300.609687
 20
-252.000000
 11
299.109687
 21
-255.000000
  0
LINE
  8
A-DIMS-1
 10
297.609687
 20
-258.000000
 11
299.109687
 21
-255.000000
  0
LINE
  8
A-DIMS-1
 10
299.109687
 20
-346.814301
 11
299.109687
 21
-417.000000
  0
LINE
  8
A-DIMS-1
 10
299.109687
 20
-325.185699
 11
299.109687
 21
-255.000000
  0
TEXT
  8
A-DIMS-1
 10
301.785253
 20
-344.026696
 40
5.598621
  1
13'6
 50
90.000000
  7
STANDARD
  0
LINE
  8
A-DIMS-1
 10
286.109687
 20
-171.000000
 11
302.109687
 21
-171.000000
  0
LINE
  8
A-DIMS-1
 10
300.609687
 20
-168.000000
 11
299.109687
 21
-171.000000
  0
LINE
  8
A-DIMS-1
 10
297.609687
 20
-174.000000
 11
299.109687
 21
-171.000000
  0
LINE
  8
A-DIMS-1
 10
299.109687
 20
-218.998283
 11
299.109687
 21
-255.000000
  0
LINE
  8
A-DIMS-1
 10
299.109687
 20
-207.001717
 11
299.109687
 21
-171.000000
  0
TEXT
  8
A-DIMS-1
 10
301.785253
 20
-216.210679
 40
5.598621
  1
7'
 50
90.000000
  7
STANDARD
  0
LINE
  8
A-DIMS-1
 10
286.109687
 20
-95.000000
 11
302.109687
 21
-95.000000
  0
LINE
  8
A-DIMS-1
 10
297.609687
 20
-98.000000
 11
299.109687
 21
-95.000000
  0
LINE
  8
A-DIMS-1
 10
299.109687
 20
-141.406292
 11
299.109687
 21
-171.000000
  0
LINE
  8
A-DIMS-1
 10
299.109687
 20
-124.593708
 11
299.109687
 21
-95.000000
  0
TEXT
  8
A-DIMS-1
 10
301.785253
 20
-138.618687
 40
5.598621
  1
6'4
 50
90.000000
  7
STANDARD
  0
LINE
  8
A-DIMS-1
 10
304.109687
 20
-839.000000
 11
320.109687
 21
-839.000000
  0
LINE
  8
A-DIMS-1
 10
318.609687
 20
-836.000000
 11
317.109687
 21
-839.000000
  0
LINE
  8
A-DIMS-1
 10
304.109687
 20
-95.000000
 11
320.109687
 21
-95.000000
  0
LINE
  8
A-DIMS-1
 10
315.609687
 20
-98.000000
 11
317.109687
 21
-95.000000
  0
LINE
  8
A-DIMS-1
 10
317.109687
 20
-475.406292
 11
317.109687
 21
-839.000000
  0
LINE
  8
A-DIMS-1
 10
317.109687
 20
-458.593708
 11
317.109687
 21
-95.000000
  0
TEXT
  8
A-DIMS-1
 10
319.785253
 20
-472.618687
 40
5.598621
  1
62'
 50
90.000000
  7
STANDARD
  0
LINE
  8
A-DIMS-1
 10
-170.890313
 20
-799.000000
 11
-134.890313
 21
-799.000000
  0
LINE
  8
A-DIMS-1
 10
-136.390313
 20
-796.000000
 11
-137.890313
 21
-799.000000
  0
LINE
  8
A-DIMS-1
 10
-153.890313
 20
-775.000000
 11
-134.890313
 21
-775.000000
  0
LINE
  8
A-DIMS-1
 10
-139.390313
 20
-778.000000
 11
-137.890313
 21
-775.000000
  0
LINE
  8
A-DIMS-1
 10
-137.890313
 20
-792.998283
 11
-137.890313
 21
-799.000000
  0
LINE
  8
A-DIMS-1
 10
-137.890313
 20
-781.001717
 11
-137.890313
 21
-775.000000
  0
TEXT
  8
A-DIMS-1
 10
-135.214747
 20
-790.210679
 40
5.598621
  1
2'
 50
90.000000
  7
STANDARD
  0
ENDSEC
  0
EOF
