  0
SECTION
  2
HEADER
  9
$ACADVER
  1
AC1006
  9
$EXTMIN
 10
-730.215877
 20
-962.608625
  9
$EXTMAX
 10
638.335863
 20
-15.681411
  9
$ANGDIR
 70
   0
  9
$LUNITS
 70
   2
  0
ENDSEC
  0
SECTION
  2
TABLES
  0
TABLE
  2
LTYPE
 70
   3
  0
LTYPE
  2
CONTINUOUS
 70
64
  3
SOLID LINE
 72
65
 73
0
 40
0.
  0
LTYPE
  2
DASHED
 70
64
  3
DASHED LINE
 72
65
 73
2
 40
8.
 49
5.
 49
-3.
  0
LTYPE
  2
DOTTED
 70
64
  3
DOTTED LINE
 72
65
 73
2
 40
4.
 49
2.
 49
-2.
  0
ENDTAB
  0
TABLE
  2
LAYER
 70
   15
  0
LAYER
  2
A-WALL-0
 70
64
 62
   7
  6
CONTINUOUS
  0
LAYER
  2
A-CASE-0
 70
64
 62
   7
  6
CONTINUOUS
  0
LAYER
  2
A-DIMS-0
 70
64
 62
   7
  6
CONTINUOUS
  0
LAYER
  2
A-POWR-0
 70
64
 62
   7
  6
CONTINUOUS
  0
LAYER
  2
A-NOTE-0
 70
64
 62
   7
  6
CONTINUOUS
  0
LAYER
  2
A-TEXT-0
 70
64
 62
   7
  6
CONTINUOUS
  0
LAYER
  2
A-FURN-0
 70
64
 62
   7
  6
CONTINUOUS
  0
LAYER
  2
A-GLAZ-0
 70
64
 62
   7
  6
CONTINUOUS
  0
LAYER
  2
A-STAR-0
 70
64
 62
   7
  6
CONTINUOUS
  0
LAYER
  2
A-ROOF-0
 70
64
 62
   7
  6
CONTINUOUS
  0
LAYER
  2
A-C000-0
 70
64
 62
   7
  6
CONTINUOUS
  0
ENDTAB
  0
ENDSEC
  0
SECTION
  2
BLOCKS
  0
BLOCK
  8
A-CASE-0
  2
FIXT-Toilet
 70
64
 10
0.0
 20
0.0
  0
ARC
  8
A-CASE-0
 10
9.046126
 20
27.780609
 40
1.431891
 50
0.000000
 51
90.000000
  0
LINE
  8
A-CASE-0
 10
9.046126
 20
29.212500
 11
-9.046126
 21
29.212500
  0
ARC
  8
A-CASE-0
 10
-9.046126
 20
27.780609
 40
1.431891
 50
90.000000
 51
180.000000
  0
LINE
  8
A-CASE-0
 10
-10.478017
 20
27.780609
 11
-10.478017
 21
21.731952
  0
ARC
  8
A-CASE-0
 10
-9.046126
 20
21.731952
 40
1.431891
 50
180.000000
 51
270.000000
  0
LINE
  8
A-CASE-0
 10
-9.046126
 20
20.300061
 11
9.046126
 21
20.300061
  0
ARC
  8
A-CASE-0
 10
9.046126
 20
21.731952
 40
1.431891
 50
270.000000
 51
0.000000
  0
LINE
  8
A-CASE-0
 10
10.478017
 20
21.731952
 11
10.478017
 21
27.780609
  0
ARC
  8
A-CASE-0
 10
0.029649
 20
13.174761
 40
6.001594
 50
38.796550
 51
141.203450
  0
ARC
  8
A-CASE-0
 10
0.029649
 20
7.965448
 40
6.001594
 50
218.796550
 51
321.203450
  0
ARC
  8
A-CASE-0
 10
3.269587
 20
10.570105
 40
10.158689
 50
141.203449
 51
218.796551
  0
ARC
  8
A-CASE-0
 10
-3.210289
 20
10.570105
 40
10.158689
 50
321.203449
 51
38.796551
  0
ENDBLK
  0
BLOCK
  8
A-CASE-0
  2
FIXT-WaterHG
 70
64
 10
0.0
 20
0.0
  0
CIRCLE
  8
A-CASE-0
 10
-0.000000
 20
12.479368
 40
12.520632
  0
LINE
  8
A-CASE-0
 10
-6.458884
 20
15.850779
 11
-4.568376
 21
8.795307
  0
LINE
  8
A-CASE-0
 10
-4.568376
 20
8.795307
 11
-3.313710
 21
13.477785
  0
LINE
  8
A-CASE-0
 10
-3.313710
 20
13.477785
 11
-2.055941
 21
8.783728
  0
LINE
  8
A-CASE-0
 10
-2.055941
 20
8.783728
 11
-0.165146
 21
15.840274
  0
LINE
  8
A-CASE-0
 10
1.074278
 20
8.789207
 11
1.074278
 21
15.858361
  0
LINE
  8
A-CASE-0
 10
1.074278
 20
12.090279
 11
5.207015
 21
12.090279
  0
LINE
  8
A-CASE-0
 10
5.246801
 20
8.845993
 11
5.246801
 21
15.896207
  0
ENDBLK
  0
BLOCK
  8
A-CASE-0
  2
FIXT-FrnG2920
 70
64
 10
0.0
 20
0.0
  0
LINE
  8
A-CASE-0
 10
9.947191
 20
39.000000
 11
-9.947191
 21
39.000000
  0
LINE
  8
A-CASE-0
 10
-9.947191
 20
39.000000
 11
-9.947191
 21
11.079557
  0
LINE
  8
A-CASE-0
 10
-9.947191
 20
11.079557
 11
9.947191
 21
11.079557
  0
LINE
  8
A-CASE-0
 10
9.947191
 20
11.079557
 11
9.947191
 21
39.000000
  0
LINE
  8
A-CASE-0
 10
-7.001456
 20
11.079557
 11
-7.001456
 21
10.054955
  0
LINE
  8
A-CASE-0
 10
-7.001456
 20
10.054955
 11
-0.512302
 21
10.054955
  0
LINE
  8
A-CASE-0
 10
-0.512302
 20
10.054955
 11
-0.512302
 21
11.079557
  0
ENDBLK
  0
BLOCK
  8
A-CASE-0
  2
FIXT-OvalBath
 70
64
 10
0.0
 20
0.0
  0
ARC
  8
A-CASE-0
 10
-3.083726
 20
15.991947
 40
6.926340
 50
128.659806
 51
231.340191
  0
ARC
  8
A-CASE-0
 10
3.083726
 20
15.991947
 40
6.926340
 50
308.659809
 51
51.340194
  0
ARC
  8
A-CASE-0
 10
-0.000000
 20
19.846604
 40
11.862710
 50
231.340192
 51
308.659808
  0
ARC
  8
A-CASE-0
 10
-0.000000
 20
12.137290
 40
11.862710
 50
51.340193
 51
128.659807
  0
ARC
  8
A-CASE-0
 10
-3.083726
 20
15.991947
 40
5.029696
 50
128.659805
 51
231.340188
  0
ARC
  8
A-CASE-0
 10
3.083726
 20
15.991947
 40
5.029696
 50
308.659812
 51
51.340195
  0
ARC
  8
A-CASE-0
 10
0.000000
 20
19.846604
 40
9.966065
 50
231.340190
 51
308.659810
  0
ARC
  8
A-CASE-0
 10
0.000000
 20
12.137290
 40
9.966065
 50
51.340193
 51
128.659807
  0
CIRCLE
  8
A-CASE-0
 10
-0.052685
 20
16.966612
 40
0.605872
  0
CIRCLE
  8
A-CASE-0
 10
-0.052685
 20
16.966612
 40
1.027349
  0
ENDBLK
  0
BLOCK
  8
A-CASE-0
  2
FIXT-Shwr60
 70
64
 10
0.0
 20
0.0
  0
LINE
  8
A-CASE-0
 10
-29.963196
 20
-0.028080
 11
29.987392
 21
-0.028080
  0
LINE
  8
A-CASE-0
 10
-27.265932
 20
3.097593
 11
-5.551453
 21
15.634455
  0
LINE
  8
A-CASE-0
 10
27.385593
 20
30.365020
 11
-27.385593
 21
30.365020
  0
LINE
  8
A-CASE-0
 10
-27.385593
 20
30.365020
 11
-27.385593
 21
2.977932
  0
LINE
  8
A-CASE-0
 10
-27.385593
 20
2.977932
 11
27.385593
 21
2.977932
  0
LINE
  8
A-CASE-0
 10
27.385593
 20
2.977932
 11
27.385593
 21
30.365020
  0
CIRCLE
  8
A-CASE-0
 10
0.082513
 20
16.722193
 40
1.102624
  0
LINE
  8
A-CASE-0
 10
27.146271
 20
30.125696
 11
5.343473
 21
17.537846
  0
LINE
  8
A-CASE-0
 10
27.265932
 20
3.097593
 11
5.557290
 21
15.631084
  0
LINE
  8
A-CASE-0
 10
-27.182060
 20
30.073641
 11
-5.719962
 21
17.682493
  0
ENDBLK
  0
BLOCK
  8
A-FURN-0
  2
FIXT-esqr26
 70
64
 10
0.0
 20
0.0
  0
ARC
  8
A-FURN-0
 10
10.237361
 20
26.250386
 40
2.749614
 50
0.000000
 51
90.000000
  0
LINE
  8
A-FURN-0
 10
10.237361
 20
29.000000
 11
-10.237361
 21
29.000000
  0
ARC
  8
A-FURN-0
 10
-10.237361
 20
26.250386
 40
2.749614
 50
90.000000
 51
180.000000
  0
LINE
  8
A-FURN-0
 10
-12.986976
 20
26.250386
 11
-12.986976
 21
5.775663
  0
ARC
  8
A-FURN-0
 10
-10.237361
 20
5.775663
 40
2.749614
 50
180.000000
 51
270.000000
  0
LINE
  8
A-FURN-0
 10
-10.237361
 20
3.026049
 11
10.237361
 21
3.026049
  0
ARC
  8
A-FURN-0
 10
10.237361
 20
5.775663
 40
2.749614
 50
270.000000
 51
0.000000
  0
LINE
  8
A-FURN-0
 10
12.986976
 20
5.775663
 11
12.986976
 21
26.250386
  0
ENDBLK
  0
BLOCK
  8
A-FURN-0
  2
FIXT-Sidchar3
 70
64
 10
0.0
 20
0.0
  0
ARC
  8
A-FURN-0
 10
12.802023
 20
11.545657
 40
21.014664
 50
165.000000
 51
176.344092
  0
ARC
  8
A-FURN-0
 10
193.163010
 20
0.021605
 40
201.743439
 50
176.344092
 51
180.000000
  0
LINE
  8
A-FURN-0
 10
-7.496583
 20
16.984653
 11
7.496583
 21
16.984653
  0
ARC
  8
A-FURN-0
 10
-193.163010
 20
0.021605
 40
201.743439
 50
0.000000
 51
3.655908
  0
ARC
  8
A-FURN-0
 10
-12.802023
 20
11.545657
 40
21.014664
 50
3.655908
 51
15.000000
  0
LINE
  8
A-FURN-0
 10
8.580427
 20
0.021605
 11
-8.580427
 21
0.021605
  0
LINE
  8
A-FURN-0
 10
6.398632
 20
16.978707
 11
6.398632
 21
16.417537
  0
LINE
  8
A-FURN-0
 10
6.398632
 20
16.417537
 11
-6.502366
 21
16.417537
  0
LINE
  8
A-FURN-0
 10
-6.502366
 20
16.417537
 11
-6.502366
 21
18.000000
  0
LINE
  8
A-FURN-0
 10
-6.502366
 20
18.000000
 11
6.407324
 21
18.000000
  0
LINE
  8
A-FURN-0
 10
6.407324
 20
18.000000
 11
6.407324
 21
16.975421
  0
LINE
  8
A-FURN-0
 10
-4.700047
 20
16.978707
 11
-4.700047
 21
16.417537
  0
LINE
  8
A-FURN-0
 10
-3.993390
 20
16.978707
 11
-3.993390
 21
16.417537
  0
LINE
  8
A-FURN-0
 10
-0.730295
 20
16.978707
 11
-0.730295
 21
16.417537
  0
LINE
  8
A-FURN-0
 10
-0.002854
 20
16.978707
 11
-0.002854
 21
16.396753
  0
LINE
  8
A-FURN-0
 10
4.819045
 20
16.978707
 11
4.819045
 21
16.417537
  0
LINE
  8
A-FURN-0
 10
4.257875
 20
16.978707
 11
4.257875
 21
16.417537
  0
ENDBLK
  0
BLOCK
  8
A-POWR-0
  2
FIXT-GFI_Out
 70
64
 10
0.0
 20
0.0
  0
CIRCLE
  8
A-POWR-0
 10
-0.006993
 20
-5.734540
 40
3.254864
  0
LINE
  8
A-POWR-0
 10
-1.973961
 20
-8.380580
 11
-1.973961
 21
-0.000000
  0
LINE
  8
A-POWR-0
 10
2.006808
 20
-8.286915
 11
2.006808
 21
-0.000000
  0
TEXT
  8
A-POWR-0
 10
-2.437602
 20
-15.563644
 40
2.332759
  1
GFI
  7
STANDARD
  0
ENDBLK
  0
BLOCK
  8
A-POWR-0
  2
FIXT-WP_Out
 70
64
 10
0.0
 20
0.0
  0
CIRCLE
  8
A-POWR-0
 10
-0.006993
 20
-5.734540
 40
3.254864
  0
LINE
  8
A-POWR-0
 10
-1.973961
 20
-8.380580
 11
-1.973961
 21
-0.000000
  0
LINE
  8
A-POWR-0
 10
2.006808
 20
-8.286915
 11
2.006808
 21
-0.000000
  0
TEXT
  8
A-POWR-0
 10
-2.482195
 20
-15.563644
 40
2.332759
  1
WP
  7
STANDARD
  0
ENDBLK
  0
BLOCK
  8
A-POWR-0
  2
FIXT-Light
 70
64
 10
0.0
 20
0.0
  0
LINE
  8
A-POWR-0
 10
-0.014999
 20
-9.119638
 11
-0.014999
 21
-11.759534
  0
CIRCLE
  8
A-POWR-0
 10
-0.006993
 20
-5.860310
 40
3.254864
  0
LINE
  8
A-POWR-0
 10
-0.024039
 20
-2.609896
 11
-0.024039
 21
0.000000
  0
LINE
  8
A-POWR-0
 10
3.254871
 20
-5.849768
 11
5.864768
 21
-5.849768
  0
LINE
  8
A-POWR-0
 10
-3.254871
 20
-5.909766
 11
-5.864768
 21
-5.909766
  0
ENDBLK
  0
BLOCK
  8
A-POWR-0
  2
FIXT-RecLight
 70
64
 10
0.0
 20
0.0
  0
CIRCLE
  8
A-POWR-0
 10
-0.000000
 20
-3.524853
 40
3.524853
  0
ENDBLK
  0
BLOCK
  8
A-POWR-0
  2
FIXT-DualSpot
 70
64
 10
0.0
 20
0.0
  0
CIRCLE
  8
A-POWR-0
 10
-0.022810
 20
-0.719971
 40
0.719971
  0
LINE
  8
A-POWR-0
 10
0.937152
 20
-0.959962
 11
9.454506
 21
-3.242180
  0
LINE
  8
A-POWR-0
 10
9.454506
 20
-3.242180
 11
4.472240
 21
-8.224445
  0
LINE
  8
A-POWR-0
 10
4.472240
 20
-8.224445
 11
0.607165
 21
-1.529939
  0
LINE
  8
A-POWR-0
 10
-1.155265
 20
-1.004027
 11
-9.454506
 21
-3.227802
  0
LINE
  8
A-POWR-0
 10
-9.454506
 20
-3.227802
 11
-4.571973
 21
-8.110334
  0
LINE
  8
A-POWR-0
 10
-4.571973
 20
-8.110334
 11
-0.772780
 21
-1.529939
  0
ENDBLK
  0
BLOCK
  8
A-POWR-0
  2
FIXT-RecExFan
 70
64
 10
0.0
 20
0.0
  0
CIRCLE
  8
A-POWR-0
 10
-0.000000
 20
-3.884839
 40
3.884839
  0
ARC
  8
A-POWR-0
 10
2.327786
 20
-1.592827
 40
3.304456
 50
224.999998
 51
264.898271
  0
ARC
  8
A-POWR-0
 10
2.224729
 20
-2.747166
 40
2.145526
 50
264.898272
 51
315.000000
  0
ARC
  8
A-POWR-0
 10
2.374045
 20
-4.546449
 40
1.721091
 50
44.999994
 51
99.462325
  0
ARC
  8
A-POWR-0
 10
2.727214
 20
-6.665462
 40
3.869332
 50
99.462323
 51
134.999999
  0
ARC
  8
A-POWR-0
 10
-2.386747
 20
-3.343154
 40
1.684494
 50
225.000000
 51
279.573780
  0
ARC
  8
A-POWR-0
 10
-2.742678
 20
-1.232889
 40
3.824566
 50
279.573776
 51
314.999999
  0
ARC
  8
A-POWR-0
 10
-2.342464
 20
-6.241427
 40
3.258577
 50
44.999999
 51
84.289404
  0
ARC
  8
A-POWR-0
 10
-2.218059
 20
-4.997380
 40
2.008325
 50
84.289407
 51
135.000000
  0
ENDBLK
  0
BLOCK
  8
A-POWR-0
  2
FIXT-RLiteFan
 70
64
 10
0.0
 20
0.0
  0
LINE
  8
A-POWR-0
 10
-0.014999
 20
-9.749613
 11
-0.014999
 21
-11.759534
  0
CIRCLE
  8
A-POWR-0
 10
-0.006993
 20
-5.860310
 40
3.884839
  0
LINE
  8
A-POWR-0
 10
-0.024039
 20
-1.979921
 11
-0.024039
 21
0.000000
  0
LINE
  8
A-POWR-0
 10
3.884846
 20
-5.849768
 11
5.864768
 21
-5.849768
  0
LINE
  8
A-POWR-0
 10
-3.884846
 20
-5.909766
 11
-5.864768
 21
-5.909766
  0
ARC
  8
A-POWR-0
 10
2.320793
 20
-3.568298
 40
3.304456
 50
225.000001
 51
264.898271
  0
ARC
  8
A-POWR-0
 10
2.217736
 20
-4.722637
 40
2.145526
 50
264.898271
 51
315.000005
  0
ARC
  8
A-POWR-0
 10
2.367052
 20
-6.521920
 40
1.721091
 50
45.000006
 51
99.462325
  0
ARC
  8
A-POWR-0
 10
2.720221
 20
-8.640932
 40
3.869332
 50
99.462323
 51
134.999999
  0
ARC
  8
A-POWR-0
 10
-2.393740
 20
-5.318624
 40
1.684494
 50
225.000000
 51
279.573780
  0
ARC
  8
A-POWR-0
 10
-2.749672
 20
-3.208359
 40
3.824566
 50
279.573779
 51
315.000000
  0
ARC
  8
A-POWR-0
 10
-2.349457
 20
-8.216898
 40
3.258577
 50
45.000000
 51
84.289405
  0
ARC
  8
A-POWR-0
 10
-2.225052
 20
-6.972850
 40
2.008325
 50
84.289407
 51
135.000005
  0
ENDBLK
  0
BLOCK
  8
A-POWR-0
  2
FIXT-CeilFan
 70
64
 10
0.0
 20
0.0
  0
CIRCLE
  8
A-POWR-0
 10
0.059998
 20
-17.043396
 40
1.272742
  0
CIRCLE
  8
A-POWR-0
 10
0.059998
 20
-17.043396
 40
2.924427
  0
ARC
  8
A-POWR-0
 10
13.759789
 20
-3.195919
 40
3.157881
 50
44.999995
 51
68.497820
  0
ARC
  8
A-POWR-0
 10
-13.759789
 20
-3.195919
 40
3.157881
 50
111.502180
 51
135.000005
  0
ARC
  8
A-POWR-0
 10
-13.787480
 20
-30.743187
 40
3.157881
 50
201.502202
 51
225.000012
  0
ARC
  8
A-POWR-0
 10
13.787480
 20
-30.743187
 40
3.157881
 50
314.999988
 51
338.497798
  0
ARC
  8
A-POWR-0
 10
13.787480
 20
-3.223610
 40
3.157881
 50
21.502174
 51
45.000006
  0
ARC
  8
A-POWR-0
 10
-13.787480
 20
-3.223610
 40
3.157881
 50
134.999994
 51
158.497826
  0
ARC
  8
A-POWR-0
 10
-13.759789
 20
-30.770880
 40
3.157881
 50
224.999976
 51
248.497821
  0
ARC
  8
A-POWR-0
 10
13.759789
 20
-30.770880
 40
3.157881
 50
291.502179
 51
315.000024
  0
ARC
  8
A-POWR-0
 10
13.559463
 20
-3.704422
 40
3.704422
 50
68.497835
 51
91.982695
  0
ARC
  8
A-POWR-0
 10
-13.559463
 20
-3.704422
 40
3.704422
 50
88.017305
 51
111.502165
  0
ARC
  8
A-POWR-0
 10
-13.278977
 20
-30.542860
 40
3.704422
 50
178.017334
 51
201.502197
  0
ARC
  8
A-POWR-0
 10
13.278977
 20
-30.542860
 40
3.704422
 50
338.497803
 51
1.982666
  0
ARC
  8
A-POWR-0
 10
13.278977
 20
-3.423937
 40
3.704422
 50
358.017315
 51
21.502173
  0
ARC
  8
A-POWR-0
 10
-13.278977
 20
-3.423937
 40
3.704422
 50
158.497827
 51
181.982685
  0
ARC
  8
A-POWR-0
 10
-13.559463
 20
-30.262377
 40
3.704422
 50
248.497835
 51
271.982695
  0
ARC
  8
A-POWR-0
 10
13.559463
 20
-30.262377
 40
3.704422
 50
268.017305
 51
291.502165
  0
LINE
  8
A-POWR-0
 10
13.431298
 20
-0.002218
 11
2.343979
 21
-11.089537
  0
LINE
  8
A-POWR-0
 10
-13.431298
 20
-0.002218
 11
-2.343979
 21
-11.089537
  0
LINE
  8
A-POWR-0
 10
-16.981180
 20
-30.414698
 11
-5.893862
 21
-19.327377
  0
LINE
  8
A-POWR-0
 10
16.981180
 20
-30.414698
 11
5.893862
 21
-19.327377
  0
LINE
  8
A-POWR-0
 10
16.981180
 20
-3.552100
 11
5.893862
 21
-14.639420
  0
LINE
  8
A-POWR-0
 10
-16.981180
 20
-3.552100
 11
-5.893862
 21
-14.639420
  0
LINE
  8
A-POWR-0
 10
-13.431298
 20
-33.964581
 11
-2.343979
 21
-22.877260
  0
LINE
  8
A-POWR-0
 10
13.431298
 20
-33.964581
 11
2.343979
 21
-22.877260
  0
LINE
  8
A-POWR-0
 10
2.343979
 20
-11.089537
 11
2.343979
 21
-13.427375
  0
LINE
  8
A-POWR-0
 10
-2.343979
 20
-11.089537
 11
-2.343979
 21
-13.427375
  0
LINE
  8
A-POWR-0
 10
-5.893862
 20
-19.327377
 11
-3.556024
 21
-19.327377
  0
LINE
  8
A-POWR-0
 10
5.893862
 20
-19.327377
 11
3.556024
 21
-19.327377
  0
LINE
  8
A-POWR-0
 10
5.893862
 20
-14.639420
 11
3.556024
 21
-14.639420
  0
LINE
  8
A-POWR-0
 10
-5.893862
 20
-14.639420
 11
-3.556024
 21
-14.639420
  0
LINE
  8
A-POWR-0
 10
-2.343979
 20
-22.877260
 11
-2.343979
 21
-20.539423
  0
LINE
  8
A-POWR-0
 10
2.343979
 20
-22.877260
 11
2.343979
 21
-20.539423
  0
LINE
  8
A-POWR-0
 10
2.343979
 20
-13.427375
 11
2.967628
 21
-14.051023
  0
LINE
  8
A-POWR-0
 10
-2.343979
 20
-13.427375
 11
-2.967628
 21
-14.051023
  0
LINE
  8
A-POWR-0
 10
-3.556024
 20
-19.327377
 11
-2.932375
 21
-19.951027
  0
LINE
  8
A-POWR-0
 10
3.556024
 20
-19.327377
 11
2.932375
 21
-19.951027
  0
LINE
  8
A-POWR-0
 10
3.556024
 20
-14.639420
 11
2.932375
 21
-14.015770
  0
LINE
  8
A-POWR-0
 10
-3.556024
 20
-14.639420
 11
-2.932375
 21
-14.015770
  0
LINE
  8
A-POWR-0
 10
-2.343979
 20
-20.539423
 11
-2.967628
 21
-19.915773
  0
LINE
  8
A-POWR-0
 10
2.343979
 20
-20.539423
 11
2.967628
 21
-19.915773
  0
ENDBLK
  0
BLOCK
  8
A-POWR-0
  2
FIXT-3_Way
 70
64
 10
0.0
 20
0.0
  0
LINE
  8
A-POWR-0
 10
1.506088
 20
-2.396511
 11
-2.053707
 21
-2.396511
  0
ARC
  8
A-POWR-0
 10
-2.053707
 20
-4.016987
 40
1.620476
 50
90.000000
 51
181.041633
  0
ARC
  8
A-POWR-0
 10
-1.993710
 20
-4.015897
 40
1.680484
 50
181.041622
 51
270.000000
  0
LINE
  8
A-POWR-0
 10
-1.993710
 20
-5.696380
 11
-0.263288
 21
-5.696380
  0
ARC
  8
A-POWR-0
 10
-0.173292
 20
-7.420123
 40
1.636124
 50
270.000000
 51
1.534338
  0
ARC
  8
A-POWR-0
 10
-0.263288
 20
-7.422534
 40
1.726153
 50
1.534347
 51
90.000000
  0
LINE
  8
A-POWR-0
 10
-0.173292
 20
-9.056247
 11
-3.662938
 21
-9.056247
  0
LINE
  8
A-POWR-0
 10
-1.156680
 20
-0.026605
 11
-1.156680
 21
-11.036168
  0
TEXT
  8
A-POWR-0
 10
0.369950
 20
-14.470437
 40
2.799311
  1
3
  7
STANDARD
  0
ENDBLK
  0
BLOCK
  8
A-POWR-0
  2
FIXT-4_Way
 70
64
 10
0.0
 20
0.0
  0
LINE
  8
A-POWR-0
 10
1.506088
 20
-2.396511
 11
-2.053707
 21
-2.396511
  0
ARC
  8
A-POWR-0
 10
-2.053707
 20
-4.016987
 40
1.620476
 50
90.000000
 51
181.041633
  0
ARC
  8
A-POWR-0
 10
-1.993710
 20
-4.015897
 40
1.680484
 50
181.041622
 51
270.000000
  0
LINE
  8
A-POWR-0
 10
-1.993710
 20
-5.696380
 11
-0.263288
 21
-5.696380
  0
ARC
  8
A-POWR-0
 10
-0.173292
 20
-7.420123
 40
1.636124
 50
270.000000
 51
1.534338
  0
ARC
  8
A-POWR-0
 10
-0.263288
 20
-7.422534
 40
1.726153
 50
1.534347
 51
90.000000
  0
LINE
  8
A-POWR-0
 10
-0.173292
 20
-9.056247
 11
-3.662938
 21
-9.056247
  0
LINE
  8
A-POWR-0
 10
-1.156680
 20
-0.026605
 11
-1.156680
 21
-11.036168
  0
TEXT
  8
A-POWR-0
 10
0.369950
 20
-14.470437
 40
2.799311
  1
4
  7
STANDARD
  0
ENDBLK
  0
BLOCK
  8
A-POWR-0
  2
FIXT-5_Way
 70
64
 10
0.0
 20
0.0
  0
LINE
  8
A-POWR-0
 10
1.506088
 20
-2.396511
 11
-2.053707
 21
-2.396511
  0
ARC
  8
A-POWR-0
 10
-2.053707
 20
-4.016987
 40
1.620476
 50
90.000000
 51
181.041633
  0
ARC
  8
A-POWR-0
 10
-1.993710
 20
-4.015897
 40
1.680484
 50
181.041622
 51
270.000000
  0
LINE
  8
A-POWR-0
 10
-1.993710
 20
-5.696380
 11
-0.263288
 21
-5.696380
  0
ARC
  8
A-POWR-0
 10
-0.173292
 20
-7.420123
 40
1.636124
 50
270.000000
 51
1.534338
  0
ARC
  8
A-POWR-0
 10
-0.263288
 20
-7.422534
 40
1.726153
 50
1.534347
 51
90.000000
  0
LINE
  8
A-POWR-0
 10
-0.173292
 20
-9.056247
 11
-3.662938
 21
-9.056247
  0
LINE
  8
A-POWR-0
 10
-1.156680
 20
-0.026605
 11
-1.156680
 21
-11.036168
  0
TEXT
  8
A-POWR-0
 10
0.369950
 20
-14.470437
 40
2.799311
  1
5
  7
STANDARD
  0
ENDBLK
  0
ENDSEC
  0
SECTION
  2
ENTITIES
  0
LINE
  8
A-WALL-0
 10
-262.000000
 20
-278.000000
 11
-262.000000
 21
-267.000000
  0
LINE
  8
A-WALL-0
 10
-274.000000
 20
-255.000000
 11
-274.000000
 21
-278.000000
  0
LINE
  8
A-WALL-0
 10
-262.000000
 20
-414.000000
 11
-262.000000
 21
-314.000000
  0
LINE
  8
A-WALL-0
 10
-274.000000
 20
-314.000000
 11
-274.000000
 21
-414.000000
  0
LINE
  8
A-WALL-0
 10
-262.000000
 20
-468.000000
 11
-262.000000
 21
-450.000000
  0
LINE
  8
A-WALL-0
 10
-274.000000
 20
-450.000000
 11
-274.000000
 21
-470.000000
  0
LINE
  8
A-GLAZ-0
 10
-274.000000
 20
-278.000000
 11
-262.000000
 21
-278.000000
  0
LINE
  8
A-GLAZ-0
 10
-262.000000
 20
-314.000000
 11
-274.000000
 21
-314.000000
  0
LINE
  8
A-GLAZ-0
 10
-262.000000
 20
-314.000000
 11
-262.000000
 21
-278.000000
  0
LINE
  8
A-GLAZ-0
 10
-274.000000
 20
-278.000000
 11
-274.000000
 21
-314.000000
  0
LINE
  8
A-GLAZ-0
 10
-268.000000
 20
-278.000000
 11
-268.000000
 21
-314.000000
  0
TEXT
  8
A-DIMS-0
 10
-278.508343
 20
-305.632036
 40
5.598621
  1
3020
 50
90.000000
  7
STANDARD
  0
LINE
  8
A-GLAZ-0
 10
-274.000000
 20
-414.000000
 11
-262.000000
 21
-414.000000
  0
LINE
  8
A-GLAZ-0
 10
-262.000000
 20
-450.000000
 11
-274.000000
 21
-450.000000
  0
LINE
  8
A-GLAZ-0
 10
-262.000000
 20
-450.000000
 11
-262.000000
 21
-414.000000
  0
LINE
  8
A-GLAZ-0
 10
-274.000000
 20
-414.000000
 11
-274.000000
 21
-450.000000
  0
LINE
  8
A-GLAZ-0
 10
-268.000000
 20
-414.000000
 11
-268.000000
 21
-450.000000
  0
TEXT
  8
A-DIMS-0
 10
-278.508343
 20
-441.632036
 40
5.598621
  1
3020
 50
90.000000
  7
STANDARD
  0
LINE
  8
A-WALL-0
  6
DOTTED
 10
206.000000
 20
-171.000000
 11
74.000000
 21
-171.000000
  0
LINE
  8
A-WALL-0
  6
DOTTED
 10
74.000000
 20
-179.000000
 11
198.000000
 21
-179.000000
  0
LINE
  8
A-WALL-0
 10
38.000000
 20
-387.000000
 11
38.000000
 21
-406.000000
  0
LINE
  8
A-WALL-0
 10
42.000000
 20
-472.000000
 11
42.000000
 21
-391.000000
  0
LINE
  8
A-WALL-0
 10
38.000000
 20
-410.000000
 11
38.000000
 21
-468.000000
  0
LINE
  8
A-WALL-0
 10
-32.000000
 20
-410.000000
 11
38.000000
 21
-410.000000
  0
LINE
  8
A-WALL-0
 10
38.000000
 20
-406.000000
 11
-36.000000
 21
-406.000000
  0
LINE
  8
A-WALL-0
 10
-36.000000
 20
-406.000000
 11
-36.000000
 21
-468.000000
  0
LINE
  8
A-WALL-0
 10
-32.000000
 20
-468.000000
 11
-32.000000
 21
-410.000000
  0
LINE
  8
A-WALL-0
  6
DOTTED
 10
206.000000
 20
-255.000000
 11
206.000000
 21
-171.000000
  0
LINE
  8
A-WALL-0
  6
DOTTED
 10
198.000000
 20
-179.000000
 11
198.000000
 21
-255.000000
  0
LINE
  8
A-WALL-0
 10
230.000000
 20
-277.000000
 11
230.000000
 21
-255.000000
  0
LINE
  8
A-WALL-0
 10
218.000000
 20
-267.000000
 11
218.000000
 21
-277.000000
  0
LINE
  8
A-WALL-0
 10
218.000000
 20
-313.000000
 11
218.000000
 21
-415.000000
  0
LINE
  8
A-WALL-0
 10
230.000000
 20
-495.000000
 11
230.000000
 21
-313.000000
  0
LINE
  8
A-WALL-0
 10
218.000000
 20
-419.000000
 11
218.000000
 21
-493.000000
  0
LINE
  8
A-GLAZ-0
 10
230.000000
 20
-313.000000
 11
218.000000
 21
-313.000000
  0
LINE
  8
A-GLAZ-0
 10
218.000000
 20
-277.000000
 11
230.000000
 21
-277.000000
  0
LINE
  8
A-GLAZ-0
 10
218.000000
 20
-277.000000
 11
218.000000
 21
-313.000000
  0
LINE
  8
A-GLAZ-0
 10
230.000000
 20
-313.000000
 11
230.000000
 21
-277.000000
  0
LINE
  8
A-GLAZ-0
 10
224.000000
 20
-313.000000
 11
224.000000
 21
-277.000000
  0
TEXT
  8
A-DIMS-0
 10
239.859474
 20
-304.632036
 40
5.598621
  1
3022
 50
90.000000
  7
STANDARD
  0
LINE
  8
A-WALL-0
 10
-219.000000
 20
-255.000000
 11
-274.000000
 21
-255.000000
  0
LINE
  8
A-WALL-0
 10
-262.000000
 20
-267.000000
 11
-219.000000
 21
-267.000000
  0
LINE
  8
A-WALL-0
 10
-112.000000
 20
-255.000000
 11
-157.000000
 21
-255.000000
  0
LINE
  8
A-WALL-0
 10
-157.000000
 20
-267.000000
 11
-114.000000
 21
-267.000000
  0
LINE
  8
A-GLAZ-0
 10
-219.000000
 20
-255.000000
 11
-219.000000
 21
-267.000000
  0
LINE
  8
A-GLAZ-0
 10
-157.000000
 20
-255.000000
 11
-157.000000
 21
-267.000000
  0
LINE
  8
A-GLAZ-0
 10
-219.000000
 20
-267.000000
 11
-219.000000
 21
-298.000000
  0
LINE
  8
A-GLAZ-0
 10
-217.250000
 20
-298.000000
 11
-217.250000
 21
-267.000000
  0
LINE
  8
A-GLAZ-0
 10
-217.250000
 20
-267.000000
 11
-219.000000
 21
-267.000000
  0
ARC
  8
A-GLAZ-0
 10
-219.000000
 20
-267.000000
 40
31.000000
 50
270.000000
 51
0.000000
  0
LINE
  8
A-GLAZ-0
 10
-157.000000
 20
-267.000000
 11
-157.000000
 21
-298.000000
  0
LINE
  8
A-GLAZ-0
 10
-158.750000
 20
-298.000000
 11
-158.750000
 21
-267.000000
  0
LINE
  8
A-GLAZ-0
 10
-158.750000
 20
-267.000000
 11
-157.000000
 21
-267.000000
  0
ARC
  8
A-GLAZ-0
 10
-157.000000
 20
-267.000000
 40
31.000000
 50
180.000000
 51
270.000000
  0
LINE
  8
A-GLAZ-0
 10
-219.000000
 20
-255.000000
 11
-157.000000
 21
-255.000000
  0
TEXT
  8
A-DIMS-0
 10
-197.632036
 20
-250.491657
 40
5.598621
  1
5268
  7
STANDARD
  0
LINE
  8
A-WALL-0
 10
-106.000000
 20
-145.000000
 11
-106.000000
 21
-103.000000
  0
LINE
  8
A-WALL-0
 10
-114.000000
 20
-95.000000
 11
-114.000000
 21
-145.000000
  0
LINE
  8
A-WALL-0
 10
-106.000000
 20
-255.000000
 11
-106.000000
 21
-181.000000
  0
LINE
  8
A-WALL-0
 10
-114.000000
 20
-181.000000
 11
-114.000000
 21
-255.000000
  0
LINE
  8
A-GLAZ-0
 10
-106.000000
 20
-145.000000
 11
-114.000000
 21
-145.000000
  0
LINE
  8
A-GLAZ-0
 10
-106.000000
 20
-181.000000
 11
-114.000000
 21
-181.000000
  0
LINE
  8
A-GLAZ-0
 10
-106.000000
 20
-181.000000
 11
-70.000000
 21
-181.000000
  0
LINE
  8
A-GLAZ-0
 10
-70.000000
 20
-179.250000
 11
-106.000000
 21
-179.250000
  0
LINE
  8
A-GLAZ-0
 10
-106.000000
 20
-179.250000
 11
-106.000000
 21
-181.000000
  0
ARC
  8
A-GLAZ-0
 10
-106.000000
 20
-181.000000
 40
36.000000
 50
0.000000
 51
90.000000
  0
LINE
  8
A-GLAZ-0
 10
-114.000000
 20
-145.000000
 11
-114.000000
 21
-181.000000
  0
TEXT
  8
A-DIMS-0
 10
-118.508343
 20
-172.632036
 40
5.598621
  1
3068
 50
90.000000
  7
STANDARD
  0
LINE
  8
A-WALL-0
 10
-110.000000
 20
-270.000000
 11
-110.000000
 21
-267.000000
  0
LINE
  8
A-WALL-0
 10
-114.000000
 20
-267.000000
 11
-114.000000
 21
-270.000000
  0
LINE
  8
A-WALL-0
 10
-110.000000
 20
-337.000000
 11
-110.000000
 21
-332.000000
  0
LINE
  8
A-WALL-0
 10
-114.000000
 20
-332.000000
 11
-114.000000
 21
-341.000000
  0
LINE
  8
A-GLAZ-0
 10
-110.000000
 20
-270.000000
 11
-114.000000
 21
-270.000000
  0
LINE
  8
A-GLAZ-0
 10
-110.000000
 20
-332.000000
 11
-114.000000
 21
-332.000000
  0
LINE
  8
A-GLAZ-0
 10
-114.000000
 20
-270.000000
 11
-145.000000
 21
-270.000000
  0
LINE
  8
A-GLAZ-0
 10
-145.000000
 20
-271.375000
 11
-114.000000
 21
-271.375000
  0
LINE
  8
A-GLAZ-0
 10
-114.000000
 20
-271.375000
 11
-114.000000
 21
-270.000000
  0
ARC
  8
A-GLAZ-0
 10
-114.000000
 20
-270.000000
 40
31.000000
 50
180.000000
 51
270.000000
  0
LINE
  8
A-GLAZ-0
 10
-114.000000
 20
-332.000000
 11
-145.000000
 21
-332.000000
  0
LINE
  8
A-GLAZ-0
 10
-145.000000
 20
-330.625000
 11
-114.000000
 21
-330.625000
  0
LINE
  8
A-GLAZ-0
 10
-114.000000
 20
-330.625000
 11
-114.000000
 21
-332.000000
  0
ARC
  8
A-GLAZ-0
 10
-114.000000
 20
-332.000000
 40
31.000000
 50
90.000000
 51
180.000000
  0
TEXT
  8
A-DIMS-0
 10
-109.324434
 20
-310.632036
 40
5.598621
  1
5268
 50
90.000000
  7
STANDARD
  0
LINE
  8
A-WALL-0
 10
230.000000
 20
-571.000000
 11
230.000000
 21
-495.000000
  0
LINE
  8
A-WALL-0
 10
222.000000
 20
-497.000000
 11
222.000000
 21
-563.000000
  0
LINE
  8
A-WALL-0
  6
DOTTED
 10
102.000000
 20
-811.000000
 11
230.000000
 21
-811.000000
  0
LINE
  8
A-WALL-0
  6
DOTTED
 10
222.000000
 20
-803.000000
 11
94.000000
 21
-803.000000
  0
LINE
  8
A-WALL-0
 10
-84.000000
 20
-337.000000
 11
-110.000000
 21
-337.000000
  0
LINE
  8
A-WALL-0
 10
66.000000
 20
-337.000000
 11
-80.000000
 21
-337.000000
  0
LINE
  8
A-WALL-0
 10
-114.000000
 20
-341.000000
 11
66.000000
 21
-341.000000
  0
LINE
  8
A-WALL-0
 10
-106.000000
 20
-103.000000
 11
66.000000
 21
-103.000000
  0
LINE
  8
A-WALL-0
 10
74.000000
 20
-95.000000
 11
-114.000000
 21
-95.000000
  0
LINE
  8
A-WALL-0
 10
-266.000000
 20
-472.000000
 11
-170.000000
 21
-472.000000
  0
LINE
  8
A-WALL-0
 10
-134.990494
 20
-468.000000
 11
-262.000000
 21
-468.000000
  0
LINE
  8
A-WALL-0
 10
-166.000000
 20
-472.000000
 11
-134.990494
 21
-472.000000
  0
LINE
  8
A-WALL-0
 10
-36.000000
 20
-468.000000
 11
-98.990486
 21
-468.000000
  0
LINE
  8
A-WALL-0
 10
-15.037471
 20
-468.000000
 11
-32.000000
 21
-468.000000
  0
LINE
  8
A-WALL-0
 10
-98.990486
 20
-472.000000
 11
-15.037471
 21
-472.000000
  0
LINE
  8
A-WALL-0
 10
20.962528
 20
-472.000000
 11
26.000000
 21
-472.000000
  0
LINE
  8
A-WALL-0
 10
38.000000
 20
-468.000000
 11
20.962528
 21
-468.000000
  0
LINE
  8
A-WALL-0
 10
30.000000
 20
-472.000000
 11
42.000000
 21
-472.000000
  0
LINE
  8
A-GLAZ-0
 10
-134.990488
 20
-468.000000
 11
-134.990488
 21
-472.000000
  0
LINE
  8
A-GLAZ-0
 10
-98.990488
 20
-468.000000
 11
-98.990488
 21
-472.000000
  0
LINE
  8
A-GLAZ-0
 10
-134.990488
 20
-468.000000
 11
-134.990488
 21
-432.000000
  0
LINE
  8
A-GLAZ-0
 10
-133.615488
 20
-432.000000
 11
-133.615488
 21
-468.000000
  0
LINE
  8
A-GLAZ-0
 10
-133.615488
 20
-468.000000
 11
-134.990488
 21
-468.000000
  0
ARC
  8
A-GLAZ-0
 10
-134.990488
 20
-468.000000
 40
36.000000
 50
0.000000
 51
90.000000
  0
TEXT
  8
A-DIMS-0
 10
-126.622524
 20
-472.675566
 40
5.598621
  1
3068
  7
STANDARD
  0
LINE
  8
A-GLAZ-0
 10
-15.037471
 20
-468.000000
 11
-15.037471
 21
-472.000000
  0
LINE
  8
A-GLAZ-0
 10
20.962529
 20
-468.000000
 11
20.962529
 21
-472.000000
  0
LINE
  8
A-GLAZ-0
 10
20.962529
 20
-472.000000
 11
20.962529
 21
-508.000000
  0
LINE
  8
A-GLAZ-0
 10
19.587529
 20
-508.000000
 11
19.587529
 21
-472.000000
  0
LINE
  8
A-GLAZ-0
 10
19.587529
 20
-472.000000
 11
20.962529
 21
-472.000000
  0
ARC
  8
A-GLAZ-0
 10
20.962529
 20
-472.000000
 40
36.000000
 50
180.000000
 51
270.000000
  0
TEXT
  8
A-DIMS-0
 10
-6.669507
 20
-472.675566
 40
5.598621
  1
3068
  7
STANDARD
  0
LINE
  8
A-WALL-0
 10
134.000000
 20
-493.000000
 11
134.000000
 21
-419.000000
  0
LINE
  8
A-WALL-0
 10
130.000000
 20
-419.000000
 11
130.000000
 21
-497.000000
  0
LINE
  8
A-WALL-0
 10
191.000000
 20
-419.000000
 11
218.000000
 21
-419.000000
  0
LINE
  8
A-WALL-0
 10
218.000000
 20
-415.000000
 11
191.000000
 21
-415.000000
  0
LINE
  8
A-WALL-0
 10
134.000000
 20
-419.000000
 11
161.000000
 21
-419.000000
  0
LINE
  8
A-WALL-0
 10
66.000000
 20
-419.000000
 11
130.000000
 21
-419.000000
  0
LINE
  8
A-WALL-0
 10
161.000000
 20
-415.000000
 11
70.000000
 21
-415.000000
  0
LINE
  8
A-GLAZ-0
 10
191.000000
 20
-419.000000
 11
191.000000
 21
-415.000000
  0
LINE
  8
A-GLAZ-0
 10
161.000000
 20
-419.000000
 11
161.000000
 21
-418.000000
  0
LINE
  8
A-GLAZ-0
 10
161.000000
 20
-416.000000
 11
161.000000
 21
-415.000000
  0
LINE
  8
A-GLAZ-0
 10
176.000000
 20
-416.312500
 11
176.000000
 21
-417.687500
  0
LINE
  8
A-GLAZ-0
 10
146.000000
 20
-416.312500
 11
146.000000
 21
-417.687500
  0
LINE
  8
A-GLAZ-0
 10
176.000000
 20
-416.312500
 11
146.000000
 21
-416.312500
  0
LINE
  8
A-GLAZ-0
 10
176.000000
 20
-417.687500
 11
146.000000
 21
-417.687500
  0
TEXT
  8
A-DIMS-0
 10
166.367964
 20
-410.491657
 40
5.598621
  1
2668
  7
STANDARD
  0
LINE
  8
A-WALL-0
  6
DOTTED
 10
102.000000
 20
-839.000000
 11
102.000000
 21
-811.000000
  0
LINE
  8
A-WALL-0
  6
DOTTED
 10
94.000000
 20
-803.000000
 11
94.000000
 21
-831.000000
  0
LINE
  8
A-WALL-0
 10
218.000000
 20
-493.000000
 11
134.000000
 21
-493.000000
  0
LINE
  8
A-WALL-0
 10
130.000000
 20
-497.000000
 11
222.000000
 21
-497.000000
  0
LINE
  8
A-WALL-0
 10
66.000000
 20
-387.000000
 11
38.000000
 21
-387.000000
  0
LINE
  8
A-WALL-0
 10
42.000000
 20
-391.000000
 11
66.000000
 21
-391.000000
  0
LINE
  8
A-WALL-0
 10
70.000000
 20
-301.500000
 11
70.000000
 21
-267.000000
  0
LINE
  8
A-WALL-0
 10
66.000000
 20
-267.000000
 11
66.000000
 21
-301.500000
  0
LINE
  8
A-WALL-0
 10
66.000000
 20
-333.500000
 11
66.000000
 21
-337.000000
  0
LINE
  8
A-WALL-0
 10
70.000000
 20
-351.500000
 11
70.000000
 21
-333.500000
  0
LINE
  8
A-WALL-0
 10
66.000000
 20
-341.000000
 11
66.000000
 21
-351.500000
  0
LINE
  8
A-WALL-0
 10
66.000000
 20
-383.500000
 11
66.000000
 21
-387.000000
  0
LINE
  8
A-WALL-0
 10
70.000000
 20
-415.000000
 11
70.000000
 21
-383.500000
  0
LINE
  8
A-WALL-0
 10
66.000000
 20
-391.000000
 11
66.000000
 21
-419.000000
  0
LINE
  8
A-GLAZ-0
 10
70.000000
 20
-301.500000
 11
66.000000
 21
-301.500000
  0
LINE
  8
A-GLAZ-0
 10
70.000000
 20
-333.500000
 11
66.000000
 21
-333.500000
  0
LINE
  8
A-GLAZ-0
 10
66.000000
 20
-333.500000
 11
34.000000
 21
-333.500000
  0
LINE
  8
A-GLAZ-0
 10
34.000000
 20
-332.125000
 11
66.000000
 21
-332.125000
  0
LINE
  8
A-GLAZ-0
 10
66.000000
 20
-332.125000
 11
66.000000
 21
-333.500000
  0
ARC
  8
A-GLAZ-0
 10
66.000000
 20
-333.500000
 40
32.000000
 50
90.000000
 51
180.000000
  0
TEXT
  8
A-DIMS-0
 10
70.675566
 20
-327.132036
 40
5.598621
  1
2868
 50
90.000000
  7
STANDARD
  0
LINE
  8
A-GLAZ-0
 10
70.000000
 20
-351.500000
 11
66.000000
 21
-351.500000
  0
LINE
  8
A-GLAZ-0
 10
70.000000
 20
-383.500000
 11
66.000000
 21
-383.500000
  0
LINE
  8
A-GLAZ-0
 10
70.000000
 20
-383.500000
 11
102.000000
 21
-383.500000
  0
LINE
  8
A-GLAZ-0
 10
102.000000
 20
-382.125000
 11
70.000000
 21
-382.125000
  0
LINE
  8
A-GLAZ-0
 10
70.000000
 20
-382.125000
 11
70.000000
 21
-383.500000
  0
ARC
  8
A-GLAZ-0
 10
70.000000
 20
-383.500000
 40
32.000000
 50
0.000000
 51
90.000000
  0
TEXT
  8
A-DIMS-0
 10
70.675566
 20
-377.132036
 40
5.598621
  1
2868
 50
90.000000
  7
STANDARD
  0
LINE
  8
A-WALL-0
 10
-80.000000
 20
-337.000000
 11
-80.000000
 21
-267.000000
  0
LINE
  8
A-WALL-0
 10
-84.000000
 20
-267.000000
 11
-84.000000
 21
-337.000000
  0
LINE
  8
A-WALL-0
 10
-274.000000
 20
-605.000000
 11
-286.047302
 21
-605.000000
  0
LINE
  8
A-WALL-0
 10
-282.733582
 20
-613.000000
 11
-266.000000
 21
-613.000000
  0
LINE
  8
A-WALL-0
 10
-182.000000
 20
-719.000000
 11
-182.000000
 21
-791.000000
  0
LINE
  8
A-WALL-0
 10
-174.000000
 20
-799.000000
 11
-174.000000
 21
-727.000000
  0
LINE
  8
A-WALL-0
  6
DOTTED
 10
-228.000000
 20
-514.000000
 11
-228.000000
 21
-602.000000
  0
LINE
  8
A-WALL-0
  6
DOTTED
 10
-226.000000
 20
-602.000000
 11
-226.000000
 21
-516.000000
  0
LINE
  8
A-WALL-0
 10
30.000000
 20
-511.000000
 11
30.000000
 21
-472.000000
  0
LINE
  8
A-WALL-0
 10
26.000000
 20
-472.000000
 11
26.000000
 21
-511.000000
  0
LINE
  8
A-WALL-0
 10
30.000000
 20
-563.000000
 11
30.000000
 21
-547.000000
  0
LINE
  8
A-WALL-0
 10
26.000000
 20
-547.000000
 11
26.000000
 21
-559.000000
  0
LINE
  8
A-GLAZ-0
 10
30.000000
 20
-511.000000
 11
26.000000
 21
-511.000000
  0
LINE
  8
A-GLAZ-0
 10
30.000000
 20
-547.000000
 11
26.000000
 21
-547.000000
  0
LINE
  8
A-GLAZ-0
 10
26.000000
 20
-547.000000
 11
-10.000000
 21
-547.000000
  0
LINE
  8
A-GLAZ-0
 10
-10.000000
 20
-545.625000
 11
26.000000
 21
-545.625000
  0
LINE
  8
A-GLAZ-0
 10
26.000000
 20
-545.625000
 11
26.000000
 21
-547.000000
  0
ARC
  8
A-GLAZ-0
 10
26.000000
 20
-547.000000
 40
36.000000
 50
90.000000
 51
180.000000
  0
TEXT
  8
A-DIMS-0
 10
30.675566
 20
-538.632036
 40
5.598621
  1
3068
 50
90.000000
  7
STANDARD
  0
LINE
  8
A-WALL-0
  6
DOTTED
 10
-170.000000
 20
-514.000000
 11
-228.000000
 21
-514.000000
  0
LINE
  8
A-WALL-0
  6
DOTTED
 10
-226.000000
 20
-516.000000
 11
-166.000000
 21
-516.000000
  0
LINE
  8
A-WALL-0
  6
DOTTED
 10
230.000000
 20
-811.000000
 11
230.000000
 21
-565.000000
  0
LINE
  8
A-WALL-0
  6
DOTTED
 10
222.000000
 20
-571.000000
 11
222.000000
 21
-803.000000
  0
LINE
  8
A-WALL-0
 10
-38.000000
 20
-727.000000
 11
-38.000000
 21
-719.000000
  0
LINE
  8
A-WALL-0
 10
-174.000000
 20
-727.000000
 11
-38.000000
 21
-727.000000
  0
LINE
  8
A-WALL-0
 10
-42.000000
 20
-719.000000
 11
-182.000000
 21
-719.000000
  0
LINE
  8
A-WALL-0
  6
DOTTED
 10
-42.000000
 20
-839.000000
 11
102.000000
 21
-839.000000
  0
LINE
  8
A-WALL-0
  6
DOTTED
 10
94.000000
 20
-831.000000
 11
-34.000000
 21
-831.000000
  0
LINE
  8
A-WALL-0
 10
-266.000000
 20
-602.000000
 11
-266.000000
 21
-472.000000
  0
LINE
  8
A-WALL-0
 10
-266.000000
 20
-613.000000
 11
-266.000000
 21
-606.000000
  0
LINE
  8
A-WALL-0
 10
-274.000000
 20
-470.000000
 11
-274.000000
 21
-605.000000
  0
LINE
  8
A-WALL-0
 10
-322.000000
 20
-799.000000
 11
-174.000000
 21
-799.000000
  0
LINE
  8
A-WALL-0
 10
-182.000000
 20
-791.000000
 11
-314.000000
 21
-791.000000
  0
LINE
  8
A-WALL-0
 10
-322.000000
 20
-640.952698
 11
-322.000000
 21
-799.000000
  0
LINE
  8
A-WALL-0
 10
-314.000000
 20
-791.000000
 11
-314.000000
 21
-644.266418
  0
LINE
  8
A-WALL-0
 10
-286.047302
 20
-605.000000
 11
-322.000000
 21
-640.952698
  0
LINE
  8
A-WALL-0
 10
-314.000000
 20
-644.266418
 11
-282.733582
 21
-613.000000
  0
LINE
  8
A-WALL-0
 10
230.000000
 20
-255.000000
 11
74.000000
 21
-255.000000
  0
LINE
  8
A-WALL-0
 10
70.000000
 20
-267.000000
 11
218.000000
 21
-267.000000
  0
LINE
  8
A-WALL-0
 10
-80.000000
 20
-267.000000
 11
66.000000
 21
-267.000000
  0
LINE
  8
A-WALL-0
 10
66.000000
 20
-255.000000
 11
-106.000000
 21
-255.000000
  0
LINE
  8
A-WALL-0
 10
-110.000000
 20
-267.000000
 11
-84.000000
 21
-267.000000
  0
LINE
  8
A-WALL-0
 10
74.000000
 20
-255.000000
 11
74.000000
 21
-95.000000
  0
LINE
  8
A-WALL-0
 10
66.000000
 20
-103.000000
 11
66.000000
 21
-255.000000
  0
LINE
  8
A-WALL-0
  6
DOTTED
 10
-42.000000
 20
-775.000000
 11
-42.000000
 21
-839.000000
  0
LINE
  8
A-WALL-0
  6
DOTTED
 10
-42.000000
 20
-727.000000
 11
-42.000000
 21
-767.000000
  0
LINE
  8
A-WALL-0
  6
DOTTED
 10
-34.000000
 20
-831.000000
 11
-34.000000
 21
-719.000000
  0
LINE
  8
A-WALL-0
 10
-34.000000
 20
-719.000000
 11
-34.000000
 21
-605.000000
  0
LINE
  8
A-WALL-0
 10
-42.000000
 20
-606.000000
 11
-42.000000
 21
-719.000000
  0
LINE
  8
A-WALL-0
 10
-170.000000
 20
-515.000000
 11
-166.000000
 21
-515.000000
  0
LINE
  8
A-WALL-0
 10
-166.000000
 20
-478.000000
 11
-166.000000
 21
-472.000000
  0
LINE
  8
A-WALL-0
 10
-170.000000
 20
-472.000000
 11
-170.000000
 21
-478.000000
  0
LINE
  8
A-WALL-0
 10
-166.000000
 20
-515.000000
 11
-166.000000
 21
-508.000000
  0
LINE
  8
A-WALL-0
 10
-170.000000
 20
-508.000000
 11
-170.000000
 21
-515.000000
  0
LINE
  8
A-GLAZ-0
 10
-166.000000
 20
-478.000000
 11
-170.000000
 21
-478.000000
  0
LINE
  8
A-GLAZ-0
 10
-166.000000
 20
-508.000000
 11
-170.000000
 21
-508.000000
  0
LINE
  8
A-GLAZ-0
 10
-166.000000
 20
-478.000000
 11
-136.000000
 21
-478.000000
  0
LINE
  8
A-GLAZ-0
 10
-136.000000
 20
-479.375000
 11
-166.000000
 21
-479.375000
  0
LINE
  8
A-GLAZ-0
 10
-166.000000
 20
-479.375000
 11
-166.000000
 21
-478.000000
  0
ARC
  8
A-GLAZ-0
 10
-166.000000
 20
-478.000000
 40
30.000000
 50
270.000000
 51
0.000000
  0
TEXT
  8
A-DIMS-0
 10
-165.324434
 20
-502.632036
 40
5.598621
  1
2668
 50
90.000000
  7
STANDARD
  0
LINE
  8
A-WALL-0
 10
26.000000
 20
-559.000000
 11
-46.000000
 21
-559.000000
  0
LINE
  8
A-WALL-0
 10
-34.000000
 20
-571.000000
 11
28.000000
 21
-571.000000
  0
LINE
  8
A-WALL-0
 10
-34.000000
 20
-605.000000
 11
-34.000000
 21
-571.000000
  0
LINE
  8
A-WALL-0
 10
-46.000000
 20
-559.000000
 11
-46.000000
 21
-602.000000
  0
LINE
  8
A-WALL-0
  6
DOTTED
 10
-42.000000
 20
-767.000000
 11
-174.000000
 21
-767.000000
  0
LINE
  8
A-WALL-0
  6
DOTTED
 10
-174.000000
 20
-775.000000
 11
-42.000000
 21
-775.000000
  0
LINE
  8
A-WALL-0
 10
-196.801941
 20
-602.000000
 11
-266.000000
 21
-602.000000
  0
LINE
  8
A-WALL-0
 10
-266.000000
 20
-606.000000
 11
-196.801941
 21
-606.000000
  0
LINE
  8
A-WALL-0
 10
-46.000000
 20
-602.000000
 11
-160.801941
 21
-602.000000
  0
LINE
  8
A-WALL-0
 10
-160.801941
 20
-606.000000
 11
-42.000000
 21
-606.000000
  0
LINE
  8
A-GLAZ-0
 10
-196.801948
 20
-602.000000
 11
-196.801948
 21
-606.000000
  0
LINE
  8
A-GLAZ-0
 10
-160.801948
 20
-602.000000
 11
-160.801948
 21
-606.000000
  0
LINE
  8
A-GLAZ-0
 10
-196.801948
 20
-606.000000
 11
-196.801948
 21
-642.000000
  0
LINE
  8
A-GLAZ-0
 10
-195.426948
 20
-642.000000
 11
-195.426948
 21
-606.000000
  0
LINE
  8
A-GLAZ-0
 10
-195.426948
 20
-606.000000
 11
-196.801948
 21
-606.000000
  0
ARC
  8
A-GLAZ-0
 10
-196.801948
 20
-606.000000
 40
36.000000
 50
270.000000
 51
0.000000
  0
TEXT
  8
A-DIMS-0
 10
-188.433984
 20
-607.675566
 40
5.598621
  1
3068
  7
STANDARD
  0
LINE
  8
A-WALL-0
 10
222.000000
 20
-563.000000
 11
30.000000
 21
-563.000000
  0
LINE
  8
A-WALL-0
 10
28.000000
 20
-571.000000
 11
230.000000
 21
-571.000000
  0
LINE
  8
A-STAR-0
 10
-215.000000
 20
-602.000000
 11
-206.000000
 21
-602.000000
  0
LINE
  8
A-STAR-0
 10
-206.000000
 20
-602.000000
 11
-206.000000
 21
-560.000000
  0
LINE
  8
A-STAR-0
 10
-206.000000
 20
-560.000000
 11
-215.000000
 21
-560.000000
  0
LINE
  8
A-STAR-0
 10
-224.000000
 20
-602.000000
 11
-215.000000
 21
-602.000000
  0
LINE
  8
A-STAR-0
 10
-215.000000
 20
-602.000000
 11
-215.000000
 21
-560.000000
  0
LINE
  8
A-STAR-0
 10
-215.000000
 20
-560.000000
 11
-224.000000
 21
-560.000000
  0
LINE
  8
A-STAR-0
 10
-224.000000
 20
-602.000000
 11
-224.000000
 21
-560.000000
  0
TEXT
  8
A-POWR-0
 10
-219.692280
 20
-579.915948
 40
4.198966
  1
UP
  7
STANDARD
  0
LINE
  8
A-STAR-0
 10
-225.000000
 20
-583.000000
 11
-214.000000
 21
-583.000000
  0
LINE
  8
A-STAR-0
 10
-224.000000
 20
-559.500000
 11
-224.000000
 21
-602.500000
  0
LINE
  8
A-STAR-0
 10
-224.000000
 20
-602.500000
 11
-266.000000
 21
-602.500000
  0
LINE
  8
A-STAR-0
 10
-266.000000
 20
-602.500000
 11
-266.000000
 21
-559.500000
  0
LINE
  8
A-STAR-0
 10
-266.000000
 20
-559.500000
 11
-224.000000
 21
-559.500000
  0
LINE
  8
A-STAR-0
 10
-266.000000
 20
-550.400000
 11
-266.000000
 21
-559.500000
  0
LINE
  8
A-STAR-0
 10
-266.000000
 20
-559.500000
 11
-224.000000
 21
-559.500000
  0
LINE
  8
A-STAR-0
 10
-224.000000
 20
-559.500000
 11
-224.000000
 21
-550.400000
  0
LINE
  8
A-STAR-0
 10
-266.000000
 20
-541.300000
 11
-266.000000
 21
-550.400000
  0
LINE
  8
A-STAR-0
 10
-266.000000
 20
-550.400000
 11
-224.000000
 21
-550.400000
  0
LINE
  8
A-STAR-0
 10
-224.000000
 20
-550.400000
 11
-224.000000
 21
-541.300000
  0
LINE
  8
A-STAR-0
 10
-266.000000
 20
-532.200000
 11
-266.000000
 21
-541.300000
  0
LINE
  8
A-STAR-0
 10
-266.000000
 20
-541.300000
 11
-224.000000
 21
-541.300000
  0
LINE
  8
A-STAR-0
 10
-224.000000
 20
-541.300000
 11
-224.000000
 21
-532.200000
  0
LINE
  8
A-STAR-0
 10
-266.000000
 20
-523.100000
 11
-266.000000
 21
-532.200000
  0
LINE
  8
A-STAR-0
 10
-266.000000
 20
-532.200000
 11
-224.000000
 21
-532.200000
  0
LINE
  8
A-STAR-0
 10
-224.000000
 20
-532.200000
 11
-224.000000
 21
-523.100000
  0
LINE
  8
A-STAR-0
 10
-266.000000
 20
-514.000000
 11
-266.000000
 21
-523.100000
  0
LINE
  8
A-STAR-0
 10
-266.000000
 20
-523.100000
 11
-224.000000
 21
-523.100000
  0
LINE
  8
A-STAR-0
 10
-224.000000
 20
-523.100000
 11
-224.000000
 21
-514.000000
  0
LINE
  8
A-STAR-0
 10
-266.000000
 20
-514.000000
 11
-224.000000
 21
-514.000000
  0
LINE
  8
A-STAR-0
 10
-223.500000
 20
-514.000000
 11
-266.000000
 21
-514.000000
  0
LINE
  8
A-STAR-0
 10
-266.000000
 20
-514.000000
 11
-266.000000
 21
-472.000000
  0
LINE
  8
A-STAR-0
 10
-266.000000
 20
-472.000000
 11
-223.500000
 21
-472.000000
  0
LINE
  8
A-STAR-0
 10
-223.500000
 20
-472.000000
 11
-223.500000
 21
-514.000000
  0
LINE
  8
A-STAR-0
 10
-214.500000
 20
-472.000000
 11
-223.500000
 21
-472.000000
  0
LINE
  8
A-STAR-0
 10
-223.500000
 20
-472.000000
 11
-223.500000
 21
-514.000000
  0
LINE
  8
A-STAR-0
 10
-223.500000
 20
-514.000000
 11
-214.500000
 21
-514.000000
  0
LINE
  8
A-STAR-0
 10
-205.500000
 20
-472.000000
 11
-214.500000
 21
-472.000000
  0
LINE
  8
A-STAR-0
 10
-214.500000
 20
-472.000000
 11
-214.500000
 21
-514.000000
  0
LINE
  8
A-STAR-0
 10
-214.500000
 20
-514.000000
 11
-205.500000
 21
-514.000000
  0
LINE
  8
A-STAR-0
 10
-196.500000
 20
-472.000000
 11
-205.500000
 21
-472.000000
  0
LINE
  8
A-STAR-0
 10
-205.500000
 20
-472.000000
 11
-205.500000
 21
-514.000000
  0
LINE
  8
A-STAR-0
 10
-205.500000
 20
-514.000000
 11
-196.500000
 21
-514.000000
  0
LINE
  8
A-STAR-0
 10
-187.500000
 20
-472.000000
 11
-196.500000
 21
-472.000000
  0
LINE
  8
A-STAR-0
 10
-196.500000
 20
-472.000000
 11
-196.500000
 21
-514.000000
  0
LINE
  8
A-STAR-0
 10
-196.500000
 20
-514.000000
 11
-187.500000
 21
-514.000000
  0
LINE
  8
A-STAR-0
 10
-178.500000
 20
-472.000000
 11
-187.500000
 21
-472.000000
  0
LINE
  8
A-STAR-0
 10
-187.500000
 20
-472.000000
 11
-187.500000
 21
-514.000000
  0
LINE
  8
A-STAR-0
 10
-187.500000
 20
-514.000000
 11
-178.500000
 21
-514.000000
  0
LINE
  8
A-STAR-0
 10
-169.500000
 20
-472.000000
 11
-178.500000
 21
-472.000000
  0
LINE
  8
A-STAR-0
 10
-178.500000
 20
-472.000000
 11
-178.500000
 21
-514.000000
  0
LINE
  8
A-STAR-0
 10
-178.500000
 20
-514.000000
 11
-169.500000
 21
-514.000000
  0
LINE
  8
A-STAR-0
 10
-169.500000
 20
-472.000000
 11
-169.500000
 21
-514.000000
  0
INSERT
  8
A-POWR-0
  2
FIXT-RecLight
 10
7.988700
 20
-314.724933
 41
1.000000
 42
1.000000
 43
 1.0
 50
0.000000
  0
ARC
  8
A-POWR-0
 10
-27.309309
 20
-351.705592
 40
61.577088
 50
61.547710
 51
119.575704
  0
INSERT
  8
A-POWR-0
  2
FIXT-RecLight
 10
-63.589771
 20
-315.426685
 41
1.000000
 42
1.000000
 43
 1.0
 50
0.000000
  0
INSERT
  8
A-POWR-0
  2
FIXT-RecExFan
 10
-25.695288
 20
-315.417559
 41
1.000000
 42
1.000000
 43
 1.0
 50
0.000000
  0
LINE
  8
A-POWR-0
 10
144.829895
 20
-341.775798
 11
144.829895
 21
-339.442464
  0
LINE
  8
A-POWR-0
 10
144.829895
 20
-348.442464
 11
144.829895
 21
-350.775798
  0
LINE
  8
A-POWR-0
 10
141.496562
 20
-345.109131
 11
139.163228
 21
-345.109131
  0
LINE
  8
A-POWR-0
 10
148.163228
 20
-345.109131
 11
150.496562
 21
-345.109131
  0
CIRCLE
  8
A-POWR-0
 10
144.829895
 20
-345.109131
 40
3.333333
  0
INSERT
  8
A-POWR-0
  2
FIXT-RecLight
 10
-78.326515
 20
-386.654285
 41
1.000000
 42
1.000000
 43
 1.0
 50
0.000000
  0
ARC
  8
A-POWR-0
 10
-48.642504
 20
-330.582930
 40
51.918951
 50
242.969941
 51
298.362462
  0
INSERT
  8
A-POWR-0
  2
FIXT-RecLight
 10
-78.677391
 20
-444.899493
 41
1.000000
 42
1.000000
 43
 1.0
 50
0.000000
  0
ARC
  8
A-POWR-0
 10
-119.273599
 20
-402.056129
 40
50.105332
 50
332.267326
 51
27.042369
  0
INSERT
  8
A-POWR-0
  2
FIXT-RecLight
 10
36.760437
 20
-376.478900
 41
1.000000
 42
1.000000
 43
 1.0
 50
0.000000
  0
INSERT
  8
A-POWR-0
  2
FIXT-RecLight
 10
-17.976040
 20
-385.952533
 41
1.000000
 42
1.000000
 43
 1.0
 50
0.000000
  0
ARC
  8
A-POWR-0
 10
2.760656
 20
-329.425036
 40
47.786142
 50
252.863617
 51
306.775008
  0
INSERT
  8
A-POWR-0
  2
FIXT-RecLight
 10
-211.658966
 20
-337.882678
 41
1.000000
 42
1.000000
 43
 1.0
 50
0.000000
  0
ARC
  8
A-POWR-0
 10
-179.413577
 20
-277.706076
 40
56.752014
 50
242.498436
 51
299.330029
  0
INSERT
  8
A-POWR-0
  2
FIXT-RecLight
 10
-212.360718
 20
-423.847003
 41
1.000000
 42
1.000000
 43
 1.0
 50
0.000000
  0
ARC
  8
A-POWR-0
 10
-272.184869
 20
-366.898468
 40
73.951772
 50
329.360940
 51
29.703636
  0
INSERT
  8
A-POWR-0
  2
FIXT-RecLight
 10
-146.045364
 20
-422.794391
 41
1.000000
 42
1.000000
 43
 1.0
 50
0.000000
  0
ARC
  8
A-POWR-0
 10
-178.466212
 20
-456.266298
 40
57.053810
 50
62.452975
 51
119.365764
  0
INSERT
  8
A-POWR-0
  2
FIXT-RecLight
 10
-145.694489
 20
-336.830035
 41
1.000000
 42
1.000000
 43
 1.0
 50
0.000000
  0
INSERT
  8
A-POWR-0
  2
FIXT-RecLight
 10
-17.625166
 20
-528.407703
 41
1.000000
 42
1.000000
 43
 1.0
 50
0.000000
  0
LINE
  8
A-POWR-0
 10
-133.764847
 20
-532.651835
 11
-133.764847
 21
-530.318502
  0
LINE
  8
A-POWR-0
 10
-133.764847
 20
-539.318502
 11
-133.764847
 21
-541.651835
  0
LINE
  8
A-POWR-0
 10
-137.098180
 20
-535.985168
 11
-139.431513
 21
-535.985168
  0
LINE
  8
A-POWR-0
 10
-130.431513
 20
-535.985168
 11
-128.098180
 21
-535.985168
  0
CIRCLE
  8
A-POWR-0
 10
-133.764847
 20
-535.985168
 40
3.333333
  0
ARC
  8
A-POWR-0
 10
-90.431835
 20
-444.161086
 40
101.535275
 50
248.580757
 51
311.968096
  0
LINE
  8
A-POWR-0
 10
-115.168480
 20
-658.615885
 11
-115.168480
 21
-656.282552
  0
LINE
  8
A-POWR-0
 10
-115.168480
 20
-665.282552
 11
-115.168480
 21
-667.615885
  0
LINE
  8
A-POWR-0
 10
-118.501813
 20
-661.949219
 11
-120.835147
 21
-661.949219
  0
LINE
  8
A-POWR-0
 10
-111.835147
 20
-661.949219
 11
-109.501813
 21
-661.949219
  0
CIRCLE
  8
A-POWR-0
 10
-115.168480
 20
-661.949219
 40
3.333333
  0
ARC
  8
A-POWR-0
 10
-105.526927
 20
-612.869215
 40
50.018060
 50
187.810663
 51
250.720395
  0
LINE
  8
A-POWR-0
 10
-249.202682
 20
-661.422892
 11
-249.202682
 21
-659.089559
  0
LINE
  8
A-POWR-0
 10
-249.202682
 20
-668.089559
 11
-249.202682
 21
-670.422892
  0
LINE
  8
A-POWR-0
 10
-252.536016
 20
-664.756226
 11
-254.869349
 21
-664.756226
  0
LINE
  8
A-POWR-0
 10
-245.869349
 20
-664.756226
 11
-243.536016
 21
-664.756226
  0
CIRCLE
  8
A-POWR-0
 10
-249.202682
 20
-664.756226
 40
3.333333
  0
ARC
  8
A-POWR-0
 10
-184.150486
 20
-569.528780
 40
115.325863
 50
239.028273
 51
303.371206
  0
LINE
  8
A-POWR-0
 10
-249.202576
 20
-744.229289
 11
-249.202576
 21
-741.895955
  0
LINE
  8
A-POWR-0
 10
-249.202576
 20
-750.895955
 11
-249.202576
 21
-753.229289
  0
LINE
  8
A-POWR-0
 10
-252.535909
 20
-747.562622
 11
-254.869242
 21
-747.562622
  0
LINE
  8
A-POWR-0
 10
-245.869242
 20
-747.562622
 11
-243.535909
 21
-747.562622
  0
CIRCLE
  8
A-POWR-0
 10
-249.202576
 20
-747.562622
 40
3.333333
  0
ARC
  8
A-POWR-0
 10
-307.167107
 20
-706.159499
 40
71.232756
 50
330.046510
 51
29.953638
  0
LINE
  8
A-POWR-0
 10
86.935547
 20
-462.827647
 11
86.935547
 21
-460.494314
  0
LINE
  8
A-POWR-0
 10
86.935547
 20
-469.494314
 11
86.935547
 21
-471.827647
  0
LINE
  8
A-POWR-0
 10
83.602214
 20
-466.160980
 11
81.268880
 21
-466.160980
  0
LINE
  8
A-POWR-0
 10
90.268880
 20
-466.160980
 11
92.602214
 21
-466.160980
  0
CIRCLE
  8
A-POWR-0
 10
86.935547
 20
-466.160980
 40
3.333333
  0
ARC
  8
A-POWR-0
 10
37.301232
 20
-455.872674
 40
50.689392
 50
277.214092
 51
340.241322
  0
LINE
  8
A-POWR-0
 10
86.233795
 20
-524.581584
 11
86.233795
 21
-522.248250
  0
LINE
  8
A-POWR-0
 10
86.233795
 20
-531.248250
 11
86.233795
 21
-533.581584
  0
LINE
  8
A-POWR-0
 10
82.900462
 20
-527.914917
 11
80.567128
 21
-527.914917
  0
LINE
  8
A-POWR-0
 10
89.567128
 20
-527.914917
 11
91.900462
 21
-527.914917
  0
CIRCLE
  8
A-POWR-0
 10
86.233795
 20
-527.914917
 40
3.333333
  0
ARC
  8
A-POWR-0
 10
43.356915
 20
-496.546722
 40
53.126175
 50
331.459740
 51
27.238135
  0
LINE
  8
A-POWR-0
 10
172.198135
 20
-524.932475
 11
172.198135
 21
-522.599141
  0
LINE
  8
A-POWR-0
 10
172.198135
 20
-531.599141
 11
172.198135
 21
-533.932475
  0
LINE
  8
A-POWR-0
 10
168.864802
 20
-528.265808
 11
166.531469
 21
-528.265808
  0
LINE
  8
A-POWR-0
 10
175.531469
 20
-528.265808
 11
177.864802
 21
-528.265808
  0
CIRCLE
  8
A-POWR-0
 10
172.198135
 20
-528.265808
 40
3.333333
  0
ARC
  8
A-POWR-0
 10
128.970341
 20
-588.265401
 40
73.949938
 50
59.594923
 51
119.937337
  0
LINE
  8
A-POWR-0
 10
177.110382
 20
-449.494395
 11
177.110382
 21
-447.161062
  0
LINE
  8
A-POWR-0
 10
177.110382
 20
-456.161062
 11
177.110382
 21
-458.494395
  0
LINE
  8
A-POWR-0
 10
173.777049
 20
-452.827728
 11
171.443715
 21
-452.827728
  0
LINE
  8
A-POWR-0
 10
180.443715
 20
-452.827728
 11
182.777049
 21
-452.827728
  0
CIRCLE
  8
A-POWR-0
 10
177.110382
 20
-452.827728
 40
3.333333
  0
ARC
  8
A-POWR-0
 10
171.769462
 20
-430.466645
 40
22.990073
 50
302.975745
 51
354.508712
  0
LINE
  8
A-POWR-0
 10
-20.432165
 20
-174.759364
 11
-20.432165
 21
-172.426030
  0
LINE
  8
A-POWR-0
 10
-20.432165
 20
-181.426030
 11
-20.432165
 21
-183.759364
  0
LINE
  8
A-POWR-0
 10
-23.765498
 20
-178.092697
 11
-26.098832
 21
-178.092697
  0
LINE
  8
A-POWR-0
 10
-17.098832
 20
-178.092697
 11
-14.765498
 21
-178.092697
  0
CIRCLE
  8
A-POWR-0
 10
-20.432165
 20
-178.092697
 40
3.333333
  0
ARC
  8
A-POWR-0
 10
-82.663204
 20
-209.651762
 40
69.775904
 50
32.599028
 51
97.966170
  0
LINE
  8
A-POWR-0
 10
-235.518559
 20
-252.666667
 11
-235.518559
 21
-255.000000
  0
LINE
  8
A-POWR-0
 10
-235.518559
 20
-246.000000
 11
-235.518559
 21
-243.666667
  0
LINE
  8
A-POWR-0
 10
-232.185225
 20
-249.333333
 11
-229.851892
 21
-249.333333
  0
LINE
  8
A-POWR-0
 10
-238.851892
 20
-249.333333
 11
-241.185225
 21
-249.333333
  0
CIRCLE
  8
A-POWR-0
 10
-235.518559
 20
-249.333333
 40
3.333333
  0
LINE
  8
A-POWR-0
 10
-106.000000
 20
-140.549191
 11
-94.666667
 21
-140.549191
  0
LINE
  8
A-POWR-0
 10
-100.333333
 20
-139.549191
 11
-100.333333
 21
-141.549191
  0
LINE
  8
A-POWR-0
 10
-97.000000
 20
-143.215857
 11
-97.000000
 21
-139.549191
  0
ARC
  8
A-POWR-0
 10
-98.666667
 20
-139.549191
 40
1.666667
 50
0.000000
 51
180.000000
  0
LINE
  8
A-POWR-0
 10
-103.666667
 20
-137.882524
 11
-103.666667
 21
-141.549191
  0
ARC
  8
A-POWR-0
 10
-102.000000
 20
-141.549191
 40
1.666667
 50
180.000000
 51
0.000000
  0
LINE
  8
A-POWR-0
 10
-192.010071
 20
-474.333333
 11
-192.010071
 21
-472.000000
  0
LINE
  8
A-POWR-0
 10
-192.010071
 20
-481.000000
 11
-192.010071
 21
-483.333333
  0
LINE
  8
A-POWR-0
 10
-188.676737
 20
-477.666667
 11
-186.343404
 21
-477.666667
  0
LINE
  8
A-POWR-0
 10
-195.343404
 20
-477.666667
 11
-197.676737
 21
-477.666667
  0
CIRCLE
  8
A-POWR-0
 10
-192.010071
 20
-477.666667
 40
3.333333
  0
LINE
  8
A-POWR-0
 10
194.654028
 20
-419.000000
 11
194.654028
 21
-430.333333
  0
LINE
  8
A-POWR-0
 10
195.654028
 20
-424.666667
 11
193.654028
 21
-424.666667
  0
LINE
  8
A-POWR-0
 10
191.987361
 20
-428.000000
 11
195.654028
 21
-428.000000
  0
ARC
  8
A-POWR-0
 10
195.654028
 20
-426.333333
 40
1.666667
 50
270.000000
 51
90.000000
  0
LINE
  8
A-POWR-0
 10
197.320695
 20
-421.333333
 11
193.654028
 21
-421.333333
  0
ARC
  8
A-POWR-0
 10
193.654028
 20
-423.000000
 40
1.666667
 50
90.000000
 51
270.000000
  0
LINE
  8
A-POWR-0
 10
30.000000
 20
-506.160801
 11
41.333333
 21
-506.160801
  0
LINE
  8
A-POWR-0
 10
35.666667
 20
-505.160801
 11
35.666667
 21
-507.160801
  0
LINE
  8
A-POWR-0
 10
39.000000
 20
-508.827468
 11
39.000000
 21
-505.160801
  0
ARC
  8
A-POWR-0
 10
37.333333
 20
-505.160801
 40
1.666667
 50
0.000000
 51
180.000000
  0
LINE
  8
A-POWR-0
 10
32.333333
 20
-503.494134
 11
32.333333
 21
-507.160801
  0
ARC
  8
A-POWR-0
 10
34.000000
 20
-507.160801
 40
1.666667
 50
180.000000
 51
0.000000
  0
LINE
  8
A-POWR-0
 10
-263.666667
 20
-527.564171
 11
-266.000000
 21
-527.564171
  0
LINE
  8
A-POWR-0
 10
-257.000000
 20
-527.564171
 11
-254.666667
 21
-527.564171
  0
LINE
  8
A-POWR-0
 10
-260.333333
 20
-530.897504
 11
-260.333333
 21
-533.230838
  0
LINE
  8
A-POWR-0
 10
-260.333333
 20
-524.230838
 11
-260.333333
 21
-521.897504
  0
CIRCLE
  8
A-POWR-0
 10
-260.333333
 20
-527.564171
 40
3.333333
  0
ARC
  8
A-POWR-0
 10
-251.499955
 20
-464.389135
 40
63.180532
 50
269.244222
 51
340.319578
  0
LINE
  8
A-POWR-0
 10
47.637466
 20
-269.333333
 11
47.637466
 21
-267.000000
  0
LINE
  8
A-POWR-0
 10
47.637466
 20
-276.000000
 11
47.637466
 21
-278.333333
  0
LINE
  8
A-POWR-0
 10
44.304133
 20
-272.666667
 11
41.970800
 21
-272.666667
  0
LINE
  8
A-POWR-0
 10
50.970800
 20
-272.666667
 11
53.304133
 21
-272.666667
  0
CIRCLE
  8
A-POWR-0
 10
47.637466
 20
-272.666667
 40
3.333333
  0
LINE
  8
A-POWR-0
 10
-155.080948
 20
-606.000000
 11
-155.080948
 21
-617.333333
  0
LINE
  8
A-POWR-0
 10
-154.080948
 20
-611.666667
 11
-156.080948
 21
-611.666667
  0
LINE
  8
A-POWR-0
 10
-157.747615
 20
-615.000000
 11
-154.080948
 21
-615.000000
  0
ARC
  8
A-POWR-0
 10
-154.080948
 20
-613.333333
 40
1.666667
 50
270.000000
 51
90.000000
  0
LINE
  8
A-POWR-0
 10
-152.414281
 20
-608.333333
 11
-156.080948
 21
-608.333333
  0
ARC
  8
A-POWR-0
 10
-156.080948
 20
-610.000000
 40
1.666667
 50
90.000000
 51
270.000000
  0
LINE
  8
A-POWR-0
 10
-209.904694
 20
-599.666667
 11
-209.904694
 21
-602.000000
  0
LINE
  8
A-POWR-0
 10
-209.904694
 20
-593.000000
 11
-209.904694
 21
-590.666667
  0
LINE
  8
A-POWR-0
 10
-206.571360
 20
-596.333333
 11
-204.238027
 21
-596.333333
  0
LINE
  8
A-POWR-0
 10
-213.238027
 20
-596.333333
 11
-215.571360
 21
-596.333333
  0
CIRCLE
  8
A-POWR-0
 10
-209.904694
 20
-596.333333
 40
3.333333
  0
ARC
  8
A-POWR-0
 10
-273.657427
 20
-587.648800
 40
63.756408
 50
359.384821
 51
70.460176
  0
INSERT
  8
A-CASE-0
  2
FIXT-Toilet
 10
7.913734
 20
-296.980636
 41
1.000000
 42
1.071429
 43
 1.0
 50
0.000000
  0
INSERT
  8
A-CASE-0
  2
FIXT-WaterHG
 10
108.799212
 20
-456.263781
 41
1.000000
 42
1.000000
 43
 1.0
 50
0.000000
  0
INSERT
  8
A-CASE-0
  2
FIXT-FrnG2920
 10
71.865321
 20
-470.496873
 41
1.318182
 42
1.344828
 43
 1.0
 50
0.000000
  0
LINE
  8
A-CASE-0
 10
30.000000
 20
-291.000000
 11
30.000000
 21
-267.000000
  0
LINE
  8
A-CASE-0
 10
66.000000
 20
-291.000000
 11
30.000000
 21
-291.000000
  0
INSERT
  8
A-CASE-0
  2
FIXT-OvalBath
 10
48.000000
 20
-295.983894
 41
1.000000
 42
1.000000
 43
 1.0
 50
0.000000
  0
LINE
  8
A-CASE-0
 10
-47.000000
 20
-337.000000
 11
-80.000000
 21
-337.000000
  0
INSERT
  8
A-CASE-0
  2
FIXT-Shwr60
 10
-47.014040
 20
-302.000000
 41
1.166667
 42
1.000000
 43
 1.0
 50
-270.000000
  0
LINE
  8
A-CASE-0
 10
152.000000
 20
-419.000000
 11
152.000000
 21
-493.000000
  0
LINE
  8
A-CASE-0
 10
200.000000
 20
-493.000000
 11
200.000000
 21
-419.000000
  0
LINE
  8
A-CASE-0
 10
-14.590470
 20
-267.000000
 11
-14.590470
 21
-284.000000
  0
LINE
  8
A-CASE-0
 10
-44.590470
 20
-284.000000
 11
-44.590470
 21
-267.000000
  0
LINE
  8
A-CASE-0
 10
-14.590470
 20
-284.000000
 11
-44.590470
 21
-284.000000
  0
LINE
  8
A-CASE-0
 10
-24.590470
 20
-279.000000
 11
-29.590470
 21
-284.000000
  0
LINE
  8
A-CASE-0
 10
-34.590470
 20
-279.000000
 11
-29.590470
 21
-284.000000
  0
TEXT
  8
A-NOTE-0
 10
-24.436198
 20
-440.735816
 40
7.257471
  1
ELEVATOR
  7
STANDARD
  0
TEXT
  8
A-NOTE-0
 10
-14.595400
 20
-450.603831
 40
5.395724
  1
5'10 x 4'10
  7
STANDARD
  0
TEXT
  8
A-NOTE-0
 10
-188.640769
 20
-543.231271
 40
7.257471
  1
LOBBY
  7
STANDARD
  0
TEXT
  8
A-NOTE-0
 10
-189.788771
 20
-553.099287
 40
5.395724
  1
21' x 10'10
  7
STANDARD
  0
TEXT
  8
A-NOTE-0
 10
-250.754555
 20
-435.124956
 40
7.257471
  1
RECREATION ROOM
  7
STANDARD
  0
TEXT
  8
A-NOTE-0
 10
-216.188958
 20
-444.992971
 40
5.395724
  1
27'4 x 16'9
  7
STANDARD
  0
TEXT
  8
A-NOTE-0
 10
114.761151
 20
-306.668605
 40
7.257471
  1
BEDROOM
  7
STANDARD
  0
TEXT
  8
A-NOTE-0
 10
123.632348
 20
-316.536620
 40
5.395724
  1
12'4 x 12'4
  7
STANDARD
  0
TEXT
  8
A-NOTE-0
 10
-31.775291
 20
-320.764715
 40
7.257471
  1
BATH
  7
STANDARD
  0
TEXT
  8
A-NOTE-0
 10
-36.155294
 20
-330.632730
 40
5.395724
  1
12'2 x 5'10
  7
STANDARD
  0
TEXT
  8
A-NOTE-0
 10
155.930654
 20
-471.179929
 40
7.257471
  1
CLOSET
  7
STANDARD
  0
TEXT
  8
A-NOTE-0
 10
165.283075
 20
-481.047945
 40
5.395724
  1
7' x 6'2
  7
STANDARD
  0
TEXT
  8
A-NOTE-0
 10
117.451623
 20
-828.776819
 40
9.331035
  1
LIVING AREA
  7
STANDARD
  0
TEXT
  8
A-NOTE-0
 10
137.276235
 20
-842.316483
 40
7.357805
  1
1690 sq ft
  7
STANDARD
  0
TEXT
  8
A-NOTE-0
 10
175.279326
 20
-510.343261
 40
7.257471
  1
UTILITY
  7
STANDARD
  0
TEXT
  8
A-NOTE-0
 10
180.808407
 20
-520.211277
 40
5.395724
  1
16' x 12'
  7
STANDARD
  0
TEXT
  8
A-NOTE-0
 10
-208.018505
 20
-657.472879
 40
7.257471
  1
STORAGE
  7
STANDARD
  0
TEXT
  8
A-NOTE-0
 10
-200.440109
 20
-667.340894
 40
5.395724
  1
22'8 x 15'5
  7
STANDARD
  0
TEXT
  8
A-NOTE-0
 10
-70.797973
 20
-129.070004
 40
7.257471
  1
OUTSIDE STORAGE
  7
STANDARD
  0
TEXT
  8
A-NOTE-0
 10
-37.848374
 20
-138.938020
 40
5.395724
  1
14'4 x 12'8
  7
STANDARD
  0
TEXT
  8
A-NOTE-0
 10
-115.014503
 20
-320.997233
 40
4.147126
  1
CLOSET
  7
STANDARD
  0
TEXT
  8
A-NOTE-0
 10
-112.116542
 20
-327.727378
 40
3.433642
  1
2'2 x 5'10
  7
STANDARD
  0
TEXT
  8
A-TEXT-0
 10
-20.635766
 20
-304.382200
 40
3.628736
  1
L008
  7
STANDARD
  0
TEXT
  8
A-TEXT-0
 10
2.872850
 20
-309.996198
 40
3.628736
  1
L006
  7
STANDARD
  0
TEXT
  8
A-TEXT-0
 10
42.521710
 20
-284.382333
 40
3.628736
  1
L007
  7
STANDARD
  0
TEXT
  8
A-TEXT-0
 10
-127.301726
 20
-537.713987
 40
3.628736
  1
L003
  7
STANDARD
  0
TEXT
  8
A-TEXT-0
 10
150.942043
 20
-346.487184
 40
3.628736
  1
L005
  7
STANDARD
  0
TEXT
  8
A-TEXT-0
 10
-42.346593
 20
-277.571321
 40
4.147126
  1
Seat Here
  7
STANDARD
  0
TEXT
  8
A-TEXT-0
 10
-78.153842
 20
-277.050222
 40
4.147126
  1
Seat Here
  7
STANDARD
  0
TEXT
  8
A-TEXT-0
 10
-388.483077
 20
-56.648782
 40
7.257471
  1
Strang/Smith 1/14/2001
  7
STANDARD
  0
TEXT
  8
A-TEXT-0
 10
-204.494196
 20
-598.064463
 40
3.628736
  1
L001
  7
STANDARD
  0
TEXT
  8
A-TEXT-0
 10
-140.985845
 20
-411.399035
 40
3.628736
  1
L009
  7
STANDARD
  0
TEXT
  8
A-TEXT-0
 10
-72.916121
 20
-373.855424
 40
3.628736
  1
L004
  7
STANDARD
  0
TEXT
  8
A-TEXT-0
 10
-241.686932
 20
-242.277349
 40
3.628736
  1
L011
  7
STANDARD
  0
TEXT
  8
A-TEXT-0
 10
51.531167
 20
-699.093196
 40
8.294253
  1
UNEXCAVATED
  7
STANDARD
  0
TEXT
  8
A-TEXT-0
 10
-129.041632
 20
-753.524232
 40
8.294253
  1
UNEXCAVATED
  7
STANDARD
  0
TEXT
  8
A-TEXT-0
 10
93.047447
 20
-196.254110
 40
8.294253
  1
CRAWL SPACE
  7
STANDARD
  0
LINE
  8
A-DIMS-0
 10
45.000000
 20
-427.085895
 11
42.000000
 21
-425.585895
  0
LINE
  8
A-DIMS-0
 10
127.000000
 20
-424.085895
 11
130.000000
 21
-425.585895
  0
LINE
  8
A-DIMS-0
 10
77.593708
 20
-425.585895
 11
42.000000
 21
-425.585895
  0
LINE
  8
A-DIMS-0
 10
94.406292
 20
-425.585895
 11
130.000000
 21
-425.585895
  0
TEXT
  8
A-DIMS-0
 10
80.381313
 20
-428.261461
 40
5.598621
  1
7'4
  7
STANDARD
  0
LINE
  8
A-DIMS-0
 10
-263.000000
 20
-510.476846
 11
-266.000000
 21
-508.976846
  0
LINE
  8
A-DIMS-0
 10
-173.000000
 20
-507.476846
 11
-170.000000
 21
-508.976846
  0
LINE
  8
A-DIMS-0
 10
-223.998283
 20
-508.976846
 11
-266.000000
 21
-508.976846
  0
LINE
  8
A-DIMS-0
 10
-212.001717
 20
-508.976846
 11
-170.000000
 21
-508.976846
  0
TEXT
  8
A-DIMS-0
 10
-221.210678
 20
-511.652412
 40
5.598621
  1
8'
  7
STANDARD
  0
LINE
  8
A-DIMS-0
 10
-163.000000
 20
-510.476846
 11
-166.000000
 21
-508.976846
  0
LINE
  8
A-DIMS-0
 10
23.000000
 20
-507.476846
 11
26.000000
 21
-508.976846
  0
LINE
  8
A-DIMS-0
 10
-78.406292
 20
-508.976846
 11
-166.000000
 21
-508.976846
  0
LINE
  8
A-DIMS-0
 10
-61.593708
 20
-508.976846
 11
26.000000
 21
-508.976846
  0
TEXT
  8
A-DIMS-0
 10
-75.618687
 20
-511.652412
 40
5.598621
  1
16'
  7
STANDARD
  0
LINE
  8
A-DIMS-0
 10
33.000000
 20
-480.779756
 11
30.000000
 21
-479.279756
  0
LINE
  8
A-DIMS-0
 10
127.000000
 20
-477.779756
 11
130.000000
 21
-479.279756
  0
LINE
  8
A-DIMS-0
 10
71.593708
 20
-479.279756
 11
30.000000
 21
-479.279756
  0
LINE
  8
A-DIMS-0
 10
88.406292
 20
-479.279756
 11
130.000000
 21
-479.279756
  0
TEXT
  8
A-DIMS-0
 10
74.381312
 20
-481.955322
 40
5.598621
  1
8'4
  7
STANDARD
  0
LINE
  8
A-DIMS-0
 10
33.000000
 20
-555.688442
 11
30.000000
 21
-554.188442
  0
LINE
  8
A-DIMS-0
 10
219.000000
 20
-552.688442
 11
222.000000
 21
-554.188442
  0
LINE
  8
A-DIMS-0
 10
117.593708
 20
-554.188442
 11
30.000000
 21
-554.188442
  0
LINE
  8
A-DIMS-0
 10
134.406292
 20
-554.188442
 11
222.000000
 21
-554.188442
  0
TEXT
  8
A-DIMS-0
 10
120.381312
 20
-556.864007
 40
5.598621
  1
16'
  7
STANDARD
  0
LINE
  8
A-DIMS-0
 10
121.727095
 20
-422.000000
 11
123.227095
 21
-419.000000
  0
LINE
  8
A-DIMS-0
 10
124.727095
 20
-560.000000
 11
123.227095
 21
-563.000000
  0
LINE
  8
A-DIMS-0
 10
123.227095
 20
-482.593708
 11
123.227095
 21
-419.000000
  0
LINE
  8
A-DIMS-0
 10
123.227095
 20
-499.406292
 11
123.227095
 21
-563.000000
  0
TEXT
  8
A-DIMS-0
 10
125.902660
 20
-496.618688
 40
5.598621
  1
12'
 50
90.000000
  7
STANDARD
  0
LINE
  8
A-DIMS-0
 10
-41.143579
 20
-475.000000
 11
-39.643579
 21
-472.000000
  0
LINE
  8
A-DIMS-0
 10
-38.143579
 20
-556.000000
 11
-39.643579
 21
-559.000000
  0
LINE
  8
A-DIMS-0
 10
-39.643579
 20
-507.093708
 11
-39.643579
 21
-472.000000
  0
LINE
  8
A-DIMS-0
 10
-39.643579
 20
-523.906292
 11
-39.643579
 21
-559.000000
  0
TEXT
  8
A-DIMS-0
 10
-36.968013
 20
-521.118687
 40
5.598621
  1
7'3
 50
90.000000
  7
STANDARD
  0
LINE
  8
A-DIMS-0
 10
141.222729
 20
-500.000000
 11
142.722729
 21
-497.000000
  0
LINE
  8
A-DIMS-0
 10
144.222729
 20
-560.000000
 11
142.722729
 21
-563.000000
  0
LINE
  8
A-DIMS-0
 10
142.722729
 20
-521.593708
 11
142.722729
 21
-497.000000
  0
LINE
  8
A-DIMS-0
 10
142.722729
 20
-538.406292
 11
142.722729
 21
-563.000000
  0
TEXT
  8
A-DIMS-0
 10
145.398294
 20
-535.618687
 40
5.598621
  1
5'6
 50
90.000000
  7
STANDARD
  0
LINE
  8
A-DIMS-0
 10
5.231650
 20
-344.000000
 11
6.731650
 21
-341.000000
  0
LINE
  8
A-DIMS-0
 10
8.231650
 20
-403.000000
 11
6.731650
 21
-406.000000
  0
LINE
  8
A-DIMS-0
 10
6.731650
 20
-365.093708
 11
6.731650
 21
-341.000000
  0
LINE
  8
A-DIMS-0
 10
6.731650
 20
-381.906292
 11
6.731650
 21
-406.000000
  0
TEXT
  8
A-DIMS-0
 10
9.407216
 20
-379.118688
 40
5.598621
  1
5'5
 50
90.000000
  7
STANDARD
  0
LINE
  8
A-DIMS-0
 10
50.727238
 20
-344.000000
 11
52.227238
 21
-341.000000
  0
LINE
  8
A-DIMS-0
 10
53.727238
 20
-384.000000
 11
52.227238
 21
-387.000000
  0
LINE
  8
A-DIMS-0
 10
52.227238
 20
-353.185699
 11
52.227238
 21
-341.000000
  0
LINE
  8
A-DIMS-0
 10
52.227238
 20
-374.814301
 11
52.227238
 21
-387.000000
  0
TEXT
  8
A-DIMS-0
 10
54.902804
 20
-372.026696
 40
5.598621
  1
3'10
 50
90.000000
  7
STANDARD
  0
LINE
  8
A-DIMS-0
 10
-117.000000
 20
-337.937580
 11
-114.000000
 21
-339.437580
  0
LINE
  8
A-DIMS-0
 10
-259.000000
 20
-340.937580
 11
-262.000000
 21
-339.437580
  0
LINE
  8
A-DIMS-0
 10
-177.185699
 20
-339.437580
 11
-114.000000
 21
-339.437580
  0
LINE
  8
A-DIMS-0
 10
-198.814301
 20
-339.437580
 11
-262.000000
 21
-339.437580
  0
TEXT
  8
A-DIMS-0
 10
-196.026696
 20
-342.113146
 40
5.598621
  1
12'4
  7
STANDARD
  0
LINE
  8
A-DIMS-0
 10
-91.270854
 20
-344.000000
 11
-89.770854
 21
-341.000000
  0
LINE
  8
A-DIMS-0
 10
-88.270854
 20
-465.000000
 11
-89.770854
 21
-468.000000
  0
LINE
  8
A-DIMS-0
 10
-89.770854
 20
-393.685699
 11
-89.770854
 21
-341.000000
  0
LINE
  8
A-DIMS-0
 10
-89.770854
 20
-415.314301
 11
-89.770854
 21
-468.000000
  0
TEXT
  8
A-DIMS-0
 10
-87.095288
 20
-412.526696
 40
5.598621
  1
10'7
 50
90.000000
  7
STANDARD
  0
LINE
  8
A-DIMS-0
 10
-290.088597
 20
-600.959550
 11
-312.008907
 21
-579.039239
  0
LINE
  8
A-DIMS-0
 10
-313.069567
 20
-582.221220
 11
-309.887587
 21
-581.160560
  0
LINE
  8
A-DIMS-0
 10
-326.040452
 20
-636.911405
 11
-347.960762
 21
-614.991095
  0
LINE
  8
A-DIMS-0
 10
-342.657461
 20
-616.051755
 11
-345.839442
 21
-617.112415
  0
LINE
  8
A-DIMS-0
 10
-319.081502
 20
-590.354475
 11
-309.887587
 21
-581.160560
  0
LINE
  8
A-DIMS-0
 10
-336.645526
 20
-607.918499
 11
-345.839442
 21
-617.112415
  0
TEXT
  8
A-DIMS-0
 10
-332.782481
 20
-607.839276
 40
5.598621
  1
4'2"7
 50
45.000000
  7
STANDARD
  0
LINE
  8
A-DIMS-0
 10
-277.888745
 20
-254.999993
 11
-358.888745
 21
-254.999993
  0
LINE
  8
A-DIMS-0
 10
-357.388745
 20
-257.999993
 11
-355.888745
 21
-254.999993
  0
LINE
  8
A-DIMS-0
 10
-286.888745
 20
-295.999993
 11
-358.888745
 21
-295.999993
  0
LINE
  8
A-DIMS-0
 10
-357.388745
 20
-298.999993
 11
-355.888745
 21
-295.999993
  0
LINE
  8
A-DIMS-0
 10
-354.388745
 20
-292.999993
 11
-355.888745
 21
-295.999993
  0
LINE
  8
A-DIMS-0
 10
-355.888745
 20
-267.093701
 11
-355.888745
 21
-254.999993
  0
LINE
  8
A-DIMS-0
 10
-355.888745
 20
-283.906286
 11
-355.888745
 21
-295.999993
  0
TEXT
  8
A-DIMS-0
 10
-353.213179
 20
-281.118681
 40
5.598621
  1
3'5
 50
90.000000
  7
STANDARD
  0
LINE
  8
A-DIMS-0
 10
-286.888745
 20
-432.000009
 11
-358.888745
 21
-432.000009
  0
LINE
  8
A-DIMS-0
 10
-357.388745
 20
-435.000009
 11
-355.888745
 21
-432.000009
  0
LINE
  8
A-DIMS-0
 10
-354.388745
 20
-429.000009
 11
-355.888745
 21
-432.000009
  0
LINE
  8
A-DIMS-0
 10
-355.888745
 20
-353.185700
 11
-355.888745
 21
-295.999993
  0
LINE
  8
A-DIMS-0
 10
-355.888745
 20
-374.814302
 11
-355.888745
 21
-432.000009
  0
TEXT
  8
A-DIMS-0
 10
-353.213179
 20
-372.026697
 40
5.598621
  1
11'4
 50
90.000000
  7
STANDARD
  0
LINE
  8
A-DIMS-0
 10
-277.888745
 20
-470.000009
 11
-358.888745
 21
-470.000009
  0
LINE
  8
A-DIMS-0
 10
-354.388745
 20
-467.000009
 11
-355.888745
 21
-470.000009
  0
LINE
  8
A-DIMS-0
 10
-355.888745
 20
-442.593716
 11
-355.888745
 21
-432.000009
  0
LINE
  8
A-DIMS-0
 10
-355.888745
 20
-459.406301
 11
-355.888745
 21
-470.000009
  0
TEXT
  8
A-DIMS-0
 10
-353.213179
 20
-456.618696
 40
5.598621
  1
3'2
 50
90.000000
  7
STANDARD
  0
LINE
  8
A-DIMS-0
 10
-360.888745
 20
-254.999993
 11
-376.888745
 21
-254.999993
  0
LINE
  8
A-DIMS-0
 10
-375.388745
 20
-257.999993
 11
-373.888745
 21
-254.999993
  0
LINE
  8
A-DIMS-0
 10
-360.888745
 20
-470.000009
 11
-376.888745
 21
-470.000009
  0
LINE
  8
A-DIMS-0
 10
-375.388745
 20
-473.000009
 11
-373.888745
 21
-470.000009
  0
LINE
  8
A-DIMS-0
 10
-372.388745
 20
-467.000009
 11
-373.888745
 21
-470.000009
  0
LINE
  8
A-DIMS-0
 10
-373.888745
 20
-349.277691
 11
-373.888745
 21
-254.999993
  0
LINE
  8
A-DIMS-0
 10
-373.888745
 20
-375.722311
 11
-373.888745
 21
-470.000009
  0
TEXT
  8
A-DIMS-0
 10
-371.213179
 20
-372.934706
 40
5.598621
  1
17'11
 50
90.000000
  7
STANDARD
  0
LINE
  8
A-DIMS-0
 10
-289.888745
 20
-604.999993
 11
-376.888745
 21
-604.999993
  0
LINE
  8
A-DIMS-0
 10
-375.388745
 20
-607.999993
 11
-373.888745
 21
-604.999993
  0
LINE
  8
A-DIMS-0
 10
-372.388745
 20
-601.999993
 11
-373.888745
 21
-604.999993
  0
LINE
  8
A-DIMS-0
 10
-373.888745
 20
-526.685700
 11
-373.888745
 21
-470.000009
  0
LINE
  8
A-DIMS-0
 10
-373.888745
 20
-548.314302
 11
-373.888745
 21
-604.999993
  0
TEXT
  8
A-DIMS-0
 10
-371.213179
 20
-545.526697
 40
5.598621
  1
11'3
 50
90.000000
  7
STANDARD
  0
LINE
  8
A-DIMS-0
 10
-327.888745
 20
-640.953301
 11
-376.888745
 21
-640.953301
  0
LINE
  8
A-DIMS-0
 10
-375.388745
 20
-643.953301
 11
-373.888745
 21
-640.953301
  0
LINE
  8
A-DIMS-0
 10
-372.388745
 20
-637.953301
 11
-373.888745
 21
-640.953301
  0
LINE
  8
A-DIMS-0
 10
-373.888745
 20
-616.978364
 11
-373.888745
 21
-604.999993
  0
LINE
  8
A-DIMS-0
 10
-373.888745
 20
-628.974931
 11
-373.888745
 21
-640.953301
  0
TEXT
  8
A-DIMS-0
 10
-371.213179
 20
-626.187326
 40
5.598621
  1
3'
 50
90.000000
  7
STANDARD
  0
LINE
  8
A-DIMS-0
 10
-323.888745
 20
-798.999993
 11
-376.888745
 21
-798.999993
  0
LINE
  8
A-DIMS-0
 10
-372.388745
 20
-795.999993
 11
-373.888745
 21
-798.999993
  0
LINE
  8
A-DIMS-0
 10
-373.888745
 20
-709.162346
 11
-373.888745
 21
-640.953301
  0
LINE
  8
A-DIMS-0
 10
-373.888745
 20
-730.790949
 11
-373.888745
 21
-798.999993
  0
TEXT
  8
A-DIMS-0
 10
-371.213179
 20
-728.003344
 40
5.598621
  1
13'2
 50
90.000000
  7
STANDARD
  0
LINE
  8
A-DIMS-0
 10
-170.888745
 20
-95.000000
 11
-394.888745
 21
-95.000000
  0
LINE
  8
A-DIMS-0
 10
-393.388745
 20
-98.000000
 11
-391.888745
 21
-95.000000
  0
LINE
  8
A-DIMS-0
 10
-378.888745
 20
-799.000000
 11
-394.888745
 21
-799.000000
  0
LINE
  8
A-DIMS-0
 10
-390.388745
 20
-796.000000
 11
-391.888745
 21
-799.000000
  0
LINE
  8
A-DIMS-0
 10
-391.888745
 20
-436.185699
 11
-391.888745
 21
-95.000000
  0
LINE
  8
A-DIMS-0
 10
-391.888745
 20
-457.814301
 11
-391.888745
 21
-799.000000
  0
TEXT
  8
A-DIMS-0
 10
-389.213179
 20
-455.026696
 40
5.598621
  1
58'8
 50
90.000000
  7
STANDARD
  0
LINE
  8
A-DIMS-0
 10
-115.888745
 20
-95.000000
 11
-150.888745
 21
-95.000000
  0
LINE
  8
A-DIMS-0
 10
-149.388745
 20
-98.000000
 11
-147.888745
 21
-95.000000
  0
LINE
  8
A-DIMS-0
 10
-124.888745
 20
-163.000000
 11
-150.888745
 21
-163.000000
  0
LINE
  8
A-DIMS-0
 10
-149.388745
 20
-166.000000
 11
-147.888745
 21
-163.000000
  0
LINE
  8
A-DIMS-0
 10
-146.388745
 20
-160.000000
 11
-147.888745
 21
-163.000000
  0
LINE
  8
A-DIMS-0
 10
-147.888745
 20
-120.593708
 11
-147.888745
 21
-95.000000
  0
LINE
  8
A-DIMS-0
 10
-147.888745
 20
-137.406292
 11
-147.888745
 21
-163.000000
  0
TEXT
  8
A-DIMS-0
 10
-145.213179
 20
-134.618687
 40
5.598621
  1
5'8
 50
90.000000
  7
STANDARD
  0
LINE
  8
A-DIMS-0
 10
-117.888745
 20
-261.000000
 11
-150.888745
 21
-261.000000
  0
LINE
  8
A-DIMS-0
 10
-146.388745
 20
-258.000000
 11
-147.888745
 21
-261.000000
  0
LINE
  8
A-DIMS-0
 10
-147.888745
 20
-203.593708
 11
-147.888745
 21
-163.000000
  0
LINE
  8
A-DIMS-0
 10
-147.888745
 20
-220.406292
 11
-147.888745
 21
-261.000000
  0
TEXT
  8
A-DIMS-0
 10
-145.213179
 20
-217.618687
 40
5.598621
  1
8'2
 50
90.000000
  7
STANDARD
  0
LINE
  8
A-DIMS-0
 10
-152.888745
 20
-95.000000
 11
-168.888745
 21
-95.000000
  0
LINE
  8
A-DIMS-0
 10
-167.388745
 20
-98.000000
 11
-165.888745
 21
-95.000000
  0
LINE
  8
A-DIMS-0
 10
-152.888745
 20
-261.000000
 11
-168.888745
 21
-261.000000
  0
LINE
  8
A-DIMS-0
 10
-164.388745
 20
-258.000000
 11
-165.888745
 21
-261.000000
  0
LINE
  8
A-DIMS-0
 10
-165.888745
 20
-164.777690
 11
-165.888745
 21
-95.000000
  0
LINE
  8
A-DIMS-0
 10
-165.888745
 20
-191.222310
 11
-165.888745
 21
-261.000000
  0
TEXT
  8
A-DIMS-0
 10
-163.213179
 20
-188.434705
 40
5.598621
  1
13'10
 50
90.000000
  7
STANDARD
  0
LINE
  8
A-DIMS-0
 10
166.111255
 20
-175.000000
 11
160.111255
 21
-175.000000
  0
LINE
  8
A-DIMS-0
 10
161.611255
 20
-178.000000
 11
163.111255
 21
-175.000000
  0
LINE
  8
A-DIMS-0
 10
164.611255
 20
-252.000001
 11
163.111255
 21
-255.000001
  0
LINE
  8
A-DIMS-0
 10
163.111255
 20
-206.593708
 11
163.111255
 21
-175.000000
  0
LINE
  8
A-DIMS-0
 10
163.111255
 20
-223.406293
 11
163.111255
 21
-255.000001
  0
TEXT
  8
A-DIMS-0
 10
165.786821
 20
-220.618688
 40
5.598621
  1
6'8
 50
90.000000
  7
STANDARD
  0
LINE
  8
A-DIMS-0
 10
-114.000000
 20
-93.470376
 11
-114.000000
 21
-58.470376
  0
LINE
  8
A-DIMS-0
 10
-117.000000
 20
-59.970376
 11
-114.000000
 21
-61.470376
  0
LINE
  8
A-DIMS-0
 10
-188.000000
 20
-246.470376
 11
-188.000000
 21
-58.470376
  0
LINE
  8
A-DIMS-0
 10
-191.000000
 20
-59.970376
 11
-188.000000
 21
-61.470376
  0
LINE
  8
A-DIMS-0
 10
-185.000000
 20
-62.970376
 11
-188.000000
 21
-61.470376
  0
LINE
  8
A-DIMS-0
 10
-142.593708
 20
-61.470376
 11
-114.000000
 21
-61.470376
  0
LINE
  8
A-DIMS-0
 10
-159.406292
 20
-61.470376
 11
-188.000000
 21
-61.470376
  0
TEXT
  8
A-DIMS-0
 10
-156.618687
 20
-64.145942
 40
5.598621
  1
6'2
  7
STANDARD
  0
LINE
  8
A-DIMS-0
 10
-274.000000
 20
-255.470376
 11
-274.000000
 21
-58.470376
  0
LINE
  8
A-DIMS-0
 10
-271.000000
 20
-62.970376
 11
-274.000000
 21
-61.470376
  0
LINE
  8
A-DIMS-0
 10
-222.593708
 20
-61.470376
 11
-188.000000
 21
-61.470376
  0
LINE
  8
A-DIMS-0
 10
-239.406292
 20
-61.470376
 11
-274.000000
 21
-61.470376
  0
TEXT
  8
A-DIMS-0
 10
-236.618687
 20
-64.145942
 40
5.598621
  1
7'2
  7
STANDARD
  0
LINE
  8
A-DIMS-0
 10
230.000000
 20
-255.470376
 11
230.000000
 21
-40.470376
  0
LINE
  8
A-DIMS-0
 10
227.000000
 20
-41.970376
 11
230.000000
 21
-43.470376
  0
LINE
  8
A-DIMS-0
 10
198.000000
 20
-169.470376
 11
198.000000
 21
-40.470376
  0
LINE
  8
A-DIMS-0
 10
195.000000
 20
-41.970376
 11
198.000000
 21
-43.470376
  0
LINE
  8
A-DIMS-0
 10
201.000000
 20
-44.970376
 11
198.000000
 21
-43.470376
  0
LINE
  8
A-DIMS-0
 10
222.406292
 20
-43.470376
 11
230.000000
 21
-43.470376
  0
LINE
  8
A-DIMS-0
 10
205.593708
 20
-43.470376
 11
198.000000
 21
-43.470376
  0
TEXT
  8
A-DIMS-0
 10
208.381313
 20
-46.145942
 40
5.598621
  1
2'8
  7
STANDARD
  0
LINE
  8
A-DIMS-0
 10
74.000000
 20
-93.470376
 11
74.000000
 21
-40.470376
  0
LINE
  8
A-DIMS-0
 10
71.000000
 20
-41.970376
 11
74.000000
 21
-43.470376
  0
LINE
  8
A-DIMS-0
 10
77.000000
 20
-44.970376
 11
74.000000
 21
-43.470376
  0
LINE
  8
A-DIMS-0
 10
146.814301
 20
-43.470376
 11
198.000000
 21
-43.470376
  0
LINE
  8
A-DIMS-0
 10
125.185699
 20
-43.470376
 11
74.000000
 21
-43.470376
  0
TEXT
  8
A-DIMS-0
 10
127.973304
 20
-46.145942
 40
5.598621
  1
10'4
  7
STANDARD
  0
LINE
  8
A-DIMS-0
 10
-114.000000
 20
-56.470376
 11
-114.000000
 21
-40.470376
  0
LINE
  8
A-DIMS-0
 10
-117.000000
 20
-41.970376
 11
-114.000000
 21
-43.470376
  0
LINE
  8
A-DIMS-0
 10
-111.000000
 20
-44.970376
 11
-114.000000
 21
-43.470376
  0
LINE
  8
A-DIMS-0
 10
-9.185699
 20
-43.470376
 11
74.000000
 21
-43.470376
  0
LINE
  8
A-DIMS-0
 10
-30.814301
 20
-43.470376
 11
-114.000000
 21
-43.470376
  0
TEXT
  8
A-DIMS-0
 10
-28.026696
 20
-46.145942
 40
5.598621
  1
15'8
  7
STANDARD
  0
LINE
  8
A-DIMS-0
 10
-274.000000
 20
-56.470376
 11
-274.000000
 21
-40.470376
  0
LINE
  8
A-DIMS-0
 10
-271.000000
 20
-44.970376
 11
-274.000000
 21
-43.470376
  0
LINE
  8
A-DIMS-0
 10
-183.185699
 20
-43.470376
 11
-114.000000
 21
-43.470376
  0
LINE
  8
A-DIMS-0
 10
-204.814301
 20
-43.470376
 11
-274.000000
 21
-43.470376
  0
TEXT
  8
A-DIMS-0
 10
-202.026696
 20
-46.145942
 40
5.598621
  1
13'4
  7
STANDARD
  0
LINE
  8
A-DIMS-0
 10
230.000000
 20
-38.470376
 11
230.000000
 21
-22.470376
  0
LINE
  8
A-DIMS-0
 10
227.000000
 20
-23.970376
 11
230.000000
 21
-25.470376
  0
LINE
  8
A-DIMS-0
 10
-274.000000
 20
-38.470376
 11
-274.000000
 21
-22.470376
  0
LINE
  8
A-DIMS-0
 10
-271.000000
 20
-26.970376
 11
-274.000000
 21
-25.470376
  0
LINE
  8
A-DIMS-0
 10
-13.593708
 20
-25.470376
 11
230.000000
 21
-25.470376
  0
LINE
  8
A-DIMS-0
 10
-30.406292
 20
-25.470376
 11
-274.000000
 21
-25.470376
  0
TEXT
  8
A-DIMS-0
 10
-27.618687
 20
-28.145942
 40
5.598621
  1
42'
  7
STANDARD
  0
LINE
  8
A-DIMS-0
 10
-277.000000
 20
-568.970376
 11
-274.000000
 21
-570.470376
  0
LINE
  8
A-DIMS-0
 10
-286.046688
 20
-599.470376
 11
-286.046688
 21
-567.470376
  0
LINE
  8
A-DIMS-0
 10
-283.046688
 20
-571.970376
 11
-286.046688
 21
-570.470376
  0
LINE
  8
A-DIMS-0
 10
-274.025061
 20
-570.470376
 11
-274.000000
 21
-570.470376
  0
LINE
  8
A-DIMS-0
 10
-286.021627
 20
-570.470376
 11
-286.046688
 21
-570.470376
  0
TEXT
  8
A-DIMS-0
 10
-283.234023
 20
-573.145942
 40
5.598621
  1
1'
  7
STANDARD
  0
LINE
  8
A-DIMS-0
 10
-322.000000
 20
-800.470376
 11
-322.000000
 21
-835.470376
  0
LINE
  8
A-DIMS-0
 10
-319.000000
 20
-833.970376
 11
-322.000000
 21
-832.470376
  0
LINE
  8
A-DIMS-0
 10
-174.000000
 20
-800.470376
 11
-174.000000
 21
-835.470376
  0
LINE
  8
A-DIMS-0
 10
-171.000000
 20
-833.970376
 11
-174.000000
 21
-832.470376
  0
LINE
  8
A-DIMS-0
 10
-177.000000
 20
-830.970376
 11
-174.000000
 21
-832.470376
  0
LINE
  8
A-DIMS-0
 10
-258.814301
 20
-832.470376
 11
-322.000000
 21
-832.470376
  0
LINE
  8
A-DIMS-0
 10
-237.185699
 20
-832.470376
 11
-174.000000
 21
-832.470376
  0
TEXT
  8
A-DIMS-0
 10
-256.026696
 20
-835.145942
 40
5.598621
  1
12'4
  7
STANDARD
  0
LINE
  8
A-DIMS-0
 10
-34.000000
 20
-728.470376
 11
-34.000000
 21
-835.470376
  0
LINE
  8
A-DIMS-0
 10
-37.000000
 20
-830.970376
 11
-34.000000
 21
-832.470376
  0
LINE
  8
A-DIMS-0
 10
-114.814301
 20
-832.470376
 11
-174.000000
 21
-832.470376
  0
LINE
  8
A-DIMS-0
 10
-93.185699
 20
-832.470376
 11
-34.000000
 21
-832.470376
  0
TEXT
  8
A-DIMS-0
 10
-112.026696
 20
-835.145942
 40
5.598621
  1
11'8
  7
STANDARD
  0
LINE
  8
A-DIMS-0
 10
-322.000000
 20
-837.470376
 11
-322.000000
 21
-853.470376
  0
LINE
  8
A-DIMS-0
 10
-319.000000
 20
-851.970376
 11
-322.000000
 21
-850.470376
  0
LINE
  8
A-DIMS-0
 10
226.000000
 20
-812.470376
 11
226.000000
 21
-853.470376
  0
LINE
  8
A-DIMS-0
 10
223.000000
 20
-848.970376
 11
226.000000
 21
-850.470376
  0
LINE
  8
A-DIMS-0
 10
-58.814301
 20
-850.470376
 11
-322.000000
 21
-850.470376
  0
LINE
  8
A-DIMS-0
 10
-37.185699
 20
-850.470376
 11
226.000000
 21
-850.470376
  0
TEXT
  8
A-DIMS-0
 10
-56.026696
 20
-853.145942
 40
5.598621
  1
45'8
  7
STANDARD
  0
LINE
  8
A-DIMS-0
 10
-31.000000
 20
-603.970376
 11
-34.000000
 21
-602.470376
  0
LINE
  8
A-DIMS-0
 10
28.000000
 20
-570.470376
 11
28.000000
 21
-605.470376
  0
LINE
  8
A-DIMS-0
 10
31.000000
 20
-603.970376
 11
28.000000
 21
-602.470376
  0
LINE
  8
A-DIMS-0
 10
25.000000
 20
-600.970376
 11
28.000000
 21
-602.470376
  0
LINE
  8
A-DIMS-0
 10
-11.406292
 20
-602.470376
 11
-34.000000
 21
-602.470376
  0
LINE
  8
A-DIMS-0
 10
5.406292
 20
-602.470376
 11
28.000000
 21
-602.470376
  0
TEXT
  8
A-DIMS-0
 10
-8.618687
 20
-605.145942
 40
5.598621
  1
5'2
  7
STANDARD
  0
LINE
  8
A-DIMS-0
 10
226.000000
 20
-599.470376
 11
226.000000
 21
-605.470376
  0
LINE
  8
A-DIMS-0
 10
223.000000
 20
-600.970376
 11
226.000000
 21
-602.470376
  0
LINE
  8
A-DIMS-0
 10
116.185699
 20
-602.470376
 11
28.000000
 21
-602.470376
  0
LINE
  8
A-DIMS-0
 10
137.814301
 20
-602.470376
 11
226.000000
 21
-602.470376
  0
TEXT
  8
A-DIMS-0
 10
118.973304
 20
-605.145942
 40
5.598621
  1
16'6
  7
STANDARD
  0
LINE
  8
A-DIMS-0
 10
231.111255
 20
-417.000009
 11
266.111255
 21
-417.000009
  0
LINE
  8
A-DIMS-0
 10
264.611255
 20
-414.000009
 11
263.111255
 21
-417.000009
  0
LINE
  8
A-DIMS-0
 10
240.111255
 20
-294.999993
 11
266.111255
 21
-294.999993
  0
LINE
  8
A-DIMS-0
 10
264.611255
 20
-291.999993
 11
263.111255
 21
-294.999993
  0
LINE
  8
A-DIMS-0
 10
261.611255
 20
-297.999993
 11
263.111255
 21
-294.999993
  0
LINE
  8
A-DIMS-0
 10
263.111255
 20
-366.814302
 11
263.111255
 21
-417.000009
  0
LINE
  8
A-DIMS-0
 10
263.111255
 20
-345.185700
 11
263.111255
 21
-294.999993
  0
TEXT
  8
A-DIMS-0
 10
265.786821
 20
-364.026697
 40
5.598621
  1
10'2
 50
90.000000
  7
STANDARD
  0
LINE
  8
A-DIMS-0
 10
231.111255
 20
-254.999993
 11
266.111255
 21
-254.999993
  0
LINE
  8
A-DIMS-0
 10
261.611255
 20
-257.999993
 11
263.111255
 21
-254.999993
  0
LINE
  8
A-DIMS-0
 10
263.111255
 20
-283.406286
 11
263.111255
 21
-294.999993
  0
LINE
  8
A-DIMS-0
 10
263.111255
 20
-266.593701
 11
263.111255
 21
-254.999993
  0
TEXT
  8
A-DIMS-0
 10
265.786821
 20
-280.618681
 40
5.598621
  1
3'4
 50
90.000000
  7
STANDARD
  0
LINE
  8
A-DIMS-0
 10
231.111255
 20
-570.999993
 11
284.111255
 21
-570.999993
  0
LINE
  8
A-DIMS-0
 10
282.611255
 20
-567.999993
 11
281.111255
 21
-570.999993
  0
LINE
  8
A-DIMS-0
 10
231.111255
 20
-495.000009
 11
284.111255
 21
-495.000009
  0
LINE
  8
A-DIMS-0
 10
282.611255
 20
-492.000009
 11
281.111255
 21
-495.000009
  0
LINE
  8
A-DIMS-0
 10
279.611255
 20
-498.000009
 11
281.111255
 21
-495.000009
  0
LINE
  8
A-DIMS-0
 10
281.111255
 20
-541.406293
 11
281.111255
 21
-570.999993
  0
LINE
  8
A-DIMS-0
 10
281.111255
 20
-524.593709
 11
281.111255
 21
-495.000009
  0
TEXT
  8
A-DIMS-0
 10
283.786821
 20
-538.618688
 40
5.598621
  1
6'4
 50
90.000000
  7
STANDARD
  0
LINE
  8
A-DIMS-0
 10
268.111255
 20
-417.000009
 11
284.111255
 21
-417.000009
  0
LINE
  8
A-DIMS-0
 10
282.611255
 20
-414.000009
 11
281.111255
 21
-417.000009
  0
LINE
  8
A-DIMS-0
 10
279.611255
 20
-420.000009
 11
281.111255
 21
-417.000009
  0
LINE
  8
A-DIMS-0
 10
281.111255
 20
-464.406301
 11
281.111255
 21
-495.000009
  0
LINE
  8
A-DIMS-0
 10
281.111255
 20
-447.593716
 11
281.111255
 21
-417.000009
  0
TEXT
  8
A-DIMS-0
 10
283.786821
 20
-461.618696
 40
5.598621
  1
6'6
 50
90.000000
  7
STANDARD
  0
LINE
  8
A-DIMS-0
 10
268.111255
 20
-254.999993
 11
284.111255
 21
-254.999993
  0
LINE
  8
A-DIMS-0
 10
282.611255
 20
-251.999993
 11
281.111255
 21
-254.999993
  0
LINE
  8
A-DIMS-0
 10
279.611255
 20
-257.999993
 11
281.111255
 21
-254.999993
  0
LINE
  8
A-DIMS-0
 10
281.111255
 20
-346.814302
 11
281.111255
 21
-417.000009
  0
LINE
  8
A-DIMS-0
 10
281.111255
 20
-325.185700
 11
281.111255
 21
-254.999993
  0
TEXT
  8
A-DIMS-0
 10
283.786821
 20
-344.026697
 40
5.598621
  1
13'6
 50
90.000000
  7
STANDARD
  0
LINE
  8
A-DIMS-0
 10
207.111255
 20
-174.999993
 11
284.111255
 21
-174.999993
  0
LINE
  8
A-DIMS-0
 10
279.611255
 20
-177.999993
 11
281.111255
 21
-174.999993
  0
LINE
  8
A-DIMS-0
 10
281.111255
 20
-223.406286
 11
281.111255
 21
-254.999993
  0
LINE
  8
A-DIMS-0
 10
281.111255
 20
-206.593701
 11
281.111255
 21
-174.999993
  0
TEXT
  8
A-DIMS-0
 10
283.786821
 20
-220.618681
 40
5.598621
  1
6'8
 50
90.000000
  7
STANDARD
  0
LINE
  8
A-DIMS-0
 10
286.111255
 20
-570.999993
 11
302.111255
 21
-570.999993
  0
LINE
  8
A-DIMS-0
 10
300.611255
 20
-567.999993
 11
299.111255
 21
-570.999993
  0
LINE
  8
A-DIMS-0
 10
113.111255
 20
-94.999993
 11
302.111255
 21
-94.999993
  0
LINE
  8
A-DIMS-0
 10
297.611255
 20
-97.999993
 11
299.111255
 21
-94.999993
  0
LINE
  8
A-DIMS-0
 10
299.111255
 20
-343.814295
 11
299.111255
 21
-570.999993
  0
LINE
  8
A-DIMS-0
 10
299.111255
 20
-322.185692
 11
299.111255
 21
-94.999993
  0
TEXT
  8
A-DIMS-0
 10
301.786821
 20
-341.026690
 40
5.598621
  1
39'8
 50
90.000000
  7
STANDARD
  0
LINE
  8
A-DIMS-0
 10
-32.888745
 20
-727.000000
 11
0.111255
 21
-727.000000
  0
LINE
  8
A-DIMS-0
 10
-1.388745
 20
-724.000000
 11
-2.888745
 21
-727.000000
  0
LINE
  8
A-DIMS-0
 10
-34.888745
 20
-604.000000
 11
0.111255
 21
-604.000000
  0
LINE
  8
A-DIMS-0
 10
-1.388745
 20
-601.000000
 11
-2.888745
 21
-604.000000
  0
LINE
  8
A-DIMS-0
 10
-4.388745
 20
-607.000000
 11
-2.888745
 21
-604.000000
  0
LINE
  8
A-DIMS-0
 10
-2.888745
 20
-676.314301
 11
-2.888745
 21
-727.000000
  0
LINE
  8
A-DIMS-0
 10
-2.888745
 20
-654.685699
 11
-2.888745
 21
-604.000000
  0
TEXT
  8
A-DIMS-0
 10
-0.213179
 20
-673.526696
 40
5.598621
  1
10'3
 50
90.000000
  7
STANDARD
  0
LINE
  8
A-DIMS-0
 10
-4.388745
 20
-574.000000
 11
-2.888745
 21
-571.000000
  0
LINE
  8
A-DIMS-0
 10
-2.888745
 20
-595.906292
 11
-2.888745
 21
-604.000000
  0
LINE
  8
A-DIMS-0
 10
-2.888745
 20
-579.093708
 11
-2.888745
 21
-571.000000
  0
TEXT
  8
A-DIMS-0
 10
-0.213179
 20
-593.118687
 40
5.598621
  1
2'9
 50
90.000000
  7
STANDARD
  0
LINE
  8
A-DIMS-0
 10
108.611255
 20
-252.000000
 11
107.111255
 21
-255.000000
  0
LINE
  8
A-DIMS-0
 10
104.111255
 20
-175.000000
 11
110.111255
 21
-175.000000
  0
LINE
  8
A-DIMS-0
 10
108.611255
 20
-172.000000
 11
107.111255
 21
-175.000000
  0
LINE
  8
A-DIMS-0
 10
105.611255
 20
-178.000000
 11
107.111255
 21
-175.000000
  0
LINE
  8
A-DIMS-0
 10
107.111255
 20
-223.406292
 11
107.111255
 21
-255.000000
  0
LINE
  8
A-DIMS-0
 10
107.111255
 20
-206.593708
 11
107.111255
 21
-175.000000
  0
TEXT
  8
A-DIMS-0
 10
109.786821
 20
-220.618687
 40
5.598621
  1
6'8
 50
90.000000
  7
STANDARD
  0
LINE
  8
A-DIMS-0
 10
75.111255
 20
-95.000000
 11
110.111255
 21
-95.000000
  0
LINE
  8
A-DIMS-0
 10
105.611255
 20
-98.000000
 11
107.111255
 21
-95.000000
  0
LINE
  8
A-DIMS-0
 10
107.111255
 20
-143.406292
 11
107.111255
 21
-175.000000
  0
LINE
  8
A-DIMS-0
 10
107.111255
 20
-126.593708
 11
107.111255
 21
-95.000000
  0
TEXT
  8
A-DIMS-0
 10
109.786821
 20
-140.618687
 40
5.598621
  1
6'8
 50
90.000000
  7
STANDARD
  0
LINE
  8
A-DIMS-0
 10
-172.888745
 20
-799.000000
 11
-136.888745
 21
-799.000000
  0
LINE
  8
A-DIMS-0
 10
-138.388745
 20
-796.000000
 11
-139.888745
 21
-799.000000
  0
LINE
  8
A-DIMS-0
 10
-142.888745
 20
-771.000000
 11
-136.888745
 21
-771.000000
  0
LINE
  8
A-DIMS-0
 10
-138.388745
 20
-768.000000
 11
-139.888745
 21
-771.000000
  0
LINE
  8
A-DIMS-0
 10
-141.388745
 20
-774.000000
 11
-139.888745
 21
-771.000000
  0
LINE
  8
A-DIMS-0
 10
-139.888745
 20
-793.406292
 11
-139.888745
 21
-799.000000
  0
LINE
  8
A-DIMS-0
 10
-139.888745
 20
-776.593708
 11
-139.888745
 21
-771.000000
  0
TEXT
  8
A-DIMS-0
 10
-137.213179
 20
-790.618687
 40
5.598621
  1
2'4
 50
90.000000
  7
STANDARD
  0
LINE
  8
A-DIMS-0
 10
-141.388745
 20
-730.000000
 11
-139.888745
 21
-727.000000
  0
LINE
  8
A-DIMS-0
 10
-139.888745
 20
-757.406292
 11
-139.888745
 21
-771.000000
  0
LINE
  8
A-DIMS-0
 10
-139.888745
 20
-740.593708
 11
-139.888745
 21
-727.000000
  0
TEXT
  8
A-DIMS-0
 10
-137.213179
 20
-754.618687
 40
5.598621
  1
3'8
 50
90.000000
  7
STANDARD
  0
ENDSEC
  0
EOF
