  0
SECTION
  2
HEADER
  9
$ACADVER
  1
AC1006
  9
$EXTMIN
 10
-721.661417
 20
-941.580130
  9
$EXTMAX
 10
646.755833
 20
5.254028
  9
$ANGDIR
 70
   0
  9
$LUNITS
 70
   2
  0
ENDSEC
  0
SECTION
  2
TABLES
  0
TABLE
  2
LTYPE
 70
   3
  0
LTYPE
  2
CONTINUOUS
 70
64
  3
SOLID LINE
 72
65
 73
0
 40
0.
  0
LTYPE
  2
DASHED
 70
64
  3
DASHED LINE
 72
65
 73
2
 40
8.
 49
5.
 49
-3.
  0
LTYPE
  2
DOTTED
 70
64
  3
DOTTED LINE
 72
65
 73
2
 40
4.
 49
2.
 49
-2.
  0
ENDTAB
  0
TABLE
  2
LAYER
 70
   15
  0
LAYER
  2
A-WALL-1
 70
64
 62
   7
  6
CONTINUOUS
  0
LAYER
  2
A-CASE-1
 70
64
 62
   7
  6
CONTINUOUS
  0
LAYER
  2
A-DIMS-1
 70
64
 62
   7
  6
CONTINUOUS
  0
LAYER
  2
A-POWR-1
 70
64
 62
   7
  6
CONTINUOUS
  0
LAYER
  2
A-NOTE-1
 70
64
 62
   7
  6
CONTINUOUS
  0
LAYER
  2
A-TEXT-1
 70
64
 62
   7
  6
CONTINUOUS
  0
LAYER
  2
A-FURN-1
 70
64
 62
   7
  6
CONTINUOUS
  0
LAYER
  2
A-GLAZ-1
 70
64
 62
   7
  6
CONTINUOUS
  0
LAYER
  2
A-STAR-1
 70
64
 62
   7
  6
CONTINUOUS
  0
LAYER
  2
A-ROOF-1
 70
64
 62
   7
  6
CONTINUOUS
  0
LAYER
  2
A-C000-1
 70
64
 62
   7
  6
CONTINUOUS
  0
ENDTAB
  0
ENDSEC
  0
SECTION
  2
BLOCKS
  0
BLOCK
  8
A-CASE-1
  2
FIXT-Toilet
 70
64
 10
0.0
 20
0.0
  0
ARC
  8
A-CASE-1
 10
9.046126
 20
27.780609
 40
1.431891
 50
0.000000
 51
90.000000
  0
LINE
  8
A-CASE-1
 10
9.046126
 20
29.212500
 11
-9.046126
 21
29.212500
  0
ARC
  8
A-CASE-1
 10
-9.046126
 20
27.780609
 40
1.431891
 50
90.000000
 51
180.000000
  0
LINE
  8
A-CASE-1
 10
-10.478017
 20
27.780609
 11
-10.478017
 21
21.731952
  0
ARC
  8
A-CASE-1
 10
-9.046126
 20
21.731952
 40
1.431891
 50
180.000000
 51
270.000000
  0
LINE
  8
A-CASE-1
 10
-9.046126
 20
20.300061
 11
9.046126
 21
20.300061
  0
ARC
  8
A-CASE-1
 10
9.046126
 20
21.731952
 40
1.431891
 50
270.000000
 51
0.000000
  0
LINE
  8
A-CASE-1
 10
10.478017
 20
21.731952
 11
10.478017
 21
27.780609
  0
ARC
  8
A-CASE-1
 10
0.029649
 20
13.174761
 40
6.001594
 50
38.796550
 51
141.203450
  0
ARC
  8
A-CASE-1
 10
0.029649
 20
7.965448
 40
6.001594
 50
218.796550
 51
321.203450
  0
ARC
  8
A-CASE-1
 10
3.269587
 20
10.570105
 40
10.158689
 50
141.203449
 51
218.796551
  0
ARC
  8
A-CASE-1
 10
-3.210289
 20
10.570105
 40
10.158689
 50
321.203449
 51
38.796551
  0
ENDBLK
  0
BLOCK
  8
A-CASE-1
  2
FIXT-OvalFree
 70
64
 10
0.0
 20
0.0
  0
ARC
  8
A-CASE-1
 10
11.460326
 20
0.470522
 40
3.539272
 50
270.000000
 51
14.999997
  0
ARC
  8
A-CASE-1
 10
-11.460326
 20
0.470522
 40
3.539272
 50
165.000003
 51
270.000000
  0
LINE
  8
A-CASE-1
 10
11.460326
 20
-3.068750
 11
-11.460326
 21
-3.068750
  0
ARC
  8
A-CASE-1
 10
-8.247561
 20
12.460728
 40
3.539272
 50
90.000000
 51
165.000003
  0
LINE
  8
A-CASE-1
 10
-14.879001
 20
1.386553
 11
-11.666235
 21
13.376759
  0
ARC
  8
A-CASE-1
 10
8.247561
 20
12.460728
 40
3.539272
 50
14.999997
 51
90.000000
  0
LINE
  8
A-CASE-1
 10
-8.247561
 20
16.000000
 11
8.247561
 21
16.000000
  0
LINE
  8
A-CASE-1
 10
11.666235
 20
13.376759
 11
14.879001
 21
1.386553
  0
ARC
  8
A-CASE-1
 10
-3.168259
 20
6.212500
 40
5.846813
 50
127.551279
 51
232.448716
  0
ARC
  8
A-CASE-1
 10
3.138114
 20
6.212500
 40
5.846813
 50
307.551284
 51
52.448721
  0
ARC
  8
A-CASE-1
 10
-0.015072
 20
10.314206
 40
11.020456
 50
232.448718
 51
307.551282
  0
ARC
  8
A-CASE-1
 10
-0.015072
 20
2.110794
 40
11.020456
 50
52.448718
 51
127.551282
  0
CIRCLE
  8
A-CASE-1
 10
-0.015072
 20
8.659375
 40
0.646875
  0
CIRCLE
  8
A-CASE-1
 10
-0.015072
 20
8.659375
 40
1.040625
  0
ARC
  8
A-CASE-1
 10
2.271533
 20
14.545980
 40
0.835270
 50
0.000000
 51
90.000000
  0
LINE
  8
A-CASE-1
 10
2.271533
 20
15.381250
 11
-2.414177
 21
15.381250
  0
ARC
  8
A-CASE-1
 10
-2.414177
 20
14.545980
 40
0.835270
 50
90.000000
 51
180.000000
  0
LINE
  8
A-CASE-1
 10
-3.249447
 20
14.545980
 11
-3.249447
 21
14.585270
  0
ARC
  8
A-CASE-1
 10
-2.414177
 20
14.585270
 40
0.835270
 50
180.000000
 51
270.000000
  0
LINE
  8
A-CASE-1
 10
-2.414177
 20
13.750000
 11
2.271533
 21
13.750000
  0
ARC
  8
A-CASE-1
 10
2.271533
 20
14.585270
 40
0.835270
 50
270.000000
 51
0.000000
  0
LINE
  8
A-CASE-1
 10
3.106803
 20
14.585270
 11
3.106803
 21
14.545980
  0
ENDBLK
  0
BLOCK
  8
A-CASE-1
  2
FIXT-fire3618
 70
64
 10
0.0
 20
0.0
  0
LINE
  8
A-CASE-1
 10
29.948162
 20
-6.079029
 11
29.948162
 21
-24.979031
  0
LINE
  8
A-CASE-1
 10
29.948162
 20
-24.979031
 11
-29.948162
 21
-24.979031
  0
LINE
  8
A-CASE-1
 10
-29.948162
 20
-24.979031
 11
-29.948162
 21
-6.079029
  0
LINE
  8
A-CASE-1
 10
6.591125
 20
11.525184
 11
-6.587155
 21
11.525184
  0
LINE
  8
A-CASE-1
 10
-6.587155
 20
11.525184
 11
-6.587155
 21
-1.653096
  0
LINE
  8
A-CASE-1
 10
-6.587155
 20
-1.653096
 11
6.591125
 21
-1.653096
  0
LINE
  8
A-CASE-1
 10
6.591125
 20
-1.653096
 11
6.591125
 21
11.525184
  0
LINE
  8
A-CASE-1
 10
-17.736944
 20
-5.384176
 11
17.843761
 21
-5.384176
  0
CIRCLE
  8
A-CASE-1
 10
0.001985
 20
5.075015
 40
5.945351
  0
LINE
  8
A-CASE-1
 10
18.029947
 20
-6.079029
 11
13.185582
 21
12.000382
  0
LINE
  8
A-CASE-1
 10
13.185582
 20
12.000382
 11
-13.078766
 21
12.000382
  0
LINE
  8
A-CASE-1
 10
-13.078766
 20
12.000382
 11
-17.923130
 21
-6.079029
  0
LINE
  8
A-CASE-1
 10
-17.923130
 20
-6.079029
 11
18.029947
 21
-6.079029
  0
ENDBLK
  0
BLOCK
  8
A-CASE-1
  2
FIXT-CkTop30G
 70
64
 10
0.0
 20
0.0
  0
CIRCLE
  8
A-CASE-1
 10
-1.386597
 20
6.490740
 40
0.658514
  0
CIRCLE
  8
A-CASE-1
 10
1.386597
 20
6.490740
 40
0.658514
  0
CIRCLE
  8
A-CASE-1
 10
-1.386597
 20
8.943657
 40
0.658514
  0
CIRCLE
  8
A-CASE-1
 10
1.386597
 20
8.943657
 40
0.658514
  0
ARC
  8
A-CASE-1
 10
13.444258
 20
23.026094
 40
1.576146
 50
0.000000
 51
90.000000
  0
LINE
  8
A-CASE-1
 10
13.444258
 20
24.602241
 11
-13.397680
 21
24.602241
  0
ARC
  8
A-CASE-1
 10
-13.397680
 20
23.026094
 40
1.576146
 50
90.000000
 51
180.000000
  0
LINE
  8
A-CASE-1
 10
-14.973826
 20
23.026094
 11
-14.973826
 21
6.147279
  0
ARC
  8
A-CASE-1
 10
-13.397680
 20
6.147279
 40
1.576146
 50
180.000000
 51
270.000000
  0
LINE
  8
A-CASE-1
 10
-13.397680
 20
4.571133
 11
13.444258
 21
4.571133
  0
ARC
  8
A-CASE-1
 10
13.444258
 20
6.147279
 40
1.576146
 50
270.000000
 51
0.000000
  0
LINE
  8
A-CASE-1
 10
15.020404
 20
6.147279
 11
15.020404
 21
23.026094
  0
LINE
  8
A-CASE-1
 10
2.729433
 20
10.485951
 11
-2.729433
 21
10.485951
  0
LINE
  8
A-CASE-1
 10
-2.729433
 20
10.485951
 11
-2.729433
 21
5.099592
  0
LINE
  8
A-CASE-1
 10
-2.729433
 20
5.099592
 11
2.729433
 21
5.099592
  0
LINE
  8
A-CASE-1
 10
2.729433
 20
5.099592
 11
2.729433
 21
10.485951
  0
ARC
  8
A-CASE-1
 10
-6.053693
 20
22.046917
 40
1.372175
 50
0.000000
 51
90.000000
  0
LINE
  8
A-CASE-1
 10
-6.053693
 20
23.419091
 11
-11.491113
 21
23.419091
  0
ARC
  8
A-CASE-1
 10
-11.491113
 20
22.046917
 40
1.372175
 50
90.000000
 51
180.000000
  0
LINE
  8
A-CASE-1
 10
-12.863287
 20
22.046917
 11
-12.863287
 21
7.968280
  0
ARC
  8
A-CASE-1
 10
-11.491113
 20
7.968280
 40
1.372175
 50
180.000000
 51
270.000000
  0
LINE
  8
A-CASE-1
 10
-11.491113
 20
6.596106
 11
-6.053693
 21
6.596106
  0
ARC
  8
A-CASE-1
 10
-6.053693
 20
7.968280
 40
1.372175
 50
270.000000
 51
0.000000
  0
LINE
  8
A-CASE-1
 10
-4.681518
 20
7.968280
 11
-4.681518
 21
22.046917
  0
ARC
  8
A-CASE-1
 10
11.491113
 20
22.046917
 40
1.372175
 50
0.000000
 51
90.000000
  0
LINE
  8
A-CASE-1
 10
11.491113
 20
23.419091
 11
6.053693
 21
23.419091
  0
ARC
  8
A-CASE-1
 10
6.053693
 20
22.046917
 40
1.372175
 50
90.000000
 51
180.000000
  0
LINE
  8
A-CASE-1
 10
4.681518
 20
22.046917
 11
4.681518
 21
7.968280
  0
ARC
  8
A-CASE-1
 10
6.053693
 20
7.968280
 40
1.372175
 50
180.000000
 51
270.000000
  0
LINE
  8
A-CASE-1
 10
6.053693
 20
6.596106
 11
11.491113
 21
6.596106
  0
ARC
  8
A-CASE-1
 10
11.491113
 20
7.968280
 40
1.372175
 50
270.000000
 51
0.000000
  0
LINE
  8
A-CASE-1
 10
12.863287
 20
7.968280
 11
12.863287
 21
22.046917
  0
LINE
  8
A-CASE-1
 10
-12.790816
 20
15.564494
 11
-4.617591
 21
15.564494
  0
LINE
  8
A-CASE-1
 10
12.790816
 20
15.564494
 11
4.617591
 21
15.564494
  0
LINE
  8
A-CASE-1
 10
-12.863288
 20
14.458326
 11
-4.694096
 21
14.458326
  0
LINE
  8
A-CASE-1
 10
12.863288
 20
14.458326
 11
4.694096
 21
14.458326
  0
CIRCLE
  8
A-CASE-1
 10
-8.805153
 20
19.374661
 40
1.101392
  0
CIRCLE
  8
A-CASE-1
 10
8.805153
 20
19.374661
 40
1.101392
  0
CIRCLE
  8
A-CASE-1
 10
-8.805153
 20
10.785477
 40
1.101392
  0
CIRCLE
  8
A-CASE-1
 10
8.805153
 20
10.785477
 40
1.101392
  0
ENDBLK
  0
BLOCK
  8
A-FURN-1
  2
FIXT-shelf4
 70
64
 10
0.0
 20
0.0
  0
LINE
  8
A-FURN-1
 10
23.873684
 20
12.000000
 11
23.873684
 21
0.063158
  0
LINE
  8
A-FURN-1
 10
23.873684
 20
0.063158
 11
-23.873684
 21
0.063158
  0
LINE
  8
A-FURN-1
 10
-23.873684
 20
0.063158
 11
-23.873684
 21
12.000000
  0
LINE
  8
A-FURN-1
 10
-23.873684
 20
12.000000
 11
23.873684
 21
12.000000
  0
ENDBLK
  0
BLOCK
  8
A-FURN-1
  2
FIXT-book1230
 70
64
 10
0.0
 20
0.0
  0
LINE
  8
A-FURN-1
 10
14.997981
 20
5.987784
 11
-14.997981
 21
5.987784
  0
LINE
  8
A-FURN-1
 10
-14.997981
 20
5.987784
 11
-14.997981
 21
-5.987784
  0
LINE
  8
A-FURN-1
 10
-14.997981
 20
-5.987784
 11
14.997981
 21
-5.987784
  0
LINE
  8
A-FURN-1
 10
14.997981
 20
-5.987784
 11
14.997981
 21
5.987784
  0
ENDBLK
  0
BLOCK
  8
A-CASE-1
  2
FIXT-DishWash
 70
64
 10
0.0
 20
0.0
  0
LINE
  8
A-CASE-1
 10
12.019889
 20
10.345085
 11
-12.019889
 21
10.345085
  0
LINE
  8
A-CASE-1
 10
-12.019889
 20
10.345085
 11
-12.019889
 21
9.229315
  0
LINE
  8
A-CASE-1
 10
-12.019889
 20
9.229315
 11
12.019889
 21
9.229315
  0
LINE
  8
A-CASE-1
 10
12.019889
 20
9.229315
 11
12.019889
 21
10.345085
  0
LINE
  8
A-CASE-1
 10
4.361647
 20
9.229315
 11
4.361647
 21
8.519279
  0
LINE
  8
A-CASE-1
 10
4.361647
 20
8.519279
 11
-4.260214
 21
8.519279
  0
LINE
  8
A-CASE-1
 10
-4.260214
 20
8.519279
 11
-4.260214
 21
9.229315
  0
ARC
  8
A-CASE-1
 10
-7.282481
 20
21.323973
 40
5.269653
 50
270.000000
 51
0.000000
  0
ARC
  8
A-CASE-1
 10
-7.282481
 20
21.323973
 40
5.269653
 50
0.000000
 51
90.000000
  0
LINE
  8
A-CASE-1
 10
-7.282481
 20
26.593626
 11
-7.282481
 21
16.054319
  0
LINE
  8
A-CASE-1
 10
8.012980
 20
26.475399
 11
5.227346
 21
16.079269
  0
LINE
  8
A-CASE-1
 10
5.227346
 20
16.079269
 11
3.365992
 21
23.025938
  0
LINE
  8
A-CASE-1
 10
3.365992
 20
23.025938
 11
1.504146
 21
16.077431
  0
LINE
  8
A-CASE-1
 10
1.504146
 20
16.077431
 11
-1.276819
 21
26.456131
  0
ENDBLK
  0
BLOCK
  8
A-CASE-1
  2
FIXT-SidSid36
 70
64
 10
0.0
 20
0.0
  0
LINE
  8
A-CASE-1
 10
18.000000
 20
28.325000
 11
-18.000000
 21
28.325000
  0
LINE
  8
A-CASE-1
 10
-18.000000
 20
28.325000
 11
-18.000000
 21
1.325001
  0
LINE
  8
A-CASE-1
 10
-18.000000
 20
1.325001
 11
18.000000
 21
1.325001
  0
LINE
  8
A-CASE-1
 10
18.000000
 20
1.325001
 11
18.000000
 21
28.325000
  0
LINE
  8
A-CASE-1
 10
-17.887501
 20
3.799999
 11
18.000000
 21
3.799999
  0
LINE
  8
A-CASE-1
 10
-5.006250
 20
0.762501
 11
-7.593750
 21
0.762501
  0
LINE
  8
A-CASE-1
 10
-7.593750
 20
0.762501
 11
-7.593750
 21
0.200001
  0
LINE
  8
A-CASE-1
 10
-7.593750
 20
0.200001
 11
-5.006250
 21
0.200001
  0
LINE
  8
A-CASE-1
 10
-5.006250
 20
0.200001
 11
-5.006250
 21
0.762501
  0
LINE
  8
A-CASE-1
 10
-4.050000
 20
3.799999
 11
-4.050000
 21
1.325001
  0
LINE
  8
A-CASE-1
 10
-0.506250
 20
0.762501
 11
-3.093750
 21
0.762501
  0
LINE
  8
A-CASE-1
 10
-3.093750
 20
0.762501
 11
-3.093750
 21
0.200001
  0
LINE
  8
A-CASE-1
 10
-3.093750
 20
0.200001
 11
-0.506250
 21
0.200001
  0
LINE
  8
A-CASE-1
 10
-0.506250
 20
0.200001
 11
-0.506250
 21
0.762501
  0
ENDBLK
  0
BLOCK
  8
A-CASE-1
  2
FIXT-OffKit32
 70
64
 10
0.0
 20
0.0
  0
ARC
  8
A-CASE-1
 10
13.994499
 20
31.991375
 40
2.008625
 50
0.000000
 51
90.000000
  0
LINE
  8
A-CASE-1
 10
13.994499
 20
34.000000
 11
-13.994499
 21
34.000000
  0
ARC
  8
A-CASE-1
 10
-13.994499
 20
31.991375
 40
2.008625
 50
90.000000
 51
180.000000
  0
LINE
  8
A-CASE-1
 10
-16.003124
 20
31.991375
 11
-16.003124
 21
15.027375
  0
ARC
  8
A-CASE-1
 10
-13.994499
 20
15.027375
 40
2.008625
 50
180.000000
 51
270.000000
  0
LINE
  8
A-CASE-1
 10
-13.994499
 20
13.018749
 11
13.994499
 21
13.018749
  0
ARC
  8
A-CASE-1
 10
13.994499
 20
15.027375
 40
2.008625
 50
270.000000
 51
0.000000
  0
LINE
  8
A-CASE-1
 10
16.003124
 20
15.027375
 11
16.003124
 21
31.991375
  0
CIRCLE
  8
A-CASE-1
 10
6.018750
 20
22.581250
 40
1.631250
  0
ARC
  8
A-CASE-1
 10
5.028379
 20
32.615879
 40
0.596621
 50
0.000000
 51
90.000000
  0
LINE
  8
A-CASE-1
 10
5.028379
 20
33.212500
 11
-5.028379
 21
33.212500
  0
ARC
  8
A-CASE-1
 10
-5.028379
 20
32.615879
 40
0.596621
 50
90.000000
 51
180.000000
  0
LINE
  8
A-CASE-1
 10
-5.625000
 20
32.615879
 11
-5.625000
 21
31.671621
  0
ARC
  8
A-CASE-1
 10
-5.028379
 20
31.671621
 40
0.596621
 50
180.000000
 51
270.000000
  0
LINE
  8
A-CASE-1
 10
-5.028379
 20
31.075000
 11
5.028379
 21
31.075000
  0
ARC
  8
A-CASE-1
 10
5.028379
 20
31.671621
 40
0.596621
 50
270.000000
 51
0.000000
  0
LINE
  8
A-CASE-1
 10
5.625000
 20
31.671621
 11
5.625000
 21
32.615879
  0
CIRCLE
  8
A-CASE-1
 10
-9.281250
 20
22.693750
 40
1.631250
  0
CIRCLE
  8
A-CASE-1
 10
-9.281250
 20
22.693750
 40
1.068750
  0
ARC
  8
A-CASE-1
 10
12.660733
 20
28.941983
 40
1.233017
 50
0.000000
 51
90.000000
  0
LINE
  8
A-CASE-1
 10
12.660733
 20
30.175000
 11
-0.623232
 21
30.175000
  0
ARC
  8
A-CASE-1
 10
-0.623232
 20
28.941983
 40
1.233017
 50
90.000000
 51
180.000000
  0
LINE
  8
A-CASE-1
 10
-1.856250
 20
28.941983
 11
-1.856250
 21
16.333018
  0
ARC
  8
A-CASE-1
 10
-0.623232
 20
16.333018
 40
1.233017
 50
180.000000
 51
270.000000
  0
LINE
  8
A-CASE-1
 10
-0.623232
 20
15.100000
 11
12.660733
 21
15.100000
  0
ARC
  8
A-CASE-1
 10
12.660733
 20
16.333018
 40
1.233017
 50
270.000000
 51
0.000000
  0
LINE
  8
A-CASE-1
 10
13.893750
 20
16.333018
 11
13.893750
 21
28.941983
  0
ARC
  8
A-CASE-1
 10
-5.676768
 20
28.941983
 40
1.233017
 50
0.000000
 51
90.000000
  0
LINE
  8
A-CASE-1
 10
-5.676768
 20
30.175000
 11
-12.773233
 21
30.175000
  0
ARC
  8
A-CASE-1
 10
-12.773233
 20
28.941983
 40
1.233017
 50
90.000000
 51
180.000000
  0
LINE
  8
A-CASE-1
 10
-14.006250
 20
28.941983
 11
-14.006250
 21
16.333018
  0
ARC
  8
A-CASE-1
 10
-12.773233
 20
16.333018
 40
1.233017
 50
180.000000
 51
270.000000
  0
LINE
  8
A-CASE-1
 10
-12.773233
 20
15.100000
 11
-5.676768
 21
15.100000
  0
ARC
  8
A-CASE-1
 10
-5.676768
 20
16.333018
 40
1.233017
 50
270.000000
 51
0.000000
  0
LINE
  8
A-CASE-1
 10
-4.443750
 20
16.333018
 11
-4.443750
 21
28.941983
  0
CIRCLE
  8
A-CASE-1
 10
6.018750
 20
22.581250
 40
1.068750
  0
ENDBLK
  0
BLOCK
  8
A-FURN-1
  2
FIXT-rndc42
 70
64
 10
0.0
 20
0.0
  0
CIRCLE
  8
A-FURN-1
 10
-0.009039
 20
28.824127
 40
21.104097
  0
CIRCLE
  8
A-FURN-1
 10
-0.009039
 20
28.824127
 40
19.946480
  0
LINE
  8
A-FURN-1
 10
9.089798
 20
47.923764
 11
9.089798
 21
56.815706
  0
LINE
  8
A-FURN-1
 10
-18.933153
 20
19.900810
 11
-27.825096
 21
19.900810
  0
LINE
  8
A-FURN-1
 10
18.933153
 20
38.080408
 11
27.825096
 21
38.080408
  0
LINE
  8
A-FURN-1
 10
-9.089798
 20
10.057457
 11
-9.089798
 21
1.165512
  0
ARC
  8
A-FURN-1
 10
0.094195
 20
23.243660
 40
34.756340
 50
74.999999
 51
90.000000
  0
ARC
  8
A-FURN-1
 10
5.746951
 20
28.896416
 40
34.756340
 50
180.000000
 51
195.000004
  0
ARC
  8
A-FURN-1
 10
-5.746951
 20
29.084805
 40
34.756340
 50
0.000000
 51
15.000001
  0
ARC
  8
A-FURN-1
 10
-0.094195
 20
34.737560
 40
34.756340
 50
255.000000
 51
270.000000
  0
ARC
  8
A-FURN-1
 10
0.094195
 20
23.243660
 40
34.756340
 50
90.000000
 51
105.000000
  0
ARC
  8
A-FURN-1
 10
5.746951
 20
28.896416
 40
34.756340
 50
165.000002
 51
180.000000
  0
ARC
  8
A-FURN-1
 10
-5.746951
 20
29.084805
 40
34.756340
 50
345.000002
 51
0.000000
  0
ARC
  8
A-FURN-1
 10
-0.094195
 20
34.737560
 40
34.756340
 50
270.000000
 51
285.000000
  0
LINE
  8
A-FURN-1
 10
-8.901408
 20
56.815706
 11
-8.901408
 21
48.300543
  0
LINE
  8
A-FURN-1
 10
-27.825096
 20
37.892017
 11
-19.309933
 21
37.892017
  0
LINE
  8
A-FURN-1
 10
27.825096
 20
20.089203
 11
19.309933
 21
20.089203
  0
LINE
  8
A-FURN-1
 10
8.901408
 20
1.165512
 11
8.901408
 21
9.680676
  0
LINE
  8
A-FURN-1
 10
-8.844481
 20
55.839813
 11
9.146725
 21
55.839813
  0
LINE
  8
A-FURN-1
 10
-26.849203
 20
37.835093
 11
-26.849203
 21
19.843887
  0
LINE
  8
A-FURN-1
 10
26.849203
 20
20.146130
 11
26.849203
 21
38.137335
  0
LINE
  8
A-FURN-1
 10
8.844481
 20
2.141407
 11
-9.146725
 21
2.141407
  0
ENDBLK
  0
BLOCK
  8
A-POWR-1
  2
FIXT-GFI_Out
 70
64
 10
0.0
 20
0.0
  0
CIRCLE
  8
A-POWR-1
 10
-0.006993
 20
-5.734540
 40
3.254864
  0
LINE
  8
A-POWR-1
 10
-1.973961
 20
-8.380580
 11
-1.973961
 21
-0.000000
  0
LINE
  8
A-POWR-1
 10
2.006808
 20
-8.286915
 11
2.006808
 21
-0.000000
  0
TEXT
  8
A-POWR-1
 10
-2.437361
 20
-15.563484
 40
2.332530
  1
GFI
  7
STANDARD
  0
ENDBLK
  0
BLOCK
  8
A-POWR-1
  2
FIXT-WP_Out
 70
64
 10
0.0
 20
0.0
  0
CIRCLE
  8
A-POWR-1
 10
-0.006993
 20
-5.734540
 40
3.254864
  0
LINE
  8
A-POWR-1
 10
-1.973961
 20
-8.380580
 11
-1.973961
 21
-0.000000
  0
LINE
  8
A-POWR-1
 10
2.006808
 20
-8.286915
 11
2.006808
 21
-0.000000
  0
TEXT
  8
A-POWR-1
 10
-2.481950
 20
-15.563484
 40
2.332530
  1
WP
  7
STANDARD
  0
ENDBLK
  0
BLOCK
  8
A-POWR-1
  2
FIXT-3_Way
 70
64
 10
0.0
 20
0.0
  0
LINE
  8
A-POWR-1
 10
1.506088
 20
-2.396511
 11
-2.053707
 21
-2.396511
  0
ARC
  8
A-POWR-1
 10
-2.053707
 20
-4.016987
 40
1.620476
 50
90.000000
 51
181.041633
  0
ARC
  8
A-POWR-1
 10
-1.993710
 20
-4.015897
 40
1.680484
 50
181.041622
 51
270.000000
  0
LINE
  8
A-POWR-1
 10
-1.993710
 20
-5.696380
 11
-0.263288
 21
-5.696380
  0
ARC
  8
A-POWR-1
 10
-0.173292
 20
-7.420123
 40
1.636124
 50
270.000000
 51
1.534338
  0
ARC
  8
A-POWR-1
 10
-0.263288
 20
-7.422534
 40
1.726153
 50
1.534347
 51
90.000000
  0
LINE
  8
A-POWR-1
 10
-0.173292
 20
-9.056247
 11
-3.662938
 21
-9.056247
  0
LINE
  8
A-POWR-1
 10
-1.156680
 20
-0.026605
 11
-1.156680
 21
-11.036168
  0
TEXT
  8
A-POWR-1
 10
0.370044
 20
-14.470246
 40
2.799035
  1
3
  7
STANDARD
  0
ENDBLK
  0
BLOCK
  8
A-POWR-1
  2
FIXT-4_Way
 70
64
 10
0.0
 20
0.0
  0
LINE
  8
A-POWR-1
 10
1.506088
 20
-2.396511
 11
-2.053707
 21
-2.396511
  0
ARC
  8
A-POWR-1
 10
-2.053707
 20
-4.016987
 40
1.620476
 50
90.000000
 51
181.041633
  0
ARC
  8
A-POWR-1
 10
-1.993710
 20
-4.015897
 40
1.680484
 50
181.041622
 51
270.000000
  0
LINE
  8
A-POWR-1
 10
-1.993710
 20
-5.696380
 11
-0.263288
 21
-5.696380
  0
ARC
  8
A-POWR-1
 10
-0.173292
 20
-7.420123
 40
1.636124
 50
270.000000
 51
1.534338
  0
ARC
  8
A-POWR-1
 10
-0.263288
 20
-7.422534
 40
1.726153
 50
1.534347
 51
90.000000
  0
LINE
  8
A-POWR-1
 10
-0.173292
 20
-9.056247
 11
-3.662938
 21
-9.056247
  0
LINE
  8
A-POWR-1
 10
-1.156680
 20
-0.026605
 11
-1.156680
 21
-11.036168
  0
TEXT
  8
A-POWR-1
 10
0.370044
 20
-14.470246
 40
2.799035
  1
4
  7
STANDARD
  0
ENDBLK
  0
BLOCK
  8
A-POWR-1
  2
FIXT-5_Way
 70
64
 10
0.0
 20
0.0
  0
LINE
  8
A-POWR-1
 10
1.506088
 20
-2.396511
 11
-2.053707
 21
-2.396511
  0
ARC
  8
A-POWR-1
 10
-2.053707
 20
-4.016987
 40
1.620476
 50
90.000000
 51
181.041633
  0
ARC
  8
A-POWR-1
 10
-1.993710
 20
-4.015897
 40
1.680484
 50
181.041622
 51
270.000000
  0
LINE
  8
A-POWR-1
 10
-1.993710
 20
-5.696380
 11
-0.263288
 21
-5.696380
  0
ARC
  8
A-POWR-1
 10
-0.173292
 20
-7.420123
 40
1.636124
 50
270.000000
 51
1.534338
  0
ARC
  8
A-POWR-1
 10
-0.263288
 20
-7.422534
 40
1.726153
 50
1.534347
 51
90.000000
  0
LINE
  8
A-POWR-1
 10
-0.173292
 20
-9.056247
 11
-3.662938
 21
-9.056247
  0
LINE
  8
A-POWR-1
 10
-1.156680
 20
-0.026605
 11
-1.156680
 21
-11.036168
  0
TEXT
  8
A-POWR-1
 10
0.370044
 20
-14.470246
 40
2.799035
  1
5
  7
STANDARD
  0
ENDBLK
  0
ENDSEC
  0
SECTION
  2
ENTITIES
  0
LINE
  8
A-WALL-1
 10
-270.000000
 20
-280.000000
 11
-270.000000
 21
-259.000000
  0
LINE
  8
A-WALL-1
 10
-274.000000
 20
-255.000000
 11
-274.000000
 21
-280.000000
  0
LINE
  8
A-WALL-1
 10
-270.000000
 20
-416.000000
 11
-270.000000
 21
-312.000000
  0
LINE
  8
A-WALL-1
 10
-274.000000
 20
-312.000000
 11
-274.000000
 21
-416.000000
  0
LINE
  8
A-WALL-1
 10
-270.000000
 20
-468.000000
 11
-270.000000
 21
-448.000000
  0
LINE
  8
A-WALL-1
 10
-274.000000
 20
-448.000000
 11
-274.000000
 21
-470.000000
  0
LINE
  8
A-GLAZ-1
 10
-274.000000
 20
-280.000000
 11
-270.000000
 21
-280.000000
  0
LINE
  8
A-GLAZ-1
 10
-270.000000
 20
-312.000000
 11
-274.000000
 21
-312.000000
  0
LINE
  8
A-GLAZ-1
 10
-270.000000
 20
-312.000000
 11
-270.000000
 21
-280.000000
  0
LINE
  8
A-GLAZ-1
 10
-274.000000
 20
-280.000000
 11
-274.000000
 21
-312.000000
  0
LINE
  8
A-GLAZ-1
 10
-272.000000
 20
-280.000000
 11
-272.000000
 21
-312.000000
  0
TEXT
  8
A-DIMS-1
 10
-278.508096
 20
-305.631089
 40
5.598071
  1
2862
 50
90.000000
  7
STANDARD
  0
LINE
  8
A-GLAZ-1
 10
-274.000000
 20
-416.000000
 11
-270.000000
 21
-416.000000
  0
LINE
  8
A-GLAZ-1
 10
-270.000000
 20
-448.000000
 11
-274.000000
 21
-448.000000
  0
LINE
  8
A-GLAZ-1
 10
-270.000000
 20
-448.000000
 11
-270.000000
 21
-416.000000
  0
LINE
  8
A-GLAZ-1
 10
-274.000000
 20
-416.000000
 11
-274.000000
 21
-448.000000
  0
LINE
  8
A-GLAZ-1
 10
-272.000000
 20
-416.000000
 11
-272.000000
 21
-448.000000
  0
TEXT
  8
A-DIMS-1
 10
-278.508096
 20
-441.631089
 40
5.598071
  1
2862
 50
90.000000
  7
STANDARD
  0
LINE
  8
A-WALL-1
 10
-268.000000
 20
-521.000000
 11
-268.000000
 21
-472.000000
  0
LINE
  8
A-WALL-1
 10
-274.000000
 20
-470.000000
 11
-274.000000
 21
-521.000000
  0
LINE
  8
A-WALL-1
 10
-268.000000
 20
-603.000000
 11
-268.000000
 21
-557.000000
  0
LINE
  8
A-WALL-1
 10
-274.000000
 20
-557.000000
 11
-274.000000
 21
-605.000000
  0
LINE
  8
A-GLAZ-1
 10
-274.000000
 20
-521.000000
 11
-268.000000
 21
-521.000000
  0
LINE
  8
A-GLAZ-1
 10
-268.000000
 20
-557.000000
 11
-274.000000
 21
-557.000000
  0
LINE
  8
A-GLAZ-1
 10
-268.000000
 20
-557.000000
 11
-268.000000
 21
-521.000000
  0
LINE
  8
A-GLAZ-1
 10
-274.000000
 20
-521.000000
 11
-274.000000
 21
-557.000000
  0
LINE
  8
A-GLAZ-1
 10
-271.000000
 20
-521.000000
 11
-271.000000
 21
-557.000000
  0
TEXT
  8
A-DIMS-1
 10
-278.508096
 20
-551.038861
 40
5.598071
  1
30610
 50
90.000000
  7
STANDARD
  0
LINE
  8
A-WALL-1
 10
-174.000000
 20
-639.172791
 11
-210.172806
 21
-603.000000
  0
LINE
  8
A-WALL-1
 10
-209.829651
 20
-609.000000
 11
-178.000000
 21
-640.829651
  0
LINE
  8
A-WALL-1
 10
78.000000
 20
-839.000000
 11
102.000000
 21
-839.000000
  0
LINE
  8
A-WALL-1
 10
98.000000
 20
-835.000000
 11
78.000000
 21
-835.000000
  0
LINE
  8
A-WALL-1
 10
-42.000000
 20
-839.000000
 11
-18.000000
 21
-839.000000
  0
LINE
  8
A-WALL-1
 10
-18.000000
 20
-835.000000
 11
-38.000000
 21
-835.000000
  0
LINE
  8
A-GLAZ-1
 10
78.000000
 20
-839.000000
 11
78.000000
 21
-835.000000
  0
LINE
  8
A-GLAZ-1
 10
-18.000000
 20
-839.000000
 11
-18.000000
 21
-835.000000
  0
LINE
  8
A-GLAZ-1
  6
DASHED
 10
78.000000
 20
-835.000000
 11
-18.000000
 21
-835.000000
  0
LINE
  8
A-GLAZ-1
  6
DASHED
 10
78.000000
 20
-758.920000
 11
-18.000000
 21
-758.920000
  0
LINE
  8
A-GLAZ-1
  6
DASHED
 10
78.000000
 20
-835.000000
 11
78.000000
 21
-758.920000
  0
LINE
  8
A-GLAZ-1
  6
DASHED
 10
-18.000000
 20
-835.000000
 11
-18.000000
 21
-758.920000
  0
LINE
  8
A-GLAZ-1
 10
78.000000
 20
-839.000000
 11
-18.000000
 21
-839.000000
  0
TEXT
  8
A-DIMS-1
 10
20.368911
 20
-848.858702
 40
5.598071
  1
8070
  7
STANDARD
  0
LINE
  8
A-WALL-1
 10
98.000000
 20
-807.000000
 11
98.000000
 21
-835.000000
  0
LINE
  8
A-WALL-1
 10
102.000000
 20
-839.000000
 11
102.000000
 21
-811.000000
  0
LINE
  8
A-WALL-1
 10
212.000000
 20
-811.000000
 11
230.000000
 21
-811.000000
  0
LINE
  8
A-WALL-1
 10
226.000000
 20
-807.000000
 11
212.000000
 21
-807.000000
  0
LINE
  8
A-WALL-1
 10
102.000000
 20
-811.000000
 11
116.000000
 21
-811.000000
  0
LINE
  8
A-WALL-1
 10
116.000000
 20
-807.000000
 11
98.000000
 21
-807.000000
  0
LINE
  8
A-GLAZ-1
 10
212.000000
 20
-811.000000
 11
212.000000
 21
-807.000000
  0
LINE
  8
A-GLAZ-1
 10
116.000000
 20
-811.000000
 11
116.000000
 21
-807.000000
  0
LINE
  8
A-GLAZ-1
  6
DASHED
 10
212.000000
 20
-807.000000
 11
116.000000
 21
-807.000000
  0
LINE
  8
A-GLAZ-1
  6
DASHED
 10
212.000000
 20
-730.920000
 11
116.000000
 21
-730.920000
  0
LINE
  8
A-GLAZ-1
  6
DASHED
 10
212.000000
 20
-807.000000
 11
212.000000
 21
-730.920000
  0
LINE
  8
A-GLAZ-1
  6
DASHED
 10
116.000000
 20
-807.000000
 11
116.000000
 21
-730.920000
  0
LINE
  8
A-GLAZ-1
 10
212.000000
 20
-811.000000
 11
116.000000
 21
-811.000000
  0
TEXT
  8
A-DIMS-1
 10
154.368911
 20
-820.858702
 40
5.598071
  1
8070
  7
STANDARD
  0
LINE
  8
A-WALL-1
 10
226.000000
 20
-259.000000
 11
226.000000
 21
-415.000000
  0
LINE
  8
A-WALL-1
 10
230.000000
 20
-436.000000
 11
230.000000
 21
-255.000000
  0
LINE
  8
A-WALL-1
 10
226.000000
 20
-419.000000
 11
226.000000
 21
-437.656860
  0
LINE
  8
A-WALL-1
 10
226.000000
 20
-544.343140
 11
226.000000
 21
-563.000000
  0
LINE
  8
A-WALL-1
 10
230.000000
 20
-571.000000
 11
230.000000
 21
-546.000000
  0
LINE
  8
A-WALL-1
 10
226.000000
 20
-567.000000
 11
226.000000
 21
-571.000000
  0
LINE
  8
A-WALL-1
 10
230.000000
 20
-811.000000
 11
230.000000
 21
-607.000000
  0
LINE
  8
A-WALL-1
 10
226.000000
 20
-607.000000
 11
226.000000
 21
-807.000000
  0
LINE
  8
A-WALL-1
 10
230.000000
 20
-436.000000
 11
233.459262
 21
-439.459262
  0
LINE
  8
A-WALL-1
 10
250.429825
 20
-456.429825
 11
254.000000
 21
-460.000000
  0
LINE
  8
A-WALL-1
 10
226.000000
 20
-437.656854
 11
230.630835
 21
-442.287689
  0
LINE
  8
A-WALL-1
 10
247.601398
 20
-459.258252
 11
250.000000
 21
-461.656854
  0
LINE
  8
A-GLAZ-1
 10
250.429825
 20
-456.429825
 11
247.601398
 21
-459.258252
  0
LINE
  8
A-GLAZ-1
 10
230.630835
 20
-442.287689
 11
233.459262
 21
-439.459262
  0
LINE
  8
A-GLAZ-1
 10
230.630835
 20
-442.287689
 11
247.601398
 21
-459.258252
  0
LINE
  8
A-GLAZ-1
 10
250.429825
 20
-456.429825
 11
233.459262
 21
-439.459262
  0
LINE
  8
A-GLAZ-1
 10
249.015611
 20
-457.844039
 11
232.045049
 21
-440.873476
  0
LINE
  8
A-WALL-1
 10
230.000000
 20
-546.000000
 11
233.459262
 21
-542.540738
  0
LINE
  8
A-WALL-1
 10
250.429825
 20
-525.570175
 11
254.000000
 21
-522.000000
  0
LINE
  8
A-WALL-1
 10
226.000000
 20
-544.343146
 11
230.630835
 21
-539.712311
  0
LINE
  8
A-WALL-1
 10
247.601398
 20
-522.741748
 11
250.000000
 21
-520.343146
  0
LINE
  8
A-GLAZ-1
 10
233.459262
 20
-542.540738
 11
230.630835
 21
-539.712311
  0
LINE
  8
A-GLAZ-1
 10
247.601398
 20
-522.741748
 11
250.429825
 21
-525.570175
  0
LINE
  8
A-GLAZ-1
 10
247.601398
 20
-522.741748
 11
230.630835
 21
-539.712311
  0
LINE
  8
A-GLAZ-1
 10
233.459262
 20
-542.540738
 11
250.429825
 21
-525.570175
  0
LINE
  8
A-GLAZ-1
 10
232.045049
 20
-541.126524
 11
249.015611
 21
-524.155961
  0
LINE
  8
A-WALL-1
 10
254.000000
 20
-460.000000
 11
254.000000
 21
-464.000000
  0
LINE
  8
A-WALL-1
 10
254.000000
 20
-518.000000
 11
254.000000
 21
-522.000000
  0
LINE
  8
A-WALL-1
 10
250.000000
 20
-461.656854
 11
250.000000
 21
-464.000000
  0
LINE
  8
A-WALL-1
 10
250.000000
 20
-518.000000
 11
250.000000
 21
-520.343146
  0
LINE
  8
A-GLAZ-1
 10
254.000000
 20
-518.000000
 11
250.000000
 21
-518.000000
  0
LINE
  8
A-GLAZ-1
 10
250.000000
 20
-464.000000
 11
254.000000
 21
-464.000000
  0
LINE
  8
A-GLAZ-1
 10
250.000000
 20
-464.000000
 11
250.000000
 21
-518.000000
  0
LINE
  8
A-GLAZ-1
 10
254.000000
 20
-518.000000
 11
254.000000
 21
-464.000000
  0
LINE
  8
A-GLAZ-1
 10
252.000000
 20
-518.000000
 11
252.000000
 21
-464.000000
  0
LINE
  8
A-DIMS-1
 10
238.920000
 20
-436.000000
 11
232.920000
 21
-436.000000
  0
LINE
  8
A-DIMS-1
 10
234.420000
 20
-439.000000
 11
235.920000
 21
-436.000000
  0
LINE
  8
A-DIMS-1
 10
238.920000
 20
-546.000000
 11
232.920000
 21
-546.000000
  0
LINE
  8
A-DIMS-1
 10
237.420000
 20
-543.000000
 11
235.920000
 21
-546.000000
  0
LINE
  8
A-DIMS-1
 10
235.920000
 20
-482.594534
 11
235.920000
 21
-436.000000
  0
LINE
  8
A-DIMS-1
 10
235.920000
 20
-499.405466
 11
235.920000
 21
-546.000000
  0
TEXT
  8
A-DIMS-1
 10
238.595303
 20
-496.618135
 40
5.598071
  1
9'2
 50
90.000000
  7
STANDARD
  0
LINE
  8
A-DIMS-1
 10
233.000000
 20
-419.500000
 11
230.000000
 21
-418.000000
  0
LINE
  8
A-DIMS-1
 10
254.000000
 20
-415.000000
 11
254.000000
 21
-431.000000
  0
LINE
  8
A-DIMS-1
 10
251.000000
 20
-416.500000
 11
254.000000
 21
-418.000000
  0
LINE
  8
A-DIMS-1
 10
236.002306
 20
-418.000000
 11
230.000000
 21
-418.000000
  0
LINE
  8
A-DIMS-1
 10
247.997694
 20
-418.000000
 11
254.000000
 21
-418.000000
  0
TEXT
  8
A-DIMS-1
 10
238.789637
 20
-420.675303
 40
5.598071
  1
2'
  7
STANDARD
  0
LINE
  8
A-DIMS-1
 10
247.000000
 20
-460.000000
 11
241.000000
 21
-460.000000
  0
LINE
  8
A-DIMS-1
 10
242.500000
 20
-463.000000
 11
244.000000
 21
-460.000000
  0
LINE
  8
A-DIMS-1
 10
247.000000
 20
-522.000000
 11
241.000000
 21
-522.000000
  0
LINE
  8
A-DIMS-1
 10
245.500000
 20
-519.000000
 11
244.000000
 21
-522.000000
  0
LINE
  8
A-DIMS-1
 10
244.000000
 20
-482.594534
 11
244.000000
 21
-460.000000
  0
LINE
  8
A-DIMS-1
 10
244.000000
 20
-499.405466
 11
244.000000
 21
-522.000000
  0
TEXT
  8
A-DIMS-1
 10
246.675303
 20
-496.618135
 40
5.598071
  1
5'2
 50
90.000000
  7
STANDARD
  0
TEXT
  8
A-DIMS-1
 10
238.322041
 20
-437.946630
 40
5.598071
  1
2062
 50
-44.900000
  7
STANDARD
  0
TEXT
  8
A-DIMS-1
 10
242.105490
 20
-547.836820
 40
5.598071
  1
2062
 50
44.900000
  7
STANDARD
  0
TEXT
  8
A-DIMS-1
 10
263.858702
 20
-500.631089
 40
5.598071
  1
4662
 50
90.000000
  7
STANDARD
  0
LINE
  8
A-GLAZ-1
 10
230.000000
 20
-571.000000
 11
226.000000
 21
-571.000000
  0
LINE
  8
A-GLAZ-1
 10
230.000000
 20
-607.000000
 11
226.000000
 21
-607.000000
  0
LINE
  8
A-GLAZ-1
 10
226.000000
 20
-571.000000
 11
190.000000
 21
-571.000000
  0
LINE
  8
A-GLAZ-1
 10
190.000000
 20
-572.750000
 11
226.000000
 21
-572.750000
  0
LINE
  8
A-GLAZ-1
 10
226.000000
 20
-572.750000
 11
226.000000
 21
-571.000000
  0
ARC
  8
A-GLAZ-1
 10
226.000000
 20
-571.000000
 40
36.000000
 50
180.000000
 51
270.000000
  0
LINE
  8
A-GLAZ-1
 10
230.000000
 20
-571.000000
 11
230.000000
 21
-607.000000
  0
TEXT
  8
A-DIMS-1
 10
239.858702
 20
-598.631089
 40
5.598071
  1
3068
 50
90.000000
  7
STANDARD
  0
LINE
  8
A-WALL-1
 10
-245.000000
 20
-255.000000
 11
-274.000000
 21
-255.000000
  0
LINE
  8
A-WALL-1
 10
-270.000000
 20
-259.000000
 11
-243.343140
 21
-259.000000
  0
LINE
  8
A-WALL-1
 10
-114.000000
 20
-255.000000
 11
-143.000000
 21
-255.000000
  0
LINE
  8
A-WALL-1
 10
-144.656860
 20
-259.000000
 11
-114.000000
 21
-259.000000
  0
LINE
  8
A-WALL-1
 10
-245.000000
 20
-255.000000
 11
-240.747845
 21
-250.747845
  0
LINE
  8
A-WALL-1
 10
-222.363068
 20
-232.363068
 11
-218.000000
 21
-228.000000
  0
LINE
  8
A-WALL-1
 10
-243.343146
 20
-259.000000
 11
-237.919417
 21
-253.576272
  0
LINE
  8
A-WALL-1
 10
-219.534641
 20
-235.191495
 11
-216.343146
 21
-232.000000
  0
LINE
  8
A-GLAZ-1
 10
-222.363068
 20
-232.363068
 11
-219.534641
 21
-235.191495
  0
LINE
  8
A-GLAZ-1
 10
-237.919417
 20
-253.576272
 11
-240.747845
 21
-250.747845
  0
LINE
  8
A-GLAZ-1
 10
-237.919417
 20
-253.576272
 11
-219.534641
 21
-235.191495
  0
LINE
  8
A-GLAZ-1
 10
-222.363068
 20
-232.363068
 11
-240.747845
 21
-250.747845
  0
LINE
  8
A-GLAZ-1
 10
-220.948855
 20
-233.777282
 11
-239.333631
 21
-252.162058
  0
LINE
  8
A-WALL-1
 10
-143.000000
 20
-255.000000
 11
-147.252155
 21
-250.747845
  0
LINE
  8
A-WALL-1
 10
-165.636932
 20
-232.363068
 11
-170.000000
 21
-228.000000
  0
LINE
  8
A-WALL-1
 10
-144.656854
 20
-259.000000
 11
-150.080583
 21
-253.576272
  0
LINE
  8
A-WALL-1
 10
-168.465359
 20
-235.191495
 11
-171.656854
 21
-232.000000
  0
LINE
  8
A-GLAZ-1
 10
-147.252155
 20
-250.747845
 11
-150.080583
 21
-253.576272
  0
LINE
  8
A-GLAZ-1
 10
-168.465359
 20
-235.191495
 11
-165.636932
 21
-232.363068
  0
LINE
  8
A-GLAZ-1
 10
-168.465359
 20
-235.191495
 11
-150.080583
 21
-253.576272
  0
LINE
  8
A-GLAZ-1
 10
-147.252155
 20
-250.747845
 11
-165.636932
 21
-232.363068
  0
LINE
  8
A-GLAZ-1
 10
-148.666369
 20
-252.162058
 11
-167.051145
 21
-233.777282
  0
LINE
  8
A-WALL-1
 10
-218.000000
 20
-228.000000
 11
-211.000000
 21
-228.000000
  0
LINE
  8
A-WALL-1
 10
-177.000000
 20
-228.000000
 11
-170.000000
 21
-228.000000
  0
LINE
  8
A-WALL-1
 10
-216.343146
 20
-232.000000
 11
-211.000000
 21
-232.000000
  0
LINE
  8
A-WALL-1
 10
-177.000000
 20
-232.000000
 11
-171.656854
 21
-232.000000
  0
LINE
  8
A-GLAZ-1
 10
-177.000000
 20
-228.000000
 11
-177.000000
 21
-232.000000
  0
LINE
  8
A-GLAZ-1
 10
-211.000000
 20
-232.000000
 11
-211.000000
 21
-228.000000
  0
LINE
  8
A-GLAZ-1
 10
-211.000000
 20
-232.000000
 11
-177.000000
 21
-232.000000
  0
LINE
  8
A-GLAZ-1
 10
-177.000000
 20
-228.000000
 11
-211.000000
 21
-228.000000
  0
LINE
  8
A-GLAZ-1
 10
-177.000000
 20
-230.000000
 11
-211.000000
 21
-230.000000
  0
LINE
  8
A-WALL-1
 10
-245.000000
 20
-259.000000
 11
-143.000000
 21
-259.000000
  0
LINE
  8
A-DIMS-1
 10
-245.000000
 20
-246.080000
 11
-245.000000
 21
-252.080000
  0
LINE
  8
A-DIMS-1
 10
-242.000000
 20
-250.580000
 11
-245.000000
 21
-249.080000
  0
LINE
  8
A-DIMS-1
 10
-143.000000
 20
-246.080000
 11
-143.000000
 21
-252.080000
  0
LINE
  8
A-DIMS-1
 10
-146.000000
 20
-247.580000
 11
-143.000000
 21
-249.080000
  0
LINE
  8
A-DIMS-1
 10
-202.405466
 20
-249.080000
 11
-245.000000
 21
-249.080000
  0
LINE
  8
A-DIMS-1
 10
-185.594534
 20
-249.080000
 11
-143.000000
 21
-249.080000
  0
TEXT
  8
A-DIMS-1
 10
-199.618135
 20
-251.755303
 40
5.598071
  1
8'6
  7
STANDARD
  0
LINE
  8
A-DIMS-1
 10
-261.500000
 20
-252.000000
 11
-263.000000
 21
-255.000000
  0
LINE
  8
A-DIMS-1
 10
-266.000000
 20
-228.000000
 11
-250.000000
 21
-228.000000
  0
LINE
  8
A-DIMS-1
 10
-264.500000
 20
-231.000000
 11
-263.000000
 21
-228.000000
  0
LINE
  8
A-DIMS-1
 10
-263.000000
 20
-249.905466
 11
-263.000000
 21
-255.000000
  0
LINE
  8
A-DIMS-1
 10
-263.000000
 20
-233.094534
 11
-263.000000
 21
-228.000000
  0
TEXT
  8
A-DIMS-1
 10
-260.324697
 20
-247.118135
 40
5.598071
  1
2'3
 50
90.000000
  7
STANDARD
  0
LINE
  8
A-DIMS-1
 10
-218.000000
 20
-235.000000
 11
-218.000000
 21
-241.000000
  0
LINE
  8
A-DIMS-1
 10
-215.000000
 20
-239.500000
 11
-218.000000
 21
-238.000000
  0
LINE
  8
A-DIMS-1
 10
-170.000000
 20
-235.000000
 11
-170.000000
 21
-241.000000
  0
LINE
  8
A-DIMS-1
 10
-173.000000
 20
-236.500000
 11
-170.000000
 21
-238.000000
  0
LINE
  8
A-DIMS-1
 10
-199.997694
 20
-238.000000
 11
-218.000000
 21
-238.000000
  0
LINE
  8
A-DIMS-1
 10
-188.002306
 20
-238.000000
 11
-170.000000
 21
-238.000000
  0
TEXT
  8
A-DIMS-1
 10
-197.210363
 20
-240.675303
 40
5.598071
  1
4'
  7
STANDARD
  0
TEXT
  8
A-DIMS-1
 10
-241.553370
 20
-245.177959
 40
5.598071
  1
2252
 50
45.000000
  7
STANDARD
  0
TEXT
  8
A-DIMS-1
 10
-160.067047
 20
-231.557543
 40
5.598071
  1
2252
 50
314.900000
  7
STANDARD
  0
TEXT
  8
A-DIMS-1
 10
-206.038861
 20
-223.491904
 40
5.598071
  1
21052
  7
STANDARD
  0
LINE
  8
A-WALL-1
 10
-110.000000
 20
-105.000000
 11
-110.000000
 21
-99.000000
  0
LINE
  8
A-WALL-1
 10
-114.000000
 20
-95.000000
 11
-114.000000
 21
-105.000000
  0
LINE
  8
A-WALL-1
 10
-114.000000
 20
-141.000000
 11
-114.000000
 21
-255.000000
  0
LINE
  8
A-WALL-1
 10
-110.000000
 20
-300.000000
 11
-110.000000
 21
-141.000000
  0
LINE
  8
A-WALL-1
 10
-114.000000
 20
-259.000000
 11
-114.000000
 21
-300.000000
  0
LINE
  8
A-WALL-1
 10
-110.000000
 20
-409.000000
 11
-110.000000
 21
-336.000000
  0
LINE
  8
A-WALL-1
 10
-114.000000
 20
-336.000000
 11
-114.000000
 21
-409.000000
  0
LINE
  8
A-GLAZ-1
 10
-114.000000
 20
-105.000000
 11
-110.000000
 21
-105.000000
  0
LINE
  8
A-GLAZ-1
 10
-110.000000
 20
-141.000000
 11
-114.000000
 21
-141.000000
  0
LINE
  8
A-GLAZ-1
 10
-110.000000
 20
-141.000000
 11
-110.000000
 21
-105.000000
  0
LINE
  8
A-GLAZ-1
 10
-114.000000
 20
-105.000000
 11
-114.000000
 21
-141.000000
  0
LINE
  8
A-GLAZ-1
 10
-112.000000
 20
-105.000000
 11
-112.000000
 21
-141.000000
  0
TEXT
  8
A-DIMS-1
 10
-118.508096
 20
-132.631089
 40
5.598071
  1
3062
 50
90.000000
  7
STANDARD
  0
LINE
  8
A-GLAZ-1
 10
-110.000000
 20
-300.000000
 11
-114.000000
 21
-300.000000
  0
LINE
  8
A-GLAZ-1
 10
-110.000000
 20
-336.000000
 11
-114.000000
 21
-336.000000
  0
TEXT
  8
A-DIMS-1
 10
-109.324697
 20
-327.631089
 40
5.598071
  1
3078
 50
90.000000
  7
STANDARD
  0
LINE
  8
A-WALL-1
  6
DOTTED
 10
70.000000
 20
-259.000000
 11
204.000000
 21
-259.000000
  0
LINE
  8
A-WALL-1
  6
DOTTED
 10
202.000000
 20
-257.000000
 11
72.000000
 21
-257.000000
  0
LINE
  8
A-WALL-1
 10
202.000000
 20
-231.000000
 11
202.000000
 21
-259.000000
  0
LINE
  8
A-WALL-1
 10
206.000000
 20
-255.000000
 11
206.000000
 21
-231.000000
  0
LINE
  8
A-WALL-1
 10
202.000000
 20
-175.000000
 11
202.000000
 21
-199.000000
  0
LINE
  8
A-WALL-1
 10
206.000000
 20
-199.000000
 11
206.000000
 21
-171.000000
  0
LINE
  8
A-GLAZ-1
 10
206.000000
 20
-231.000000
 11
202.000000
 21
-231.000000
  0
LINE
  8
A-GLAZ-1
 10
202.000000
 20
-199.000000
 11
206.000000
 21
-199.000000
  0
LINE
  8
A-GLAZ-1
 10
202.000000
 20
-199.000000
 11
202.000000
 21
-231.000000
  0
LINE
  8
A-GLAZ-1
 10
206.000000
 20
-231.000000
 11
206.000000
 21
-199.000000
  0
LINE
  8
A-GLAZ-1
 10
204.000000
 20
-231.000000
 11
204.000000
 21
-199.000000
  0
TEXT
  8
A-DIMS-1
 10
215.858702
 20
-224.631089
 40
5.598071
  1
2852
 50
90.000000
  7
STANDARD
  0
LINE
  8
A-WALL-1
 10
187.000000
 20
-175.000000
 11
202.000000
 21
-175.000000
  0
LINE
  8
A-WALL-1
 10
206.000000
 20
-171.000000
 11
187.000000
 21
-171.000000
  0
LINE
  8
A-WALL-1
 10
155.000000
 20
-175.000000
 11
157.000000
 21
-175.000000
  0
LINE
  8
A-WALL-1
 10
157.000000
 20
-171.000000
 11
155.000000
 21
-171.000000
  0
LINE
  8
A-WALL-1
 10
70.000000
 20
-175.000000
 11
93.000000
 21
-175.000000
  0
LINE
  8
A-WALL-1
 10
93.000000
 20
-171.000000
 11
74.000000
 21
-171.000000
  0
LINE
  8
A-GLAZ-1
 10
187.000000
 20
-171.000000
 11
187.000000
 21
-175.000000
  0
LINE
  8
A-GLAZ-1
 10
157.000000
 20
-175.000000
 11
157.000000
 21
-171.000000
  0
LINE
  8
A-GLAZ-1
 10
157.000000
 20
-175.000000
 11
187.000000
 21
-175.000000
  0
LINE
  8
A-GLAZ-1
 10
187.000000
 20
-171.000000
 11
157.000000
 21
-171.000000
  0
LINE
  8
A-GLAZ-1
 10
187.000000
 20
-173.000000
 11
157.000000
 21
-173.000000
  0
TEXT
  8
A-DIMS-1
 10
162.368911
 20
-166.491904
 40
5.598071
  1
2666
  7
STANDARD
  0
LINE
  8
A-GLAZ-1
 10
155.000000
 20
-175.000000
 11
155.000000
 21
-171.000000
  0
LINE
  8
A-GLAZ-1
 10
93.000000
 20
-175.000000
 11
93.000000
 21
-171.000000
  0
LINE
  8
A-GLAZ-1
 10
155.000000
 20
-173.000000
 11
124.000000
 21
-173.000000
  0
LINE
  8
A-GLAZ-1
 10
124.000000
 20
-173.000000
 11
124.000000
 21
-172.000000
  0
LINE
  8
A-GLAZ-1
 10
124.000000
 20
-172.000000
 11
155.000000
 21
-172.000000
  0
LINE
  8
A-GLAZ-1
 10
155.000000
 20
-172.000000
 11
155.000000
 21
-173.000000
  0
LINE
  8
A-GLAZ-1
 10
139.500000
 20
-175.000000
 11
108.500000
 21
-175.000000
  0
LINE
  8
A-GLAZ-1
 10
108.500000
 20
-175.000000
 11
108.500000
 21
-174.000000
  0
LINE
  8
A-GLAZ-1
 10
108.500000
 20
-174.000000
 11
139.500000
 21
-174.000000
  0
LINE
  8
A-GLAZ-1
 10
139.500000
 20
-174.000000
 11
139.500000
 21
-175.000000
  0
LINE
  8
A-GLAZ-1
 10
155.000000
 20
-171.000000
 11
93.000000
 21
-171.000000
  0
TEXT
  8
A-DIMS-1
 10
114.368911
 20
-166.491904
 40
5.598071
  1
5268
  7
STANDARD
  0
LINE
  8
A-WALL-1
  6
DOTTED
 10
70.000000
 20
-173.000000
 11
70.000000
 21
-259.000000
  0
LINE
  8
A-WALL-1
  6
DOTTED
 10
72.000000
 20
-257.000000
 11
72.000000
 21
-175.000000
  0
LINE
  8
A-WALL-1
 10
58.000000
 20
-99.000000
 11
70.000000
 21
-99.000000
  0
LINE
  8
A-WALL-1
 10
74.000000
 20
-95.000000
 11
58.000000
 21
-95.000000
  0
LINE
  8
A-WALL-1
 10
-62.000000
 20
-99.000000
 11
22.000000
 21
-99.000000
  0
LINE
  8
A-WALL-1
 10
22.000000
 20
-95.000000
 11
-62.000000
 21
-95.000000
  0
LINE
  8
A-WALL-1
 10
-110.000000
 20
-99.000000
 11
-98.000000
 21
-99.000000
  0
LINE
  8
A-WALL-1
 10
-98.000000
 20
-95.000000
 11
-114.000000
 21
-95.000000
  0
LINE
  8
A-GLAZ-1
 10
58.000000
 20
-95.000000
 11
58.000000
 21
-99.000000
  0
LINE
  8
A-GLAZ-1
 10
22.000000
 20
-99.000000
 11
22.000000
 21
-95.000000
  0
LINE
  8
A-GLAZ-1
 10
22.000000
 20
-99.000000
 11
58.000000
 21
-99.000000
  0
LINE
  8
A-GLAZ-1
 10
58.000000
 20
-95.000000
 11
22.000000
 21
-95.000000
  0
LINE
  8
A-GLAZ-1
 10
58.000000
 20
-97.000000
 11
22.000000
 21
-97.000000
  0
TEXT
  8
A-DIMS-1
 10
30.368911
 20
-90.491904
 40
5.598071
  1
3062
  7
STANDARD
  0
LINE
  8
A-GLAZ-1
 10
-62.000000
 20
-95.000000
 11
-62.000000
 21
-99.000000
  0
LINE
  8
A-GLAZ-1
 10
-98.000000
 20
-99.000000
 11
-98.000000
 21
-95.000000
  0
LINE
  8
A-GLAZ-1
 10
-98.000000
 20
-99.000000
 11
-62.000000
 21
-99.000000
  0
LINE
  8
A-GLAZ-1
 10
-62.000000
 20
-95.000000
 11
-98.000000
 21
-95.000000
  0
LINE
  8
A-GLAZ-1
 10
-62.000000
 20
-97.000000
 11
-98.000000
 21
-97.000000
  0
TEXT
  8
A-DIMS-1
 10
-89.631089
 20
-90.491904
 40
5.598071
  1
3062
  7
STANDARD
  0
LINE
  8
A-WALL-1
 10
-172.429367
 20
-468.000000
 11
-270.000000
 21
-468.000000
  0
LINE
  8
A-WALL-1
 10
-268.000000
 20
-472.000000
 11
-173.600937
 21
-472.000000
  0
LINE
  8
A-WALL-1
 10
-163.115662
 20
-458.686279
 11
-172.429367
 21
-468.000000
  0
LINE
  8
A-WALL-1
 10
-169.600937
 20
-470.828430
 11
-160.287231
 21
-461.514709
  0
LINE
  8
A-WALL-1
 10
-113.429367
 20
-409.000000
 11
-120.689247
 21
-416.259888
  0
LINE
  8
A-WALL-1
 10
-117.860825
 20
-419.088318
 11
-111.772514
 21
-413.000000
  0
LINE
  8
A-GLAZ-1
 10
-163.115657
 20
-458.686292
 11
-160.287230
 21
-461.514719
  0
LINE
  8
A-GLAZ-1
 10
-120.689250
 20
-416.259885
 11
-117.860823
 21
-419.088312
  0
TEXT
  8
A-DIMS-1
 10
-145.406724
 20
-447.589235
 40
5.598071
  1
5078
 50
45.000000
  7
STANDARD
  0
LINE
  8
A-WALL-1
 10
99.000000
 20
-419.000000
 11
226.000000
 21
-419.000000
  0
LINE
  8
A-WALL-1
 10
226.000000
 20
-415.000000
 11
99.000000
 21
-415.000000
  0
LINE
  8
A-WALL-1
 10
67.000000
 20
-415.000000
 11
65.000000
 21
-415.000000
  0
LINE
  8
A-WALL-1
 10
42.000000
 20
-419.000000
 11
67.000000
 21
-419.000000
  0
LINE
  8
A-WALL-1
 10
61.000000
 20
-415.000000
 11
42.000000
 21
-415.000000
  0
LINE
  8
A-GLAZ-1
 10
99.000000
 20
-419.000000
 11
99.000000
 21
-418.000000
  0
LINE
  8
A-GLAZ-1
 10
99.000000
 20
-416.000000
 11
99.000000
 21
-415.000000
  0
LINE
  8
A-GLAZ-1
 10
67.000000
 20
-419.000000
 11
67.000000
 21
-415.000000
  0
LINE
  8
A-GLAZ-1
 10
115.000000
 20
-416.312500
 11
115.000000
 21
-417.687500
  0
LINE
  8
A-GLAZ-1
 10
83.000000
 20
-416.312500
 11
83.000000
 21
-417.687500
  0
LINE
  8
A-GLAZ-1
 10
115.000000
 20
-416.312500
 11
83.000000
 21
-416.312500
  0
LINE
  8
A-GLAZ-1
 10
115.000000
 20
-417.687500
 11
83.000000
 21
-417.687500
  0
TEXT
  8
A-DIMS-1
 10
73.368911
 20
-410.491904
 40
5.598071
  1
2868
  7
STANDARD
  0
LINE
  8
A-WALL-1
 10
38.000000
 20
-391.000000
 11
38.000000
 21
-405.871368
  0
LINE
  8
A-WALL-1
 10
42.000000
 20
-415.000000
 11
42.000000
 21
-391.000000
  0
LINE
  8
A-WALL-1
 10
38.000000
 20
-409.871368
 11
38.000000
 21
-468.000000
  0
LINE
  8
A-WALL-1
 10
42.000000
 20
-473.000000
 11
42.000000
 21
-419.000000
  0
LINE
  8
A-WALL-1
 10
38.000000
 20
-472.000000
 11
38.000000
 21
-473.000000
  0
LINE
  8
A-WALL-1
 10
38.000000
 20
-521.000000
 11
38.000000
 21
-522.000000
  0
LINE
  8
A-WALL-1
 10
42.000000
 20
-563.000000
 11
42.000000
 21
-521.000000
  0
LINE
  8
A-WALL-1
 10
38.000000
 20
-526.000000
 11
38.000000
 21
-565.000000
  0
LINE
  8
A-GLAZ-1
 10
42.000000
 20
-473.000000
 11
38.000000
 21
-473.000000
  0
LINE
  8
A-GLAZ-1
 10
42.000000
 20
-521.000000
 11
38.000000
 21
-521.000000
  0
TEXT
  8
A-DIMS-1
 10
42.675303
 20
-506.631089
 40
5.598071
  1
4078
 50
90.000000
  7
STANDARD
  0
LINE
  8
A-WALL-1
  6
DOTTED
 10
-204.172806
 20
-609.000000
 11
-170.600937
 21
-609.000000
  0
LINE
  8
A-WALL-1
  6
DOTTED
 10
-172.600937
 20
-603.000000
 11
-210.001221
 21
-603.000000
  0
LINE
  8
A-WALL-1
 10
-8.203320
 20
-387.000000
 11
-16.031746
 21
-387.000000
  0
LINE
  8
A-WALL-1
 10
-14.374892
 20
-391.000000
 11
-8.203320
 21
-391.000000
  0
LINE
  8
A-WALL-1
 10
33.796680
 20
-391.000000
 11
38.000000
 21
-391.000000
  0
LINE
  8
A-WALL-1
 10
65.000000
 20
-387.000000
 11
33.796680
 21
-387.000000
  0
LINE
  8
A-WALL-1
 10
42.000000
 20
-391.000000
 11
61.000000
 21
-391.000000
  0
LINE
  8
A-GLAZ-1
 10
-8.203320
 20
-387.000000
 11
-8.203320
 21
-391.000000
  0
LINE
  8
A-GLAZ-1
 10
33.796680
 20
-387.000000
 11
33.796680
 21
-391.000000
  0
LINE
  8
A-GLAZ-1
 10
-8.203320
 20
-389.000000
 11
-0.778699
 21
-381.575379
  0
LINE
  8
A-GLAZ-1
 10
-0.778699
 20
-381.575379
 11
0.193573
 21
-382.547651
  0
LINE
  8
A-GLAZ-1
 10
0.193573
 20
-382.547651
 11
-7.231048
 21
-389.972272
  0
LINE
  8
A-GLAZ-1
 10
-7.231048
 20
-389.972272
 11
-8.203320
 21
-389.000000
  0
LINE
  8
A-GLAZ-1
 10
0.193573
 20
-382.547651
 11
7.618195
 21
-389.972272
  0
LINE
  8
A-GLAZ-1
 10
7.618195
 20
-389.972272
 11
8.590466
 21
-389.000000
  0
LINE
  8
A-GLAZ-1
 10
8.590466
 20
-389.000000
 11
1.165845
 21
-381.575379
  0
LINE
  8
A-GLAZ-1
 10
1.165845
 20
-381.575379
 11
0.193573
 21
-382.547651
  0
LINE
  8
A-GLAZ-1
 10
33.796680
 20
-389.000000
 11
26.372059
 21
-381.575379
  0
LINE
  8
A-GLAZ-1
 10
26.372059
 20
-381.575379
 11
25.399787
 21
-382.547651
  0
LINE
  8
A-GLAZ-1
 10
25.399787
 20
-382.547651
 11
32.824408
 21
-389.972272
  0
LINE
  8
A-GLAZ-1
 10
32.824408
 20
-389.972272
 11
33.796680
 21
-389.000000
  0
LINE
  8
A-GLAZ-1
 10
25.399787
 20
-382.547651
 11
17.975166
 21
-389.972272
  0
LINE
  8
A-GLAZ-1
 10
17.975166
 20
-389.972272
 11
17.002894
 21
-389.000000
  0
LINE
  8
A-GLAZ-1
 10
17.002894
 20
-389.000000
 11
24.427515
 21
-381.575379
  0
LINE
  8
A-GLAZ-1
 10
24.427515
 20
-381.575379
 11
25.399787
 21
-382.547651
  0
TEXT
  8
A-DIMS-1
 10
3.165591
 20
-391.675303
 40
5.598071
  1
3668
  7
STANDARD
  0
LINE
  8
A-WALL-1
 10
65.000000
 20
-415.000000
 11
65.000000
 21
-387.000000
  0
LINE
  8
A-WALL-1
 10
61.000000
 20
-391.000000
 11
61.000000
 21
-415.000000
  0
LINE
  8
A-WALL-1
 10
-32.074688
 20
-472.000000
 11
38.000000
 21
-472.000000
  0
LINE
  8
A-WALL-1
 10
38.000000
 20
-468.000000
 11
-32.074688
 21
-468.000000
  0
LINE
  8
A-WALL-1
 10
-36.074688
 20
-520.037354
 11
-36.074688
 21
-522.000000
  0
LINE
  8
A-WALL-1
 10
-32.074688
 20
-522.000000
 11
-32.074688
 21
-520.037354
  0
LINE
  8
A-WALL-1
 10
-32.074688
 20
-472.037354
 11
-32.074688
 21
-472.000000
  0
LINE
  8
A-WALL-1
 10
-36.074688
 20
-458.037354
 11
-36.074688
 21
-472.037354
  0
LINE
  8
A-WALL-1
 10
-32.074688
 20
-468.000000
 11
-32.074688
 21
-458.037354
  0
LINE
  8
A-WALL-1
 10
-36.074688
 20
-413.000000
 11
-36.074688
 21
-422.037354
  0
LINE
  8
A-WALL-1
 10
-36.074688
 20
-407.042938
 11
-36.074688
 21
-409.000000
  0
LINE
  8
A-WALL-1
 10
-32.074688
 20
-422.037354
 11
-32.074688
 21
-409.871368
  0
LINE
  8
A-GLAZ-1
 10
-36.074688
 20
-520.037344
 11
-32.074688
 21
-520.037344
  0
LINE
  8
A-GLAZ-1
 10
-36.074688
 20
-472.037344
 11
-32.074688
 21
-472.037344
  0
TEXT
  8
A-DIMS-1
 10
-31.399386
 20
-505.668433
 40
5.598071
  1
4078
 50
90.000000
  7
STANDARD
  0
LINE
  8
A-GLAZ-1
 10
-36.074688
 20
-458.037344
 11
-32.074688
 21
-458.037344
  0
LINE
  8
A-GLAZ-1
 10
-36.074688
 20
-422.037344
 11
-32.074688
 21
-422.037344
  0
LINE
  8
A-GLAZ-1
 10
-36.074688
 20
-458.037344
 11
-72.074688
 21
-458.037344
  0
LINE
  8
A-GLAZ-1
 10
-72.074688
 20
-456.662344
 11
-36.074688
 21
-456.662344
  0
LINE
  8
A-GLAZ-1
 10
-36.074688
 20
-456.662344
 11
-36.074688
 21
-458.037344
  0
ARC
  8
A-GLAZ-1
 10
-36.074688
 20
-458.037344
 40
36.000000
 50
90.000000
 51
180.000000
  0
TEXT
  8
A-DIMS-1
 10
-31.399386
 20
-449.668433
 40
5.598071
  1
3068
 50
90.000000
  7
STANDARD
  0
LINE
  8
A-WALL-1
 10
-29.246262
 20
-405.871368
 11
-14.374892
 21
-391.000000
  0
LINE
  8
A-WALL-1
 10
-16.031746
 20
-387.000000
 11
-36.074688
 21
-407.042938
  0
LINE
  8
A-WALL-1
 10
-210.172806
 20
-603.000000
 11
-268.000000
 21
-603.000000
  0
LINE
  8
A-WALL-1
 10
-272.000000
 20
-609.000000
 11
-209.829651
 21
-609.000000
  0
LINE
  8
A-WALL-1
 10
-38.000000
 20
-529.500000
 11
-38.000000
 21
-526.000000
  0
LINE
  8
A-WALL-1
 10
-42.000000
 20
-522.000000
 11
-42.000000
 21
-529.500000
  0
LINE
  8
A-WALL-1
 10
-38.000000
 20
-563.000000
 11
-38.000000
 21
-559.500000
  0
LINE
  8
A-WALL-1
 10
-38.000000
 20
-571.000000
 11
-38.000000
 21
-567.000000
  0
LINE
  8
A-WALL-1
 10
-42.000000
 20
-559.500000
 11
-42.000000
 21
-571.000000
  0
LINE
  8
A-WALL-1
 10
-42.000000
 20
-603.000000
 11
-42.000000
 21
-719.000000
  0
LINE
  8
A-WALL-1
 10
-42.000000
 20
-723.000000
 11
-42.000000
 21
-771.000000
  0
LINE
  8
A-WALL-1
 10
-38.000000
 20
-835.000000
 11
-38.000000
 21
-603.000000
  0
LINE
  8
A-WALL-1
 10
-42.000000
 20
-775.000000
 11
-42.000000
 21
-839.000000
  0
LINE
  8
A-GLAZ-1
 10
-38.000000
 20
-529.500000
 11
-42.000000
 21
-529.500000
  0
LINE
  8
A-GLAZ-1
 10
-38.000000
 20
-559.500000
 11
-42.000000
 21
-559.500000
  0
LINE
  8
A-GLAZ-1
 10
-42.000000
 20
-559.500000
 11
-72.000000
 21
-559.500000
  0
LINE
  8
A-GLAZ-1
 10
-72.000000
 20
-558.125000
 11
-42.000000
 21
-558.125000
  0
LINE
  8
A-GLAZ-1
 10
-42.000000
 20
-558.125000
 11
-42.000000
 21
-559.500000
  0
ARC
  8
A-GLAZ-1
 10
-42.000000
 20
-559.500000
 40
30.000000
 50
90.000000
 51
180.000000
  0
TEXT
  8
A-DIMS-1
 10
-37.324697
 20
-554.131089
 40
5.598071
  1
2668
 50
90.000000
  7
STANDARD
  0
LINE
  8
A-GLAZ-1
 10
-38.000000
 20
-571.000000
 11
-42.000000
 21
-571.000000
  0
LINE
  8
A-GLAZ-1
 10
-38.000000
 20
-603.000000
 11
-42.000000
 21
-603.000000
  0
LINE
  8
A-GLAZ-1
 10
-42.000000
 20
-571.000000
 11
-74.000000
 21
-571.000000
  0
LINE
  8
A-GLAZ-1
 10
-74.000000
 20
-572.375000
 11
-42.000000
 21
-572.375000
  0
LINE
  8
A-GLAZ-1
 10
-42.000000
 20
-572.375000
 11
-42.000000
 21
-571.000000
  0
ARC
  8
A-GLAZ-1
 10
-42.000000
 20
-571.000000
 40
32.000000
 50
180.000000
 51
270.000000
  0
TEXT
  8
A-DIMS-1
 10
-37.324697
 20
-596.631089
 40
5.598071
  1
2868
 50
90.000000
  7
STANDARD
  0
LINE
  8
A-WALL-1
 10
-274.000000
 20
-605.000000
 11
-285.994934
 21
-605.000000
  0
LINE
  8
A-WALL-1
 10
-284.338074
 20
-609.000000
 11
-272.000000
 21
-609.000000
  0
LINE
  8
A-WALL-1
 10
42.000000
 20
-602.000000
 11
42.000000
 21
-567.000000
  0
LINE
  8
A-WALL-1
 10
38.000000
 20
-565.000000
 11
38.000000
 21
-598.000000
  0
LINE
  8
A-WALL-1
 10
-68.000000
 20
-723.000000
 11
-42.000000
 21
-723.000000
  0
LINE
  8
A-WALL-1
 10
-42.000000
 20
-719.000000
 11
-68.000000
 21
-719.000000
  0
LINE
  8
A-WALL-1
 10
-174.000000
 20
-723.000000
 11
-148.000000
 21
-723.000000
  0
LINE
  8
A-WALL-1
 10
-148.000000
 20
-719.000000
 11
-174.000000
 21
-719.000000
  0
LINE
  8
A-GLAZ-1
 10
-88.000000
 20
-723.000000
 11
-88.000000
 21
-719.000000
  0
LINE
  8
A-GLAZ-1
 10
-68.000000
 20
-719.000000
 11
-68.000000
 21
-723.000000
  0
LINE
  8
A-GLAZ-1
 10
-68.000000
 20
-719.000000
 11
-88.000000
 21
-719.000000
  0
LINE
  8
A-GLAZ-1
 10
-88.000000
 20
-723.000000
 11
-68.000000
 21
-723.000000
  0
LINE
  8
A-GLAZ-1
 10
-88.000000
 20
-721.000000
 11
-68.000000
 21
-721.000000
  0
TEXT
  8
A-DIMS-1
 10
-87.631089
 20
-732.858702
 40
5.598071
  1
1868
  7
STANDARD
  0
LINE
  8
A-GLAZ-1
 10
-90.000000
 20
-723.000000
 11
-90.000000
 21
-719.000000
  0
LINE
  8
A-GLAZ-1
 10
-126.000000
 20
-723.000000
 11
-126.000000
 21
-719.000000
  0
LINE
  8
A-GLAZ-1
 10
-90.000000
 20
-723.000000
 11
-88.000000
 21
-723.000000
  0
LINE
  8
A-GLAZ-1
 10
-90.000000
 20
-719.000000
 11
-88.000000
 21
-719.000000
  0
LINE
  8
A-GLAZ-1
 10
-90.000000
 20
-719.000000
 11
-90.000000
 21
-683.000000
  0
LINE
  8
A-GLAZ-1
 10
-91.750000
 20
-683.000000
 11
-91.750000
 21
-719.000000
  0
LINE
  8
A-GLAZ-1
 10
-91.750000
 20
-719.000000
 11
-90.000000
 21
-719.000000
  0
ARC
  8
A-GLAZ-1
 10
-90.000000
 20
-719.000000
 40
36.000000
 50
90.000000
 51
180.000000
  0
LINE
  8
A-GLAZ-1
 10
-90.000000
 20
-723.000000
 11
-126.000000
 21
-723.000000
  0
TEXT
  8
A-DIMS-1
 10
-117.631089
 20
-732.858702
 40
5.598071
  1
3068
  7
STANDARD
  0
LINE
  8
A-GLAZ-1
 10
-148.000000
 20
-723.000000
 11
-148.000000
 21
-719.000000
  0
LINE
  8
A-GLAZ-1
 10
-128.000000
 20
-719.000000
 11
-128.000000
 21
-723.000000
  0
LINE
  8
A-GLAZ-1
 10
-128.000000
 20
-723.000000
 11
-126.000000
 21
-723.000000
  0
LINE
  8
A-GLAZ-1
 10
-128.000000
 20
-719.000000
 11
-126.000000
 21
-719.000000
  0
LINE
  8
A-GLAZ-1
 10
-128.000000
 20
-719.000000
 11
-148.000000
 21
-719.000000
  0
LINE
  8
A-GLAZ-1
 10
-148.000000
 20
-723.000000
 11
-128.000000
 21
-723.000000
  0
LINE
  8
A-GLAZ-1
 10
-148.000000
 20
-721.000000
 11
-128.000000
 21
-721.000000
  0
TEXT
  8
A-DIMS-1
 10
-147.631089
 20
-732.858702
 40
5.598071
  1
1868
  7
STANDARD
  0
LINE
  8
A-WALL-1
 10
-57.000000
 20
-775.000000
 11
-42.000000
 21
-775.000000
  0
LINE
  8
A-WALL-1
 10
-42.000000
 20
-771.000000
 11
-57.000000
 21
-771.000000
  0
LINE
  8
A-WALL-1
 10
-174.000000
 20
-775.000000
 11
-159.000000
 21
-775.000000
  0
LINE
  8
A-WALL-1
 10
-159.000000
 20
-771.000000
 11
-174.000000
 21
-771.000000
  0
LINE
  8
A-GLAZ-1
 10
-57.000000
 20
-775.000000
 11
-57.000000
 21
-771.000000
  0
LINE
  8
A-GLAZ-1
 10
-159.000000
 20
-775.000000
 11
-159.000000
 21
-771.000000
  0
LINE
  8
A-GLAZ-1
 10
-57.000000
 20
-775.000000
 11
-159.000000
 21
-775.000000
  0
TEXT
  8
A-DIMS-1
 10
-117.631089
 20
-784.858702
 40
5.598071
  1
8678
  7
STANDARD
  0
LINE
  8
A-WALL-1
 10
-174.000000
 20
-799.000000
 11
-174.000000
 21
-775.000000
  0
LINE
  8
A-WALL-1
 10
-174.000000
 20
-771.000000
 11
-174.000000
 21
-723.000000
  0
LINE
  8
A-WALL-1
 10
-178.000000
 20
-709.000000
 11
-178.000000
 21
-795.000000
  0
LINE
  8
A-WALL-1
 10
-174.000000
 20
-719.000000
 11
-174.000000
 21
-709.000000
  0
LINE
  8
A-WALL-1
 10
-178.000000
 20
-640.829651
 11
-178.000000
 21
-649.000000
  0
LINE
  8
A-WALL-1
 10
-174.000000
 20
-649.000000
 11
-174.000000
 21
-639.172791
  0
LINE
  8
A-GLAZ-1
 10
-178.000000
 20
-709.000000
 11
-174.000000
 21
-709.000000
  0
LINE
  8
A-GLAZ-1
 10
-178.000000
 20
-649.000000
 11
-174.000000
 21
-649.000000
  0
LINE
  8
A-GLAZ-1
 10
-178.000000
 20
-649.000000
 11
-208.000000
 21
-649.000000
  0
LINE
  8
A-GLAZ-1
 10
-208.000000
 20
-650.375000
 11
-178.000000
 21
-650.375000
  0
LINE
  8
A-GLAZ-1
 10
-178.000000
 20
-650.375000
 11
-178.000000
 21
-649.000000
  0
ARC
  8
A-GLAZ-1
 10
-178.000000
 20
-649.000000
 40
30.000000
 50
180.000000
 51
270.000000
  0
LINE
  8
A-GLAZ-1
 10
-178.000000
 20
-709.000000
 11
-208.000000
 21
-709.000000
  0
LINE
  8
A-GLAZ-1
 10
-208.000000
 20
-707.625000
 11
-178.000000
 21
-707.625000
  0
LINE
  8
A-GLAZ-1
 10
-178.000000
 20
-707.625000
 11
-178.000000
 21
-709.000000
  0
ARC
  8
A-GLAZ-1
 10
-178.000000
 20
-709.000000
 40
30.000000
 50
90.000000
 51
180.000000
  0
TEXT
  8
A-DIMS-1
 10
-173.324697
 20
-688.631089
 40
5.598071
  1
5068
 50
90.000000
  7
STANDARD
  0
LINE
  8
A-WALL-1
 10
-199.000000
 20
-799.000000
 11
-174.000000
 21
-799.000000
  0
LINE
  8
A-WALL-1
 10
-178.000000
 20
-795.000000
 11
-199.000000
 21
-795.000000
  0
LINE
  8
A-WALL-1
 10
-230.000000
 20
-799.000000
 11
-227.000000
 21
-799.000000
  0
LINE
  8
A-WALL-1
 10
-227.000000
 20
-795.000000
 11
-230.000000
 21
-795.000000
  0
LINE
  8
A-WALL-1
 10
-269.000000
 20
-799.000000
 11
-266.000000
 21
-799.000000
  0
LINE
  8
A-WALL-1
 10
-266.000000
 20
-795.000000
 11
-269.000000
 21
-795.000000
  0
LINE
  8
A-WALL-1
 10
-322.000000
 20
-799.000000
 11
-297.000000
 21
-799.000000
  0
LINE
  8
A-WALL-1
 10
-297.000000
 20
-795.000000
 11
-318.000000
 21
-795.000000
  0
LINE
  8
A-GLAZ-1
 10
-227.000000
 20
-799.000000
 11
-227.000000
 21
-795.000000
  0
LINE
  8
A-GLAZ-1
 10
-199.000000
 20
-795.000000
 11
-199.000000
 21
-799.000000
  0
LINE
  8
A-GLAZ-1
 10
-199.000000
 20
-795.000000
 11
-227.000000
 21
-795.000000
  0
LINE
  8
A-GLAZ-1
 10
-227.000000
 20
-799.000000
 11
-199.000000
 21
-799.000000
  0
LINE
  8
A-GLAZ-1
 10
-227.000000
 20
-797.000000
 11
-199.000000
 21
-797.000000
  0
TEXT
  8
A-DIMS-1
 10
-222.631089
 20
-808.858702
 40
5.598071
  1
2462
  7
STANDARD
  0
LINE
  8
A-GLAZ-1
 10
-266.000000
 20
-799.000000
 11
-266.000000
 21
-795.000000
  0
LINE
  8
A-GLAZ-1
 10
-230.000000
 20
-795.000000
 11
-230.000000
 21
-799.000000
  0
LINE
  8
A-GLAZ-1
 10
-230.000000
 20
-795.000000
 11
-266.000000
 21
-795.000000
  0
LINE
  8
A-GLAZ-1
 10
-266.000000
 20
-799.000000
 11
-230.000000
 21
-799.000000
  0
LINE
  8
A-GLAZ-1
 10
-266.000000
 20
-797.000000
 11
-230.000000
 21
-797.000000
  0
TEXT
  8
A-DIMS-1
 10
-257.631089
 20
-808.858702
 40
5.598071
  1
3078
  7
STANDARD
  0
LINE
  8
A-GLAZ-1
 10
-297.000000
 20
-799.000000
 11
-297.000000
 21
-795.000000
  0
LINE
  8
A-GLAZ-1
 10
-269.000000
 20
-795.000000
 11
-269.000000
 21
-799.000000
  0
LINE
  8
A-GLAZ-1
 10
-269.000000
 20
-795.000000
 11
-297.000000
 21
-795.000000
  0
LINE
  8
A-GLAZ-1
 10
-297.000000
 20
-799.000000
 11
-269.000000
 21
-799.000000
  0
LINE
  8
A-GLAZ-1
 10
-297.000000
 20
-797.000000
 11
-269.000000
 21
-797.000000
  0
TEXT
  8
A-DIMS-1
 10
-292.631089
 20
-808.858702
 40
5.598071
  1
2462
  7
STANDARD
  0
LINE
  8
A-WALL-1
 10
-322.000000
 20
-787.000000
 11
-322.000000
 21
-799.000000
  0
LINE
  8
A-WALL-1
 10
-318.000000
 20
-795.000000
 11
-318.000000
 21
-787.000000
  0
LINE
  8
A-WALL-1
 10
-322.000000
 20
-641.005066
 11
-322.000000
 21
-755.000000
  0
LINE
  8
A-WALL-1
 10
-318.000000
 20
-755.000000
 11
-318.000000
 21
-642.661926
  0
LINE
  8
A-GLAZ-1
 10
-322.000000
 20
-755.000000
 11
-318.000000
 21
-755.000000
  0
LINE
  8
A-GLAZ-1
 10
-318.000000
 20
-787.000000
 11
-322.000000
 21
-787.000000
  0
LINE
  8
A-GLAZ-1
 10
-318.000000
 20
-787.000000
 11
-318.000000
 21
-755.000000
  0
LINE
  8
A-GLAZ-1
 10
-322.000000
 20
-755.000000
 11
-322.000000
 21
-787.000000
  0
LINE
  8
A-GLAZ-1
 10
-320.000000
 20
-755.000000
 11
-320.000000
 21
-787.000000
  0
TEXT
  8
A-DIMS-1
 10
-326.508096
 20
-780.631089
 40
5.598071
  1
2862
 50
90.000000
  7
STANDARD
  0
LINE
  8
A-WALL-1
 10
-315.269196
 20
-634.274231
 11
-322.000000
 21
-641.005066
  0
LINE
  8
A-WALL-1
 10
-318.000000
 20
-642.661926
 11
-312.440765
 21
-637.102661
  0
LINE
  8
A-WALL-1
 10
-285.994934
 20
-605.000000
 11
-292.641785
 21
-611.646851
  0
LINE
  8
A-WALL-1
 10
-289.813354
 20
-614.475281
 11
-284.338074
 21
-609.000000
  0
LINE
  8
A-GLAZ-1
 10
-292.641770
 20
-611.646836
 11
-289.813343
 21
-614.475263
  0
LINE
  8
A-GLAZ-1
 10
-312.440760
 20
-637.102680
 11
-315.269187
 21
-634.274253
  0
LINE
  8
A-GLAZ-1
 10
-312.440760
 20
-637.102680
 11
-289.813343
 21
-614.475263
  0
LINE
  8
A-GLAZ-1
 10
-292.641770
 20
-611.646836
 11
-315.269187
 21
-634.274253
  0
LINE
  8
A-GLAZ-1
 10
-291.227557
 20
-613.061050
 11
-313.854974
 21
-635.688467
  0
TEXT
  8
A-DIMS-1
 10
-313.953393
 20
-626.583048
 40
5.598071
  1
2862
 50
45.000000
  7
STANDARD
  0
LINE
  8
A-WALL-1
 10
230.000000
 20
-255.000000
 11
206.000000
 21
-255.000000
  0
LINE
  8
A-WALL-1
 10
202.000000
 20
-259.000000
 11
226.000000
 21
-259.000000
  0
LINE
  8
A-WALL-1
 10
74.000000
 20
-105.000000
 11
74.000000
 21
-95.000000
  0
LINE
  8
A-WALL-1
 10
70.000000
 20
-99.000000
 11
70.000000
 21
-105.000000
  0
LINE
  8
A-WALL-1
 10
74.000000
 20
-171.000000
 11
74.000000
 21
-141.000000
  0
LINE
  8
A-WALL-1
 10
70.000000
 20
-141.000000
 11
70.000000
 21
-175.000000
  0
LINE
  8
A-GLAZ-1
 10
74.000000
 20
-105.000000
 11
70.000000
 21
-105.000000
  0
LINE
  8
A-GLAZ-1
 10
74.000000
 20
-141.000000
 11
70.000000
 21
-141.000000
  0
LINE
  8
A-GLAZ-1
 10
70.000000
 20
-105.000000
 11
34.000000
 21
-105.000000
  0
LINE
  8
A-GLAZ-1
 10
34.000000
 20
-106.750000
 11
70.000000
 21
-106.750000
  0
LINE
  8
A-GLAZ-1
 10
70.000000
 20
-106.750000
 11
70.000000
 21
-105.000000
  0
ARC
  8
A-GLAZ-1
 10
70.000000
 20
-105.000000
 40
36.000000
 50
180.000000
 51
270.000000
  0
LINE
  8
A-GLAZ-1
 10
74.000000
 20
-105.000000
 11
74.000000
 21
-141.000000
  0
TEXT
  8
A-DIMS-1
 10
83.858702
 20
-132.631089
 40
5.598071
  1
3068
 50
90.000000
  7
STANDARD
  0
LINE
  8
A-WALL-1
 10
-14.000000
 20
-563.000000
 11
-38.000000
 21
-563.000000
  0
LINE
  8
A-WALL-1
 10
4.000000
 20
-563.000000
 11
-10.000000
 21
-563.000000
  0
LINE
  8
A-WALL-1
 10
-38.000000
 20
-567.000000
 11
0.000000
 21
-567.000000
  0
LINE
  8
A-WALL-1
 10
72.707108
 20
-256.804657
 11
71.292892
 21
-255.390442
  0
LINE
  8
A-WALL-1
 10
-12.707107
 20
-339.390442
 11
-11.292893
 21
-340.804657
  0
LINE
  8
A-WALL-1
 10
-11.292893
 20
-340.804657
 11
72.707108
 21
-256.804657
  0
LINE
  8
A-WALL-1
 10
71.292892
 20
-255.390442
 11
-12.707107
 21
-339.390442
  0
LINE
  8
A-WALL-1
 10
-173.600937
 20
-514.000000
 11
-169.600937
 21
-514.000000
  0
LINE
  8
A-WALL-1
 10
-169.600937
 20
-474.000000
 11
-169.600937
 21
-470.828430
  0
LINE
  8
A-WALL-1
 10
-173.600937
 20
-472.000000
 11
-173.600937
 21
-474.000000
  0
LINE
  8
A-WALL-1
 10
-169.600937
 20
-514.000000
 11
-169.600937
 21
-510.000000
  0
LINE
  8
A-WALL-1
 10
-173.600937
 20
-510.000000
 11
-173.600937
 21
-514.000000
  0
LINE
  8
A-GLAZ-1
 10
-169.600938
 20
-474.000000
 11
-173.600938
 21
-474.000000
  0
LINE
  8
A-GLAZ-1
 10
-169.600938
 20
-510.000000
 11
-173.600938
 21
-510.000000
  0
LINE
  8
A-GLAZ-1
 10
-169.600938
 20
-474.000000
 11
-133.600938
 21
-474.000000
  0
LINE
  8
A-GLAZ-1
 10
-133.600938
 20
-475.375000
 11
-169.600938
 21
-475.375000
  0
LINE
  8
A-GLAZ-1
 10
-169.600938
 20
-475.375000
 11
-169.600938
 21
-474.000000
  0
ARC
  8
A-GLAZ-1
 10
-169.600938
 20
-474.000000
 40
36.000000
 50
270.000000
 51
0.000000
  0
TEXT
  8
A-DIMS-1
 10
-168.925635
 20
-501.631089
 40
5.598071
  1
3068
 50
90.000000
  7
STANDARD
  0
LINE
  8
A-WALL-1
 10
34.000000
 20
-526.000000
 11
38.000000
 21
-526.000000
  0
LINE
  8
A-WALL-1
 10
38.000000
 20
-522.000000
 11
34.000000
 21
-522.000000
  0
LINE
  8
A-WALL-1
 10
-10.000000
 20
-526.000000
 11
6.000000
 21
-526.000000
  0
LINE
  8
A-WALL-1
 10
6.000000
 20
-522.000000
 11
-32.074688
 21
-522.000000
  0
LINE
  8
A-WALL-1
 10
-38.000000
 20
-526.000000
 11
-14.000000
 21
-526.000000
  0
LINE
  8
A-WALL-1
 10
-36.074688
 20
-522.000000
 11
-42.000000
 21
-522.000000
  0
LINE
  8
A-GLAZ-1
 10
34.000000
 20
-526.000000
 11
34.000000
 21
-522.000000
  0
LINE
  8
A-GLAZ-1
 10
6.000000
 20
-526.000000
 11
6.000000
 21
-522.000000
  0
LINE
  8
A-GLAZ-1
 10
6.000000
 20
-522.000000
 11
6.000000
 21
-494.000000
  0
LINE
  8
A-GLAZ-1
 10
7.375000
 20
-494.000000
 11
7.375000
 21
-522.000000
  0
LINE
  8
A-GLAZ-1
 10
7.375000
 20
-522.000000
 11
6.000000
 21
-522.000000
  0
ARC
  8
A-GLAZ-1
 10
6.000000
 20
-522.000000
 40
28.000000
 50
0.000000
 51
90.000000
  0
TEXT
  8
A-DIMS-1
 10
10.368911
 20
-526.675303
 40
5.598071
  1
2468
  7
STANDARD
  0
LINE
  8
A-WALL-1
 10
-103.600937
 20
-409.000000
 11
-110.000000
 21
-409.000000
  0
LINE
  8
A-WALL-1
 10
-111.772514
 20
-413.000000
 11
-103.600937
 21
-413.000000
  0
LINE
  8
A-WALL-1
 10
-36.074688
 20
-409.000000
 11
-43.600937
 21
-409.000000
  0
LINE
  8
A-WALL-1
 10
-43.600937
 20
-413.000000
 11
-36.074688
 21
-413.000000
  0
LINE
  8
A-GLAZ-1
 10
-103.600938
 20
-409.000000
 11
-103.600938
 21
-413.000000
  0
LINE
  8
A-GLAZ-1
 10
-43.600938
 20
-409.000000
 11
-43.600938
 21
-413.000000
  0
TEXT
  8
A-DIMS-1
 10
-83.232027
 20
-413.675303
 40
5.598071
  1
5078
  7
STANDARD
  0
LINE
  8
A-WALL-1
 10
0.000000
 20
-567.000000
 11
0.000000
 21
-602.000000
  0
LINE
  8
A-WALL-1
 10
4.000000
 20
-598.000000
 11
4.000000
 21
-563.000000
  0
LINE
  8
A-WALL-1
  6
DOTTED
 10
-170.600937
 20
-609.000000
 11
-170.600937
 21
-514.000000
  0
LINE
  8
A-WALL-1
  6
DOTTED
 10
-172.600937
 20
-514.000000
 11
-172.600937
 21
-603.000000
  0
LINE
  8
A-WALL-1
  6
DOTTED
 10
-12.000000
 20
-341.097534
 11
-12.000000
 21
-339.097534
  0
LINE
  8
A-WALL-1
  6
DOTTED
 10
-110.000000
 20
-341.097534
 11
-12.000000
 21
-341.097534
  0
LINE
  8
A-WALL-1
  6
DOTTED
 10
-12.000000
 20
-339.097534
 11
-110.000000
 21
-339.097534
  0
LINE
  8
A-WALL-1
  6
DOTTED
 10
2.000000
 20
-607.000000
 11
2.000000
 21
-605.000000
  0
LINE
  8
A-WALL-1
  6
DOTTED
 10
2.000000
 20
-605.000000
 11
-38.000000
 21
-605.000000
  0
LINE
  8
A-WALL-1
  6
DOTTED
 10
-38.000000
 20
-607.000000
 11
2.000000
 21
-607.000000
  0
LINE
  8
A-WALL-1
 10
38.000000
 20
-405.871368
 11
-29.246262
 21
-405.871368
  0
LINE
  8
A-WALL-1
 10
-32.074688
 20
-409.871368
 11
38.000000
 21
-409.871368
  0
LINE
  8
A-WALL-1
  6
DOTTED
 10
1.000000
 20
-606.000000
 11
3.000000
 21
-606.000000
  0
LINE
  8
A-WALL-1
  6
DOTTED
 10
3.000000
 20
-606.000000
 11
3.000000
 21
-602.000000
  0
LINE
  8
A-WALL-1
  6
DOTTED
 10
1.000000
 20
-600.000000
 11
1.000000
 21
-606.000000
  0
LINE
  8
A-WALL-1
 10
38.000000
 20
-598.000000
 11
4.000000
 21
-598.000000
  0
LINE
  8
A-WALL-1
 10
0.000000
 20
-602.000000
 11
42.000000
 21
-602.000000
  0
LINE
  8
A-WALL-1
 10
226.000000
 20
-563.000000
 11
42.000000
 21
-563.000000
  0
LINE
  8
A-WALL-1
 10
42.000000
 20
-567.000000
 11
226.000000
 21
-567.000000
  0
LINE
  8
A-WALL-1
 10
-10.000000
 20
-563.000000
 11
-10.000000
 21
-526.000000
  0
LINE
  8
A-WALL-1
 10
-14.000000
 20
-526.000000
 11
-14.000000
 21
-563.000000
  0
LINE
  8
A-STAR-1
 10
-217.000000
 20
-603.000000
 11
-208.000000
 21
-603.000000
  0
LINE
  8
A-STAR-1
 10
-208.000000
 20
-603.000000
 11
-208.000000
 21
-561.000000
  0
LINE
  8
A-STAR-1
 10
-208.000000
 20
-561.000000
 11
-217.000000
 21
-561.000000
  0
LINE
  8
A-STAR-1
 10
-226.000000
 20
-603.000000
 11
-217.000000
 21
-603.000000
  0
LINE
  8
A-STAR-1
 10
-217.000000
 20
-603.000000
 11
-217.000000
 21
-561.000000
  0
LINE
  8
A-STAR-1
 10
-217.000000
 20
-561.000000
 11
-226.000000
 21
-561.000000
  0
LINE
  8
A-STAR-1
 10
-226.000000
 20
-603.000000
 11
-226.000000
 21
-561.000000
  0
TEXT
  8
A-POWR-1
 10
-221.691918
 20
-580.915662
 40
4.198553
  1
UP
  7
STANDARD
  0
LINE
  8
A-STAR-1
 10
-227.000000
 20
-584.000000
 11
-216.000000
 21
-584.000000
  0
LINE
  8
A-STAR-1
 10
-226.000000
 20
-560.500000
 11
-226.000000
 21
-603.500000
  0
LINE
  8
A-STAR-1
 10
-226.000000
 20
-603.500000
 11
-268.000000
 21
-603.500000
  0
LINE
  8
A-STAR-1
 10
-268.000000
 20
-603.500000
 11
-268.000000
 21
-560.500000
  0
LINE
  8
A-STAR-1
 10
-268.000000
 20
-560.500000
 11
-226.000000
 21
-560.500000
  0
LINE
  8
A-STAR-1
 10
-268.000000
 20
-551.200000
 11
-268.000000
 21
-560.500000
  0
LINE
  8
A-STAR-1
 10
-268.000000
 20
-560.500000
 11
-226.000000
 21
-560.500000
  0
LINE
  8
A-STAR-1
 10
-226.000000
 20
-560.500000
 11
-226.000000
 21
-551.200000
  0
LINE
  8
A-STAR-1
 10
-268.000000
 20
-541.900000
 11
-268.000000
 21
-551.200000
  0
LINE
  8
A-STAR-1
 10
-268.000000
 20
-551.200000
 11
-226.000000
 21
-551.200000
  0
LINE
  8
A-STAR-1
 10
-226.000000
 20
-551.200000
 11
-226.000000
 21
-541.900000
  0
LINE
  8
A-STAR-1
 10
-268.000000
 20
-532.600000
 11
-268.000000
 21
-541.900000
  0
LINE
  8
A-STAR-1
 10
-268.000000
 20
-541.900000
 11
-226.000000
 21
-541.900000
  0
LINE
  8
A-STAR-1
 10
-226.000000
 20
-541.900000
 11
-226.000000
 21
-532.600000
  0
LINE
  8
A-STAR-1
 10
-268.000000
 20
-523.300000
 11
-268.000000
 21
-532.600000
  0
LINE
  8
A-STAR-1
 10
-268.000000
 20
-532.600000
 11
-226.000000
 21
-532.600000
  0
LINE
  8
A-STAR-1
 10
-226.000000
 20
-532.600000
 11
-226.000000
 21
-523.300000
  0
LINE
  8
A-STAR-1
 10
-268.000000
 20
-514.000000
 11
-268.000000
 21
-523.300000
  0
LINE
  8
A-STAR-1
 10
-268.000000
 20
-523.300000
 11
-226.000000
 21
-523.300000
  0
LINE
  8
A-STAR-1
 10
-226.000000
 20
-523.300000
 11
-226.000000
 21
-514.000000
  0
LINE
  8
A-STAR-1
 10
-268.000000
 20
-514.000000
 11
-226.000000
 21
-514.000000
  0
LINE
  8
A-STAR-1
 10
-225.500000
 20
-514.000000
 11
-268.000000
 21
-514.000000
  0
LINE
  8
A-STAR-1
 10
-268.000000
 20
-514.000000
 11
-268.000000
 21
-472.000000
  0
LINE
  8
A-STAR-1
 10
-268.000000
 20
-472.000000
 11
-225.500000
 21
-472.000000
  0
LINE
  8
A-STAR-1
 10
-225.500000
 20
-472.000000
 11
-225.500000
 21
-514.000000
  0
LINE
  8
A-STAR-1
 10
-216.500000
 20
-472.000000
 11
-225.500000
 21
-472.000000
  0
LINE
  8
A-STAR-1
 10
-225.500000
 20
-472.000000
 11
-225.500000
 21
-514.000000
  0
LINE
  8
A-STAR-1
 10
-225.500000
 20
-514.000000
 11
-216.500000
 21
-514.000000
  0
LINE
  8
A-STAR-1
 10
-207.500000
 20
-472.000000
 11
-216.500000
 21
-472.000000
  0
LINE
  8
A-STAR-1
 10
-216.500000
 20
-472.000000
 11
-216.500000
 21
-514.000000
  0
LINE
  8
A-STAR-1
 10
-216.500000
 20
-514.000000
 11
-207.500000
 21
-514.000000
  0
LINE
  8
A-STAR-1
 10
-198.500000
 20
-472.000000
 11
-207.500000
 21
-472.000000
  0
LINE
  8
A-STAR-1
 10
-207.500000
 20
-472.000000
 11
-207.500000
 21
-514.000000
  0
LINE
  8
A-STAR-1
 10
-207.500000
 20
-514.000000
 11
-198.500000
 21
-514.000000
  0
LINE
  8
A-STAR-1
 10
-189.500000
 20
-472.000000
 11
-198.500000
 21
-472.000000
  0
LINE
  8
A-STAR-1
 10
-198.500000
 20
-472.000000
 11
-198.500000
 21
-514.000000
  0
LINE
  8
A-STAR-1
 10
-198.500000
 20
-514.000000
 11
-189.500000
 21
-514.000000
  0
LINE
  8
A-STAR-1
 10
-180.500000
 20
-472.000000
 11
-189.500000
 21
-472.000000
  0
LINE
  8
A-STAR-1
 10
-189.500000
 20
-472.000000
 11
-189.500000
 21
-514.000000
  0
LINE
  8
A-STAR-1
 10
-189.500000
 20
-514.000000
 11
-180.500000
 21
-514.000000
  0
LINE
  8
A-STAR-1
 10
-171.500000
 20
-472.000000
 11
-180.500000
 21
-472.000000
  0
LINE
  8
A-STAR-1
 10
-180.500000
 20
-472.000000
 11
-180.500000
 21
-514.000000
  0
LINE
  8
A-STAR-1
 10
-180.500000
 20
-514.000000
 11
-171.500000
 21
-514.000000
  0
LINE
  8
A-STAR-1
 10
-171.500000
 20
-472.000000
 11
-171.500000
 21
-514.000000
  0
LINE
  8
A-STAR-1
 10
-38.000000
 20
-606.000000
 11
-38.000000
 21
-616.000000
  0
LINE
  8
A-STAR-1
 10
-38.000000
 20
-616.000000
 11
1.000000
 21
-616.000000
  0
LINE
  8
A-STAR-1
 10
1.000000
 20
-616.000000
 11
1.000000
 21
-606.000000
  0
LINE
  8
A-STAR-1
 10
-38.000000
 20
-606.000000
 11
1.000000
 21
-606.000000
  0
INSERT
  8
A-CASE-1
  2
FIXT-Toilet
 10
20.750017
 20
-568.019364
 41
1.000000
 42
1.071429
 43
 1.0
 50
-180.000000
  0
INSERT
  8
A-CASE-1
  2
FIXT-OvalFree
 10
6.399609
 20
-544.628700
 41
1.000000
 42
0.842105
 43
 1.0
 50
-270.000000
  0
INSERT
  8
A-CASE-1
  2
FIXT-fire3618
 10
-274.017510
 20
-363.107800
 41
1.000000
 42
0.857143
 43
 1.0
 50
-270.000000
  0
INSERT
  8
A-CASE-1
  2
FIXT-fire3618
 10
-20.108852
 20
-94.979571
 41
1.000000
 42
1.000000
 43
 1.0
 50
0.000000
  0
LINE
  8
A-CASE-1
 10
10.790252
 20
-99.000000
 11
10.790252
 21
-121.000000
  0
LINE
  8
A-CASE-1
 10
-51.209748
 20
-121.000000
 11
-51.209748
 21
-99.000000
  0
LINE
  8
A-CASE-1
 10
10.790252
 20
-121.000000
 11
-51.209748
 21
-121.000000
  0
LINE
  8
A-CASE-1
 10
-15.209748
 20
-116.000000
 11
-20.209748
 21
-121.000000
  0
LINE
  8
A-CASE-1
 10
-25.209748
 20
-116.000000
 11
-20.209748
 21
-121.000000
  0
LINE
  8
A-CASE-1
 10
226.000000
 20
-379.000000
 11
223.000000
 21
-379.000000
  0
LINE
  8
A-CASE-1
 10
205.000000
 20
-379.000000
 11
202.000000
 21
-379.000000
  0
LINE
  8
A-CASE-1
 10
202.000000
 20
-349.000000
 11
205.000000
 21
-349.000000
  0
LINE
  8
A-CASE-1
 10
223.000000
 20
-349.000000
 11
226.000000
 21
-349.000000
  0
LINE
  8
A-CASE-1
 10
202.000000
 20
-379.000000
 11
202.000000
 21
-349.000000
  0
INSERT
  8
A-CASE-1
  2
FIXT-CkTop30G
 10
199.452198
 20
-364.000000
 41
1.000000
 42
1.000000
 43
 1.0
 50
-90.000000
  0
INSERT
  8
A-FURN-1
  2
FIXT-shelf4
 10
46.850500
 20
-261.120554
 41
0.854167
 42
1.000000
 43
 1.0
 50
-135.000000
  0
INSERT
  8
A-FURN-1
  2
FIXT-shelf4
 10
-7.596722
 20
-315.567776
 41
0.854167
 42
1.000000
 43
 1.0
 50
-135.000000
  0
INSERT
  8
A-FURN-1
  2
FIXT-shelf4
 10
13.955148
 20
-282.672424
 41
0.750000
 42
1.666667
 43
 1.0
 50
-135.000000
  0
INSERT
  8
A-FURN-1
  2
FIXT-book1230
 10
35.473842
 20
-304.211600
 41
1.133333
 42
0.498982
 43
 1.0
 50
45.000000
  0
INSERT
  8
A-FURN-1
  2
FIXT-book1230
 10
59.170566
 20
-280.532169
 41
1.100000
 42
0.500000
 43
 1.0
 50
45.000000
  0
INSERT
  8
A-FURN-1
  2
FIXT-book1230
 10
11.440859
 20
-328.261877
 41
1.133333
 42
0.500000
 43
 1.0
 50
45.000000
  0
LINE
  8
A-CASE-1
 10
151.000000
 20
-280.105156
 11
151.000000
 21
-314.105156
  0
LINE
  8
A-CASE-1
 10
127.000000
 20
-314.105156
 11
127.000000
 21
-311.105156
  0
LINE
  8
A-CASE-1
 10
127.000000
 20
-283.105156
 11
127.000000
 21
-280.105156
  0
LINE
  8
A-CASE-1
 10
127.000000
 20
-280.105156
 11
151.000000
 21
-280.105156
  0
LINE
  8
A-CASE-1
 10
151.000000
 20
-314.105156
 11
127.000000
 21
-314.105156
  0
INSERT
  8
A-CASE-1
  2
FIXT-DishWash
 10
139.000000
 20
-324.450241
 41
1.000000
 42
1.000000
 43
 1.0
 50
0.000000
  0
LINE
  8
A-CASE-1
 10
202.000000
 20
-379.000000
 11
205.000000
 21
-379.000000
  0
LINE
  8
A-CASE-1
 10
223.000000
 20
-379.000000
 11
226.000000
 21
-379.000000
  0
LINE
  8
A-CASE-1
 10
202.000000
 20
-391.000000
 11
202.000000
 21
-379.000000
  0
LINE
  8
A-CASE-1
 10
207.000000
 20
-402.000000
 11
202.000000
 21
-397.000000
  0
LINE
  8
A-CASE-1
 10
207.000000
 20
-392.000000
 11
202.000000
 21
-397.000000
  0
LINE
  8
A-CASE-1
 10
190.000000
 20
-415.000000
 11
190.000000
 21
-412.000000
  0
LINE
  8
A-CASE-1
 10
190.000000
 20
-394.000000
 11
190.000000
 21
-391.000000
  0
LINE
  8
A-CASE-1
 10
202.000000
 20
-391.000000
 11
202.000000
 21
-394.000000
  0
LINE
  8
A-CASE-1
 10
202.000000
 20
-412.000000
 11
202.000000
 21
-415.000000
  0
LINE
  8
A-CASE-1
 10
190.000000
 20
-391.000000
 11
202.000000
 21
-391.000000
  0
LINE
  8
A-CASE-1
 10
191.000000
 20
-396.000000
 11
196.000000
 21
-391.000000
  0
LINE
  8
A-CASE-1
 10
201.000000
 20
-396.000000
 11
196.000000
 21
-391.000000
  0
LINE
  8
A-CASE-1
 10
163.000000
 20
-415.000000
 11
163.000000
 21
-391.000000
  0
LINE
  8
A-CASE-1
 10
190.000000
 20
-391.000000
 11
190.000000
 21
-394.000000
  0
LINE
  8
A-CASE-1
 10
190.000000
 20
-412.000000
 11
190.000000
 21
-415.000000
  0
LINE
  8
A-CASE-1
 10
163.000000
 20
-391.000000
 11
190.000000
 21
-391.000000
  0
LINE
  8
A-CASE-1
 10
171.500000
 20
-396.000000
 11
176.500000
 21
-391.000000
  0
LINE
  8
A-CASE-1
 10
181.500000
 20
-396.000000
 11
176.500000
 21
-391.000000
  0
INSERT
  8
A-CASE-1
  2
FIXT-SidSid36
 10
144.000000
 20
-383.728362
 41
1.000000
 42
1.000000
 43
 1.0
 50
-180.000000
  0
LINE
  8
A-CASE-1
 10
101.000000
 20
-415.000000
 11
101.000000
 21
-391.000000
  0
LINE
  8
A-CASE-1
 10
125.000000
 20
-391.000000
 11
125.000000
 21
-415.000000
  0
LINE
  8
A-CASE-1
 10
101.000000
 20
-391.000000
 11
125.000000
 21
-391.000000
  0
LINE
  8
A-CASE-1
 10
108.000000
 20
-396.000000
 11
113.000000
 21
-391.000000
  0
LINE
  8
A-CASE-1
 10
118.000000
 20
-396.000000
 11
113.000000
 21
-391.000000
  0
LINE
  8
A-CASE-1
 10
226.000000
 20
-325.000000
 11
223.000000
 21
-325.000000
  0
LINE
  8
A-CASE-1
 10
205.000000
 20
-325.000000
 11
202.000000
 21
-325.000000
  0
LINE
  8
A-CASE-1
 10
202.000000
 20
-289.000000
 11
205.000000
 21
-289.000000
  0
LINE
  8
A-CASE-1
 10
223.000000
 20
-289.000000
 11
226.000000
 21
-289.000000
  0
LINE
  8
A-CASE-1
 10
202.000000
 20
-325.000000
 11
202.000000
 21
-289.000000
  0
LINE
  8
A-CASE-1
 10
207.000000
 20
-312.000000
 11
202.000000
 21
-307.000000
  0
LINE
  8
A-CASE-1
 10
207.000000
 20
-302.000000
 11
202.000000
 21
-307.000000
  0
LINE
  8
A-CASE-1
 10
202.000000
 20
-280.105156
 11
202.000000
 21
-283.105156
  0
LINE
  8
A-CASE-1
 10
202.000000
 20
-311.105156
 11
202.000000
 21
-314.105156
  0
LINE
  8
A-CASE-1
 10
190.000000
 20
-314.105156
 11
190.000000
 21
-311.105156
  0
LINE
  8
A-CASE-1
 10
190.000000
 20
-283.105156
 11
190.000000
 21
-280.105156
  0
LINE
  8
A-CASE-1
 10
190.000000
 20
-280.105156
 11
202.000000
 21
-280.105156
  0
LINE
  8
A-CASE-1
 10
202.000000
 20
-314.105156
 11
190.000000
 21
-314.105156
  0
LINE
  8
A-CASE-1
 10
201.000000
 20
-309.105156
 11
196.000000
 21
-314.105156
  0
LINE
  8
A-CASE-1
 10
191.000000
 20
-309.105156
 11
196.000000
 21
-314.105156
  0
LINE
  8
A-CASE-1
 10
190.000000
 20
-280.105156
 11
190.000000
 21
-283.105156
  0
LINE
  8
A-CASE-1
 10
190.000000
 20
-311.105156
 11
190.000000
 21
-314.105156
  0
LINE
  8
A-CASE-1
 10
151.000000
 20
-314.105156
 11
151.000000
 21
-280.105156
  0
LINE
  8
A-CASE-1
 10
151.000000
 20
-280.105156
 11
190.000000
 21
-280.105156
  0
LINE
  8
A-CASE-1
 10
190.000000
 20
-314.105156
 11
151.000000
 21
-314.105156
  0
INSERT
  8
A-CASE-1
  2
FIXT-OffKit32
 10
170.500000
 20
-324.123905
 41
1.000000
 42
1.000000
 43
 1.0
 50
0.000000
  0
LINE
  8
A-CASE-1
 10
226.000000
 20
-349.000000
 11
223.000000
 21
-349.000000
  0
LINE
  8
A-CASE-1
 10
205.000000
 20
-349.000000
 11
202.000000
 21
-349.000000
  0
LINE
  8
A-CASE-1
 10
202.000000
 20
-325.000000
 11
205.000000
 21
-325.000000
  0
LINE
  8
A-CASE-1
 10
223.000000
 20
-325.000000
 11
226.000000
 21
-325.000000
  0
LINE
  8
A-CASE-1
 10
202.000000
 20
-349.000000
 11
202.000000
 21
-325.000000
  0
LINE
  8
A-CASE-1
 10
207.000000
 20
-342.000000
 11
202.000000
 21
-337.000000
  0
LINE
  8
A-CASE-1
 10
207.000000
 20
-332.000000
 11
202.000000
 21
-337.000000
  0
LINE
  8
A-CASE-1
 10
102.816497
 20
-290.305088
 11
104.937817
 21
-292.426408
  0
LINE
  8
A-CASE-1
 10
124.736807
 20
-312.225398
 11
126.858127
 21
-314.346719
  0
LINE
  8
A-CASE-1
 10
118.372846
 20
-322.832000
 11
116.251526
 21
-320.710680
  0
LINE
  8
A-CASE-1
 10
96.452536
 20
-300.911690
 11
94.331215
 21
-298.790369
  0
LINE
  8
A-CASE-1
 10
94.331215
 20
-298.790369
 11
102.816497
 21
-290.305088
  0
LINE
  8
A-CASE-1
 10
126.858127
 20
-314.346719
 11
118.372846
 21
-322.832000
  0
LINE
  8
A-CASE-1
 10
122.615487
 20
-311.518291
 11
122.615487
 21
-318.589359
  0
LINE
  8
A-CASE-1
 10
115.544419
 20
-318.589359
 11
122.615487
 21
-318.589359
  0
LINE
  8
A-CASE-1
 10
94.331215
 20
-298.790369
 11
96.452536
 21
-300.911690
  0
LINE
  8
A-CASE-1
 10
116.251526
 20
-320.710680
 11
118.372846
 21
-322.832000
  0
LINE
  8
A-CASE-1
 10
97.159643
 20
-344.045203
 11
95.038322
 21
-341.923883
  0
LINE
  8
A-CASE-1
 10
75.239332
 20
-322.124893
 11
73.118012
 21
-320.003573
  0
LINE
  8
A-CASE-1
 10
73.118012
 20
-320.003573
 11
94.331215
 21
-298.790369
  0
LINE
  8
A-CASE-1
 10
118.372846
 20
-322.832000
 11
97.159643
 21
-344.045203
  0
LINE
  8
A-CASE-1
 10
107.766244
 20
-326.367534
 11
107.766244
 21
-333.438602
  0
LINE
  8
A-CASE-1
 10
100.695177
 20
-333.438602
 11
107.766244
 21
-333.438602
  0
LINE
  8
A-CASE-1
 10
73.118012
 20
-320.003573
 11
75.239332
 21
-322.124893
  0
LINE
  8
A-CASE-1
 10
94.331215
 20
-341.216776
 11
96.452536
 21
-343.338097
  0
ARC
  8
A-CASE-1
 10
89.381468
 20
-336.267029
 40
10.000000
 50
225.000000
 51
315.000000
  0
ARC
  8
A-CASE-1
 10
80.189080
 20
-327.074641
 40
10.000000
 50
135.000000
 51
225.000000
  0
LINE
  8
A-CASE-1
 10
82.310400
 20
-343.338097
 11
73.118012
 21
-334.145708
  0
LINE
  8
A-CASE-1
 10
84.785274
 20
-338.741902
 11
77.714206
 21
-338.741902
  0
LINE
  8
A-CASE-1
 10
77.714206
 20
-331.670835
 11
77.714206
 21
-338.741902
  0
LINE
  8
A-CASE-1
 10
226.000000
 20
-289.000000
 11
223.000000
 21
-289.000000
  0
LINE
  8
A-CASE-1
 10
205.000000
 20
-289.000000
 11
202.000000
 21
-289.000000
  0
LINE
  8
A-CASE-1
 10
202.000000
 20
-259.000000
 11
204.000000
 21
-259.000000
  0
LINE
  8
A-CASE-1
 10
202.000000
 20
-289.000000
 11
202.000000
 21
-259.000000
  0
LINE
  8
A-CASE-1
 10
207.000000
 20
-279.000000
 11
202.000000
 21
-274.000000
  0
LINE
  8
A-CASE-1
 10
207.000000
 20
-269.000000
 11
202.000000
 21
-274.000000
  0
LINE
  8
A-CASE-1
  6
DASHED
 10
101.178365
 20
-415.000000
 11
101.178365
 21
-403.000000
  0
LINE
  8
A-CASE-1
  6
DASHED
 10
125.178365
 20
-403.000000
 11
125.178365
 21
-415.000000
  0
LINE
  8
A-CASE-1
  6
DASHED
 10
101.178365
 20
-403.000000
 11
125.178365
 21
-403.000000
  0
LINE
  8
A-CASE-1
  6
DASHED
 10
127.000000
 20
-415.000000
 11
127.000000
 21
-391.000000
  0
LINE
  8
A-CASE-1
  6
DASHED
 10
163.000000
 20
-391.000000
 11
163.000000
 21
-394.000000
  0
LINE
  8
A-CASE-1
  6
DASHED
 10
163.000000
 20
-412.000000
 11
163.000000
 21
-415.000000
  0
LINE
  8
A-CASE-1
  6
DASHED
 10
127.000000
 20
-391.000000
 11
163.000000
 21
-391.000000
  0
LINE
  8
A-CASE-1
  6
DASHED
 10
226.000000
 20
-403.000000
 11
214.000000
 21
-403.000000
  0
LINE
  8
A-CASE-1
  6
DASHED
 10
214.000000
 20
-379.000000
 11
217.000000
 21
-379.000000
  0
LINE
  8
A-CASE-1
  6
DASHED
 10
223.000000
 20
-379.000000
 11
226.000000
 21
-379.000000
  0
LINE
  8
A-CASE-1
  6
DASHED
 10
214.000000
 20
-403.000000
 11
214.000000
 21
-379.000000
  0
LINE
  8
A-CASE-1
  6
DASHED
 10
190.000000
 20
-415.000000
 11
190.000000
 21
-412.000000
  0
LINE
  8
A-CASE-1
  6
DASHED
 10
190.000000
 20
-406.000000
 11
190.000000
 21
-403.000000
  0
LINE
  8
A-CASE-1
  6
DASHED
 10
190.000000
 20
-403.000000
 11
226.000000
 21
-403.000000
  0
LINE
  8
A-CASE-1
  6
DASHED
 10
163.000000
 20
-415.000000
 11
163.000000
 21
-412.000000
  0
LINE
  8
A-CASE-1
  6
DASHED
 10
163.000000
 20
-400.000000
 11
163.000000
 21
-397.000000
  0
LINE
  8
A-CASE-1
  6
DASHED
 10
190.000000
 20
-397.000000
 11
190.000000
 21
-400.000000
  0
LINE
  8
A-CASE-1
  6
DASHED
 10
190.000000
 20
-412.000000
 11
190.000000
 21
-415.000000
  0
LINE
  8
A-CASE-1
  6
DASHED
 10
163.000000
 20
-397.000000
 11
190.000000
 21
-397.000000
  0
LINE
  8
A-CASE-1
  6
DASHED
 10
226.000000
 20
-379.000000
 11
223.000000
 21
-379.000000
  0
LINE
  8
A-CASE-1
  6
DASHED
 10
217.000000
 20
-379.000000
 11
214.000000
 21
-379.000000
  0
LINE
  8
A-CASE-1
  6
DASHED
 10
214.000000
 20
-349.000000
 11
217.000000
 21
-349.000000
  0
LINE
  8
A-CASE-1
  6
DASHED
 10
223.000000
 20
-349.000000
 11
226.000000
 21
-349.000000
  0
LINE
  8
A-CASE-1
  6
DASHED
 10
214.000000
 20
-379.000000
 11
214.000000
 21
-349.000000
  0
LINE
  8
A-CASE-1
  6
DASHED
 10
226.000000
 20
-349.000000
 11
223.000000
 21
-349.000000
  0
LINE
  8
A-CASE-1
  6
DASHED
 10
217.000000
 20
-349.000000
 11
214.000000
 21
-349.000000
  0
LINE
  8
A-CASE-1
  6
DASHED
 10
214.000000
 20
-319.000000
 11
217.000000
 21
-319.000000
  0
LINE
  8
A-CASE-1
  6
DASHED
 10
223.000000
 20
-319.000000
 11
226.000000
 21
-319.000000
  0
LINE
  8
A-CASE-1
  6
DASHED
 10
214.000000
 20
-349.000000
 11
214.000000
 21
-319.000000
  0
LINE
  8
A-CASE-1
  6
DASHED
 10
226.000000
 20
-319.000000
 11
223.000000
 21
-319.000000
  0
LINE
  8
A-CASE-1
  6
DASHED
 10
217.000000
 20
-319.000000
 11
214.000000
 21
-319.000000
  0
LINE
  8
A-CASE-1
  6
DASHED
 10
214.000000
 20
-289.000000
 11
217.000000
 21
-289.000000
  0
LINE
  8
A-CASE-1
  6
DASHED
 10
223.000000
 20
-289.000000
 11
226.000000
 21
-289.000000
  0
LINE
  8
A-CASE-1
  6
DASHED
 10
214.000000
 20
-319.000000
 11
214.000000
 21
-289.000000
  0
INSERT
  8
A-FURN-1
  2
FIXT-rndc42
 10
130.217221
 20
-241.250794
 41
1.000000
 42
1.000000
 43
 1.0
 50
-45.000000
  0
LINE
  8
A-CASE-1
  6
DASHED
 10
226.000000
 20
-289.000000
 11
223.000000
 21
-289.000000
  0
LINE
  8
A-CASE-1
  6
DASHED
 10
217.000000
 20
-289.000000
 11
214.000000
 21
-289.000000
  0
LINE
  8
A-CASE-1
  6
DASHED
 10
214.000000
 20
-289.000000
 11
214.000000
 21
-259.000000
  0
LINE
  8
A-CASE-1
 10
103.523604
 20
-291.012195
 11
101.402283
 21
-288.890874
  0
LINE
  8
A-CASE-1
 10
104.937817
 20
-292.426408
 11
102.816497
 21
-290.305088
  0
LINE
  8
A-CASE-1
 10
113.423099
 20
-279.698486
 11
115.544419
 21
-281.819807
  0
LINE
  8
A-CASE-1
 10
112.008885
 20
-278.284273
 11
114.130205
 21
-280.405593
  0
LINE
  8
A-CASE-1
 10
114.130205
 20
-280.405593
 11
103.523604
 21
-291.012195
  0
LINE
  8
A-CASE-1
 10
102.816497
 20
-290.305088
 11
113.423099
 21
-279.698486
  0
LINE
  8
A-CASE-1
 10
108.119798
 20
-292.072855
 11
108.119798
 21
-285.001787
  0
LINE
  8
A-CASE-1
 10
115.190866
 20
-285.001787
 11
108.119798
 21
-285.001787
  0
LINE
  8
A-CASE-1
 10
112.000000
 20
-281.105156
 11
112.000000
 21
-278.105156
  0
LINE
  8
A-CASE-1
 10
112.000000
 20
-283.105156
 11
112.000000
 21
-280.105156
  0
LINE
  8
A-CASE-1
 10
127.000000
 20
-280.105156
 11
127.000000
 21
-281.105156
  0
LINE
  8
A-CASE-1
 10
127.000000
 20
-281.105156
 11
112.000000
 21
-281.105156
  0
LINE
  8
A-CASE-1
 10
112.000000
 20
-280.105156
 11
127.000000
 21
-280.105156
  0
LINE
  8
A-CASE-1
 10
114.500000
 20
-285.105156
 11
119.500000
 21
-280.105156
  0
LINE
  8
A-CASE-1
 10
124.500000
 20
-285.105156
 11
119.500000
 21
-280.105156
  0
TEXT
  8
A-NOTE-1
 10
-34.482395
 20
-583.226726
 40
5.183399
  1
LANDING
  7
STANDARD
  0
TEXT
  8
A-NOTE-1
 10
-27.099674
 20
-590.798600
 40
3.923777
  1
3'2 x 3'2
  7
STANDARD
  0
TEXT
  8
A-NOTE-1
 10
-3.694208
 20
-396.781934
 40
4.146719
  1
CLOSET
  7
STANDARD
  0
TEXT
  8
A-NOTE-1
 10
-0.795212
 20
-403.512167
 40
3.433305
  1
3'10 x 1'3
  7
STANDARD
  0
TEXT
  8
A-NOTE-1
 10
-241.437980
 20
-370.134783
 40
9.330118
  1
LIVING ROOM
  7
STANDARD
  0
TEXT
  8
A-NOTE-1
 10
-217.348846
 20
-383.674689
 40
7.357082
  1
13' x 17'5
  7
STANDARD
  0
TEXT
  8
A-NOTE-1
 10
63.975893
 20
-710.671827
 40
9.330118
  1
GARAGE
  7
STANDARD
  0
TEXT
  8
A-NOTE-1
 10
71.521228
 20
-724.211733
 40
7.357082
  1
22' x 22'4
  7
STANDARD
  0
TEXT
  8
A-NOTE-1
 10
-89.904701
 20
-888.662647
 40
9.330118
  1
LIVING AREA
  7
STANDARD
  0
TEXT
  8
A-NOTE-1
 10
-70.077723
 20
-902.202553
 40
7.357082
  1
1761 sq ft
  7
STANDARD
  0
TEXT
  8
A-NOTE-1
 10
85.641201
 20
-502.662647
 40
9.330118
  1
DINING ROOM
  7
STANDARD
  0
TEXT
  8
A-NOTE-1
 10
111.427135
 20
-516.202553
 40
7.357082
  1
15'4 x 12'
  7
STANDARD
  0
TEXT
  8
A-NOTE-1
 10
44.039305
 20
-402.283961
 40
3.628379
  1
CHASE
  7
STANDARD
  0
TEXT
  8
A-NOTE-1
 10
47.732693
 20
-406.911538
 40
2.452361
  1
1'7 x 2'
  7
STANDARD
  0
TEXT
  8
A-NOTE-1
 10
2.069581
 20
-358.379374
 40
9.330118
  1
KITCHEN
  7
STANDARD
  0
TEXT
  8
A-NOTE-1
 10
13.473031
 20
-371.919280
 40
7.357082
  1
28' x 13'
  7
STANDARD
  0
TEXT
  8
A-NOTE-1
 10
-78.458781
 20
-245.008112
 40
9.330118
  1
FAMILY ROOM
  7
STANDARD
  0
TEXT
  8
A-NOTE-1
 10
-49.451031
 20
-258.548018
 40
7.357082
  1
15' x 20'
  7
STANDARD
  0
TEXT
  8
A-NOTE-1
 10
-133.805915
 20
-750.646091
 40
9.330118
  1
PORCH
  7
STANDARD
  0
TEXT
  8
A-NOTE-1
 10
-124.907350
 20
-764.185997
 40
7.357082
  1
11' x 4'
  7
STANDARD
  0
TEXT
  8
A-NOTE-1
 10
12.050616
 20
-543.475720
 40
5.183399
  1
BATH
  7
STANDARD
  0
TEXT
  8
A-NOTE-1
 10
15.614099
 20
-551.047594
 40
3.923777
  1
4' x 6'
  7
STANDARD
  0
TEXT
  8
A-NOTE-1
 10
-222.426777
 20
-536.393663
 40
5.183399
  1
OPEN ABOVE
  7
STANDARD
  0
TEXT
  8
A-NOTE-1
 10
-211.375601
 20
-543.965536
 40
3.923777
  1
7'11 x 10'11
  7
STANDARD
  0
TEXT
  8
A-NOTE-1
 10
95.716301
 20
-227.162647
 40
9.330118
  1
BREAKFAST
  7
STANDARD
  0
TEXT
  8
A-NOTE-1
 10
108.907704
 20
-240.702553
 40
7.357082
  1
10'10 x 6'10
  7
STANDARD
  0
TEXT
  8
A-NOTE-1
 10
-26.158190
 20
-437.828285
 40
7.256758
  1
ELEVATOR
  7
STANDARD
  0
TEXT
  8
A-NOTE-1
 10
-16.315548
 20
-447.696529
 40
5.395193
  1
5'10 x 4'10
  7
STANDARD
  0
TEXT
  8
A-NOTE-1
 10
-129.618964
 20
-583.521127
 40
9.330118
  1
FOYER
  7
STANDARD
  0
TEXT
  8
A-NOTE-1
 10
-131.234245
 20
-597.061033
 40
7.357082
  1
10'8 x 25'6
  7
STANDARD
  0
TEXT
  8
A-NOTE-1
 10
-24.646000
 20
-496.513807
 40
7.256758
  1
HALL
  7
STANDARD
  0
TEXT
  8
A-NOTE-1
 10
-27.948235
 20
-506.382051
 40
5.395193
  1
5'10 x 4'2
  7
STANDARD
  0
TEXT
  8
A-NOTE-1
 10
-271.707178
 20
-717.069861
 40
9.330118
  1
STUDY
  7
STANDARD
  0
TEXT
  8
A-NOTE-1
 10
-273.534559
 20
-730.609767
 40
7.357082
  1
11'8 x 15'6
  7
STANDARD
  0
TEXT
  8
A-NOTE-1
 10
-35.692041
 20
-545.821213
 40
3.628379
  1
CLOSET
  7
STANDARD
  0
TEXT
  8
A-NOTE-1
 10
-30.463452
 20
-550.448790
 40
2.452361
  1
2' x 3'1
  7
STANDARD
  0
TEXT
  8
A-TEXT-1
 10
127.403686
 20
-294.906886
 40
3.110039
  1
dishwasher
  7
STANDARD
  0
TEXT
  8
A-TEXT-1
 10
135.068835
 20
-289.788025
 40
3.110039
  1
24"
  7
STANDARD
  0
TEXT
  8
A-TEXT-1
 10
204.884113
 20
-390.303840
 40
3.110039
  1
36" x 36"
  7
STANDARD
  0
TEXT
  8
A-TEXT-1
 10
191.388934
 20
-296.458056
 40
3.110039
  1
36" x 36"
  7
STANDARD
  0
TEXT
  8
A-TEXT-1
 10
200.230603
 20
-407.521826
 40
3.110039
  1
36" x 36"
  7
STANDARD
  0
TEXT
  8
A-TEXT-1
 10
198.034673
 20
-412.330453
 40
3.110039
  1
corner upper
  7
STANDARD
  0
TEXT
  8
A-TEXT-1
 10
202.847530
 20
-374.171672
 40
3.110039
  1
range hood
  7
STANDARD
  0
TEXT
  8
A-TEXT-1
 10
202.053998
 20
-369.518162
 40
3.110039
  1
30" upper w/
  7
STANDARD
  0
TEXT
  8
A-TEXT-1
 10
205.262932
 20
-283.893579
 40
3.110039
  1
30" upper
  7
STANDARD
  0
TEXT
  8
A-TEXT-1
 10
205.262932
 20
-312.279990
 40
3.110039
  1
30" upper
  7
STANDARD
  0
TEXT
  8
A-TEXT-1
 10
205.418049
 20
-342.838038
 40
3.110039
  1
30" upper
  7
STANDARD
  0
TEXT
  8
A-TEXT-1
 10
203.317111
 20
-357.108802
 40
3.110039
  1
30" range
  7
STANDARD
  0
TEXT
  8
A-TEXT-1
 10
24.280432
 20
-330.428679
 40
3.110039
  1
separately)
  7
STANDARD
  0
TEXT
  8
A-TEXT-1
 10
22.460179
 20
-324.844467
 40
3.110039
  1
(purchased
  7
STANDARD
  0
TEXT
  8
A-TEXT-1
 10
26.887871
 20
-319.725606
 40
3.110039
  1
on this side
  7
STANDARD
  0
TEXT
  8
A-TEXT-1
 10
31.165704
 20
-314.916979
 40
3.110039
  1
10" bookcases
  7
STANDARD
  0
TEXT
  8
A-TEXT-1
 10
72.738148
 20
-294.286418
 40
3.110039
  1
overhang
  7
STANDARD
  0
TEXT
  8
A-TEXT-1
 10
70.915658
 20
-357.108802
 40
3.110039
  1
on the 10" overhang at this end
  7
STANDARD
  0
TEXT
  8
A-TEXT-1
 10
71.453825
 20
-351.834824
 40
3.110039
  1
Some kind of rounded corners
  7
STANDARD
  0
TEXT
  8
A-TEXT-1
 10
75.523909
 20
-288.391972
 40
3.110039
  1
10" counter
  7
STANDARD
  0
TEXT
  8
A-TEXT-1
 10
63.495483
 20
-300.025747
 40
3.110039
  1
on this side
  7
STANDARD
  0
TEXT
  8
A-TEXT-1
 10
122.647692
 20
-277.378665
 40
3.110039
  1
10" counter overhang on this side
  7
STANDARD
  0
TEXT
  8
A-TEXT-1
 10
170.191746
 20
-414.657208
 40
3.110039
  1
shelf
  7
STANDARD
  0
TEXT
  8
A-TEXT-1
 10
165.480165
 20
-410.469049
 40
3.110039
  1
microwave
  7
STANDARD
  0
TEXT
  8
A-TEXT-1
 10
165.552981
 20
-401.317147
 40
3.110039
  1
27" upper
  7
STANDARD
  0
TEXT
  8
A-TEXT-1
 10
164.588500
 20
-406.436008
 40
3.110039
  1
18" deep w/
  7
STANDARD
  0
TEXT
  8
A-TEXT-1
 10
133.671694
 20
-403.643902
 40
3.110039
  1
24" deep
  7
STANDARD
  0
TEXT
  8
A-TEXT-1
 10
130.896447
 20
-397.904573
 40
3.110039
  1
36-38" upper
  7
STANDARD
  0
TEXT
  8
A-TEXT-1
 10
194.503903
 20
-395.422701
 40
3.110039
  1
corner base w/
  7
STANDARD
  0
TEXT
  8
A-TEXT-1
 10
191.476494
 20
-306.540661
 40
3.110039
  1
open shelves
  7
STANDARD
  0
TEXT
  8
A-TEXT-1
 10
202.087777
 20
-400.076211
 40
3.110039
  1
lazy susan
  7
STANDARD
  0
TEXT
  8
A-TEXT-1
 10
191.401563
 20
-301.421800
 40
3.110039
  1
corner base w/
  7
STANDARD
  0
TEXT
  8
A-TEXT-1
 10
103.040830
 20
-410.313932
 40
3.110039
  1
24" upper
  7
STANDARD
  0
TEXT
  8
A-TEXT-1
 10
204.165511
 20
-331.204264
 40
3.110039
  1
24" base
  7
STANDARD
  0
TEXT
  8
A-TEXT-1
 10
157.081671
 20
-287.151036
 40
3.110039
  1
39" sink base
  7
STANDARD
  0
TEXT
  8
A-TEXT-1
 10
102.253643
 20
-308.246948
 40
3.110039
  1
12" base
  7
STANDARD
  0
TEXT
  8
A-TEXT-1
 10
104.270164
 20
-395.888052
 40
3.110039
  1
24" base
  7
STANDARD
  0
TEXT
  8
A-TEXT-1
 10
166.937431
 20
-395.267584
 40
3.110039
  1
27" base
  7
STANDARD
  0
TEXT
  8
A-TEXT-1
 10
205.561564
 20
-265.900008
 40
3.110039
  1
30" base
  7
STANDARD
  0
TEXT
  8
A-TEXT-1
 10
85.811242
 20
-322.362595
 40
3.110039
  1
30" base
  7
STANDARD
  0
TEXT
  8
A-TEXT-1
 10
-393.523301
 20
-50.580585
 40
7.256758
  1
Strang/Smith 12/6/2000
  7
STANDARD
  0
LINE
  8
A-DIMS-1
 10
-13.227506
 20
-344.097546
 11
-11.727506
 21
-341.097546
  0
LINE
  8
A-DIMS-1
 10
-10.227506
 20
-384.000001
 11
-11.727506
 21
-387.000001
  0
LINE
  8
A-DIMS-1
 10
-11.727506
 20
-351.630354
 11
-11.727506
 21
-341.097546
  0
LINE
  8
A-DIMS-1
 10
-11.727506
 20
-376.467194
 11
-11.727506
 21
-387.000001
  0
TEXT
  8
A-DIMS-1
 10
-9.052203
 20
-373.679863
 40
5.598071
  1
3'9"7
 50
90.000000
  7
STANDARD
  0
LINE
  8
A-DIMS-1
 10
-289.581470
 20
-601.380532
 11
-312.915994
 21
-578.046008
  0
LINE
  8
A-DIMS-1
 10
-313.976654
 20
-581.227989
 11
-310.794674
 21
-580.167329
  0
LINE
  8
A-DIMS-1
 10
-312.508228
 20
-614.407795
 11
-330.893005
 21
-596.023019
  0
LINE
  8
A-DIMS-1
 10
-331.953665
 20
-599.204999
 11
-328.771684
 21
-598.144339
  0
LINE
  8
A-DIMS-1
 10
-325.589704
 20
-597.083679
 11
-328.771684
 21
-598.144339
  0
LINE
  8
A-DIMS-1
 10
-311.002030
 20
-580.374685
 11
-310.794674
 21
-580.167329
  0
LINE
  8
A-DIMS-1
 10
-328.564328
 20
-597.936983
 11
-328.771684
 21
-598.144339
  0
TEXT
  8
A-DIMS-1
 10
-324.701663
 20
-597.857767
 40
5.598071
  1
2'1"3
 50
45.000000
  7
STANDARD
  0
LINE
  8
A-DIMS-1
 10
-325.591740
 20
-637.390802
 11
-348.926264
 21
-614.056278
  0
LINE
  8
A-DIMS-1
 10
-343.622963
 20
-615.116939
 11
-346.804944
 21
-616.177599
  0
LINE
  8
A-DIMS-1
 10
-329.007165
 20
-598.379820
 11
-328.771684
 21
-598.144339
  0
LINE
  8
A-DIMS-1
 10
-346.569463
 20
-615.942118
 11
-346.804944
 21
-616.177599
  0
TEXT
  8
A-DIMS-1
 10
-342.706798
 20
-615.862902
 40
5.598071
  1
2'1"4
 50
45.000000
  7
STANDARD
  0
LINE
  8
A-DIMS-1
 10
-315.037314
 20
-575.924688
 11
-325.643916
 21
-565.318086
  0
LINE
  8
A-DIMS-1
 10
-326.704576
 20
-568.500067
 11
-323.522596
 21
-567.439407
  0
LINE
  8
A-DIMS-1
 10
-351.047585
 20
-611.934958
 11
-361.654186
 21
-601.328356
  0
LINE
  8
A-DIMS-1
 10
-356.350885
 20
-602.389016
 11
-359.532866
 21
-603.449677
  0
LINE
  8
A-DIMS-1
 10
-332.746582
 20
-576.663393
 11
-323.522596
 21
-567.439407
  0
LINE
  8
A-DIMS-1
 10
-350.308880
 20
-594.225691
 11
-359.532866
 21
-603.449677
  0
TEXT
  8
A-DIMS-1
 10
-346.446215
 20
-594.146475
 40
5.598071
  1
4'2"7
 50
45.000000
  7
STANDARD
  0
LINE
  8
A-DIMS-1
 10
-277.037000
 20
-255.000000
 11
-360.037000
 21
-255.000000
  0
LINE
  8
A-DIMS-1
 10
-358.537000
 20
-258.000000
 11
-357.037000
 21
-255.000000
  0
LINE
  8
A-DIMS-1
 10
-286.037000
 20
-296.000001
 11
-360.037000
 21
-296.000001
  0
LINE
  8
A-DIMS-1
 10
-358.537000
 20
-299.000001
 11
-357.037000
 21
-296.000001
  0
LINE
  8
A-DIMS-1
 10
-355.537000
 20
-293.000001
 11
-357.037000
 21
-296.000001
  0
LINE
  8
A-DIMS-1
 10
-357.037000
 20
-267.094534
 11
-357.037000
 21
-255.000000
  0
LINE
  8
A-DIMS-1
 10
-357.037000
 20
-283.905467
 11
-357.037000
 21
-296.000001
  0
TEXT
  8
A-DIMS-1
 10
-354.361697
 20
-281.118136
 40
5.598071
  1
3'5
 50
90.000000
  7
STANDARD
  0
LINE
  8
A-DIMS-1
 10
-286.037000
 20
-431.999997
 11
-360.037000
 21
-431.999997
  0
LINE
  8
A-DIMS-1
 10
-358.537000
 20
-434.999997
 11
-357.037000
 21
-431.999997
  0
LINE
  8
A-DIMS-1
 10
-355.537000
 20
-428.999997
 11
-357.037000
 21
-431.999997
  0
LINE
  8
A-DIMS-1
 10
-357.037000
 20
-353.186761
 11
-357.037000
 21
-296.000001
  0
LINE
  8
A-DIMS-1
 10
-357.037000
 20
-374.813238
 11
-357.037000
 21
-431.999997
  0
TEXT
  8
A-DIMS-1
 10
-354.361697
 20
-372.025907
 40
5.598071
  1
11'4
 50
90.000000
  7
STANDARD
  0
LINE
  8
A-DIMS-1
 10
-277.037000
 20
-469.999997
 11
-360.037000
 21
-469.999997
  0
LINE
  8
A-DIMS-1
 10
-358.537000
 20
-472.999997
 11
-357.037000
 21
-469.999997
  0
LINE
  8
A-DIMS-1
 10
-355.537000
 20
-466.999997
 11
-357.037000
 21
-469.999997
  0
LINE
  8
A-DIMS-1
 10
-357.037000
 20
-442.594531
 11
-357.037000
 21
-431.999997
  0
LINE
  8
A-DIMS-1
 10
-357.037000
 20
-459.405463
 11
-357.037000
 21
-469.999997
  0
TEXT
  8
A-DIMS-1
 10
-354.361697
 20
-456.618132
 40
5.598071
  1
3'2
 50
90.000000
  7
STANDARD
  0
LINE
  8
A-DIMS-1
 10
-286.037000
 20
-538.999997
 11
-360.037000
 21
-538.999997
  0
LINE
  8
A-DIMS-1
 10
-358.537000
 20
-541.999997
 11
-357.037000
 21
-538.999997
  0
LINE
  8
A-DIMS-1
 10
-355.537000
 20
-535.999997
 11
-357.037000
 21
-538.999997
  0
LINE
  8
A-DIMS-1
 10
-357.037000
 20
-496.094531
 11
-357.037000
 21
-469.999997
  0
LINE
  8
A-DIMS-1
 10
-357.037000
 20
-512.905463
 11
-357.037000
 21
-538.999997
  0
TEXT
  8
A-DIMS-1
 10
-354.361697
 20
-510.118132
 40
5.598071
  1
5'9
 50
90.000000
  7
STANDARD
  0
LINE
  8
A-DIMS-1
 10
-290.037000
 20
-604.999997
 11
-360.037000
 21
-604.999997
  0
LINE
  8
A-DIMS-1
 10
-355.537000
 20
-601.999997
 11
-357.037000
 21
-604.999997
  0
LINE
  8
A-DIMS-1
 10
-357.037000
 20
-563.594531
 11
-357.037000
 21
-538.999997
  0
LINE
  8
A-DIMS-1
 10
-357.037000
 20
-580.405463
 11
-357.037000
 21
-604.999997
  0
TEXT
  8
A-DIMS-1
 10
-354.361697
 20
-577.618132
 40
5.598071
  1
5'6
 50
90.000000
  7
STANDARD
  0
LINE
  8
A-DIMS-1
 10
-327.037000
 20
-641.020993
 11
-360.037000
 21
-641.020993
  0
LINE
  8
A-DIMS-1
 10
-358.537000
 20
-644.020993
 11
-357.037000
 21
-641.020993
  0
LINE
  8
A-DIMS-1
 10
-334.037000
 20
-770.999997
 11
-360.037000
 21
-770.999997
  0
LINE
  8
A-DIMS-1
 10
-358.537000
 20
-773.999997
 11
-357.037000
 21
-770.999997
  0
LINE
  8
A-DIMS-1
 10
-355.537000
 20
-767.999997
 11
-357.037000
 21
-770.999997
  0
LINE
  8
A-DIMS-1
 10
-357.037000
 20
-692.789484
 11
-357.037000
 21
-641.020993
  0
LINE
  8
A-DIMS-1
 10
-357.037000
 20
-719.231505
 11
-357.037000
 21
-770.999997
  0
TEXT
  8
A-DIMS-1
 10
-354.361697
 20
-716.444175
 40
5.598071
  1
10'10
 50
90.000000
  7
STANDARD
  0
LINE
  8
A-DIMS-1
 10
-325.037000
 20
-798.999997
 11
-360.037000
 21
-798.999997
  0
LINE
  8
A-DIMS-1
 10
-355.537000
 20
-795.999997
 11
-357.037000
 21
-798.999997
  0
LINE
  8
A-DIMS-1
 10
-357.037000
 20
-776.594530
 11
-357.037000
 21
-770.999997
  0
LINE
  8
A-DIMS-1
 10
-357.037000
 20
-793.405463
 11
-357.037000
 21
-798.999997
  0
TEXT
  8
A-DIMS-1
 10
-354.361697
 20
-790.618132
 40
5.598071
  1
2'4
 50
90.000000
  7
STANDARD
  0
LINE
  8
A-DIMS-1
 10
-362.037000
 20
-255.000000
 11
-378.037000
 21
-255.000000
  0
LINE
  8
A-DIMS-1
 10
-376.537000
 20
-258.000000
 11
-375.037000
 21
-255.000000
  0
LINE
  8
A-DIMS-1
 10
-362.037000
 20
-469.999997
 11
-378.037000
 21
-469.999997
  0
LINE
  8
A-DIMS-1
 10
-376.537000
 20
-472.999997
 11
-375.037000
 21
-469.999997
  0
LINE
  8
A-DIMS-1
 10
-373.537000
 20
-466.999997
 11
-375.037000
 21
-469.999997
  0
LINE
  8
A-DIMS-1
 10
-375.037000
 20
-349.278988
 11
-375.037000
 21
-255.000000
  0
LINE
  8
A-DIMS-1
 10
-375.037000
 20
-375.721009
 11
-375.037000
 21
-469.999997
  0
TEXT
  8
A-DIMS-1
 10
-372.361697
 20
-372.933678
 40
5.598071
  1
17'11
 50
90.000000
  7
STANDARD
  0
LINE
  8
A-DIMS-1
 10
-362.037000
 20
-604.999997
 11
-378.037000
 21
-604.999997
  0
LINE
  8
A-DIMS-1
 10
-376.537000
 20
-607.999997
 11
-375.037000
 21
-604.999997
  0
LINE
  8
A-DIMS-1
 10
-373.537000
 20
-601.999997
 11
-375.037000
 21
-604.999997
  0
LINE
  8
A-DIMS-1
 10
-375.037000
 20
-526.686759
 11
-375.037000
 21
-469.999997
  0
LINE
  8
A-DIMS-1
 10
-375.037000
 20
-548.313236
 11
-375.037000
 21
-604.999997
  0
TEXT
  8
A-DIMS-1
 10
-372.361697
 20
-545.525905
 40
5.598071
  1
11'3
 50
90.000000
  7
STANDARD
  0
LINE
  8
A-DIMS-1
 10
-362.037000
 20
-641.020993
 11
-378.037000
 21
-641.020993
  0
LINE
  8
A-DIMS-1
 10
-376.537000
 20
-644.020993
 11
-375.037000
 21
-641.020993
  0
LINE
  8
A-DIMS-1
 10
-373.537000
 20
-638.020993
 11
-375.037000
 21
-641.020993
  0
LINE
  8
A-DIMS-1
 10
-375.037000
 20
-617.012801
 11
-375.037000
 21
-604.999997
  0
LINE
  8
A-DIMS-1
 10
-375.037000
 20
-629.008189
 11
-375.037000
 21
-641.020993
  0
TEXT
  8
A-DIMS-1
 10
-372.361697
 20
-626.220858
 40
5.598071
  1
3'
 50
90.000000
  7
STANDARD
  0
LINE
  8
A-DIMS-1
 10
-362.037000
 20
-798.999997
 11
-378.037000
 21
-798.999997
  0
LINE
  8
A-DIMS-1
 10
-373.537000
 20
-795.999997
 11
-375.037000
 21
-798.999997
  0
LINE
  8
A-DIMS-1
 10
-375.037000
 20
-709.197257
 11
-375.037000
 21
-641.020993
  0
LINE
  8
A-DIMS-1
 10
-375.037000
 20
-730.823734
 11
-375.037000
 21
-798.999997
  0
TEXT
  8
A-DIMS-1
 10
-372.361697
 20
-728.036403
 40
5.598071
  1
13'2
 50
90.000000
  7
STANDARD
  0
LINE
  8
A-DIMS-1
 10
-172.037000
 20
-95.000000
 11
-396.037000
 21
-95.000000
  0
LINE
  8
A-DIMS-1
 10
-394.537000
 20
-98.000000
 11
-393.037000
 21
-95.000000
  0
LINE
  8
A-DIMS-1
 10
-82.037000
 20
-839.000000
 11
-396.037000
 21
-839.000000
  0
LINE
  8
A-DIMS-1
 10
-391.537000
 20
-836.000000
 11
-393.037000
 21
-839.000000
  0
LINE
  8
A-DIMS-1
 10
-393.037000
 20
-458.594534
 11
-393.037000
 21
-95.000000
  0
LINE
  8
A-DIMS-1
 10
-393.037000
 20
-475.405466
 11
-393.037000
 21
-839.000000
  0
TEXT
  8
A-DIMS-1
 10
-390.361697
 20
-472.618135
 40
5.598071
  1
62'
 50
90.000000
  7
STANDARD
  0
LINE
  8
A-DIMS-1
 10
-117.037000
 20
-95.000000
 11
-152.037000
 21
-95.000000
  0
LINE
  8
A-DIMS-1
 10
-150.537000
 20
-98.000000
 11
-149.037000
 21
-95.000000
  0
LINE
  8
A-DIMS-1
 10
-126.037000
 20
-123.000000
 11
-152.037000
 21
-123.000000
  0
LINE
  8
A-DIMS-1
 10
-150.537000
 20
-126.000000
 11
-149.037000
 21
-123.000000
  0
LINE
  8
A-DIMS-1
 10
-147.537000
 20
-120.000000
 11
-149.037000
 21
-123.000000
  0
LINE
  8
A-DIMS-1
 10
-149.037000
 20
-100.594534
 11
-149.037000
 21
-95.000000
  0
LINE
  8
A-DIMS-1
 10
-149.037000
 20
-117.405466
 11
-149.037000
 21
-123.000000
  0
TEXT
  8
A-DIMS-1
 10
-146.361697
 20
-114.618135
 40
5.598071
  1
2'4
 50
90.000000
  7
STANDARD
  0
LINE
  8
A-DIMS-1
 10
-147.537000
 20
-252.000000
 11
-149.037000
 21
-255.000000
  0
LINE
  8
A-DIMS-1
 10
-149.037000
 20
-180.594534
 11
-149.037000
 21
-123.000000
  0
LINE
  8
A-DIMS-1
 10
-149.037000
 20
-197.405466
 11
-149.037000
 21
-255.000000
  0
TEXT
  8
A-DIMS-1
 10
-146.361697
 20
-194.618135
 40
5.598071
  1
11'
 50
90.000000
  7
STANDARD
  0
LINE
  8
A-DIMS-1
 10
-154.037000
 20
-95.000000
 11
-170.037000
 21
-95.000000
  0
LINE
  8
A-DIMS-1
 10
-168.537000
 20
-98.000000
 11
-167.037000
 21
-95.000000
  0
LINE
  8
A-DIMS-1
 10
-165.537000
 20
-252.000000
 11
-167.037000
 21
-255.000000
  0
LINE
  8
A-DIMS-1
 10
-167.037000
 20
-164.186762
 11
-167.037000
 21
-95.000000
  0
LINE
  8
A-DIMS-1
 10
-167.037000
 20
-185.813238
 11
-167.037000
 21
-255.000000
  0
TEXT
  8
A-DIMS-1
 10
-164.361697
 20
-183.025908
 40
5.598071
  1
13'4
 50
90.000000
  7
STANDARD
  0
LINE
  8
A-DIMS-1
 10
-78.537000
 20
-778.000000
 11
-77.037000
 21
-775.000000
  0
LINE
  8
A-DIMS-1
 10
-45.037000
 20
-839.000000
 11
-80.037000
 21
-839.000000
  0
LINE
  8
A-DIMS-1
 10
-75.537000
 20
-836.000000
 11
-77.037000
 21
-839.000000
  0
LINE
  8
A-DIMS-1
 10
-77.037000
 20
-798.594534
 11
-77.037000
 21
-775.000000
  0
LINE
  8
A-DIMS-1
 10
-77.037000
 20
-815.405466
 11
-77.037000
 21
-839.000000
  0
TEXT
  8
A-DIMS-1
 10
-74.361697
 20
-812.618135
 40
5.598071
  1
5'4
 50
90.000000
  7
STANDARD
  0
LINE
  8
A-DIMS-1
 10
206.000000
 20
-167.642194
 11
206.000000
 21
-37.642194
  0
LINE
  8
A-DIMS-1
 10
203.000000
 20
-39.142194
 11
206.000000
 21
-40.642194
  0
LINE
  8
A-DIMS-1
 10
172.000000
 20
-158.642194
 11
172.000000
 21
-37.642194
  0
LINE
  8
A-DIMS-1
 10
169.000000
 20
-39.142194
 11
172.000000
 21
-40.642194
  0
LINE
  8
A-DIMS-1
 10
175.000000
 20
-42.142194
 11
172.000000
 21
-40.642194
  0
LINE
  8
A-DIMS-1
 10
199.813238
 20
-40.642194
 11
206.000000
 21
-40.642194
  0
LINE
  8
A-DIMS-1
 10
178.186762
 20
-40.642194
 11
172.000000
 21
-40.642194
  0
TEXT
  8
A-DIMS-1
 10
180.974092
 20
-43.317497
 40
5.598071
  1
2'10
  7
STANDARD
  0
LINE
  8
A-DIMS-1
 10
124.000000
 20
-158.642194
 11
124.000000
 21
-37.642194
  0
LINE
  8
A-DIMS-1
 10
121.000000
 20
-39.142194
 11
124.000000
 21
-40.642194
  0
LINE
  8
A-DIMS-1
 10
127.000000
 20
-42.142194
 11
124.000000
 21
-40.642194
  0
LINE
  8
A-DIMS-1
 10
153.997694
 20
-40.642194
 11
172.000000
 21
-40.642194
  0
LINE
  8
A-DIMS-1
 10
142.002306
 20
-40.642194
 11
124.000000
 21
-40.642194
  0
TEXT
  8
A-DIMS-1
 10
144.789637
 20
-43.317497
 40
5.598071
  1
4'
  7
STANDARD
  0
LINE
  8
A-DIMS-1
 10
74.000000
 20
-91.642194
 11
74.000000
 21
-37.642194
  0
LINE
  8
A-DIMS-1
 10
71.000000
 20
-39.142194
 11
74.000000
 21
-40.642194
  0
LINE
  8
A-DIMS-1
 10
77.000000
 20
-42.142194
 11
74.000000
 21
-40.642194
  0
LINE
  8
A-DIMS-1
 10
107.405466
 20
-40.642194
 11
124.000000
 21
-40.642194
  0
LINE
  8
A-DIMS-1
 10
90.594534
 20
-40.642194
 11
74.000000
 21
-40.642194
  0
TEXT
  8
A-DIMS-1
 10
93.381865
 20
-43.317497
 40
5.598071
  1
4'2
  7
STANDARD
  0
LINE
  8
A-DIMS-1
 10
40.000000
 20
-82.642194
 11
40.000000
 21
-37.642194
  0
LINE
  8
A-DIMS-1
 10
37.000000
 20
-39.142194
 11
40.000000
 21
-40.642194
  0
LINE
  8
A-DIMS-1
 10
43.000000
 20
-42.142194
 11
40.000000
 21
-40.642194
  0
LINE
  8
A-DIMS-1
 10
67.813238
 20
-40.642194
 11
74.000000
 21
-40.642194
  0
LINE
  8
A-DIMS-1
 10
46.186762
 20
-40.642194
 11
40.000000
 21
-40.642194
  0
TEXT
  8
A-DIMS-1
 10
48.974092
 20
-43.317497
 40
5.598071
  1
2'10
  7
STANDARD
  0
LINE
  8
A-DIMS-1
 10
-80.000000
 20
-82.642194
 11
-80.000000
 21
-37.642194
  0
LINE
  8
A-DIMS-1
 10
-83.000000
 20
-39.142194
 11
-80.000000
 21
-40.642194
  0
LINE
  8
A-DIMS-1
 10
-77.000000
 20
-42.142194
 11
-80.000000
 21
-40.642194
  0
LINE
  8
A-DIMS-1
 10
-11.594534
 20
-40.642194
 11
40.000000
 21
-40.642194
  0
LINE
  8
A-DIMS-1
 10
-28.405466
 20
-40.642194
 11
-80.000000
 21
-40.642194
  0
TEXT
  8
A-DIMS-1
 10
-25.618135
 20
-43.317497
 40
5.598071
  1
10'
  7
STANDARD
  0
LINE
  8
A-DIMS-1
 10
-114.000000
 20
-91.642194
 11
-114.000000
 21
-37.642194
  0
LINE
  8
A-DIMS-1
 10
-117.000000
 20
-39.142194
 11
-114.000000
 21
-40.642194
  0
LINE
  8
A-DIMS-1
 10
-111.000000
 20
-42.142194
 11
-114.000000
 21
-40.642194
  0
LINE
  8
A-DIMS-1
 10
-86.186762
 20
-40.642194
 11
-80.000000
 21
-40.642194
  0
LINE
  8
A-DIMS-1
 10
-107.813238
 20
-40.642194
 11
-114.000000
 21
-40.642194
  0
TEXT
  8
A-DIMS-1
 10
-105.025908
 20
-43.317497
 40
5.598071
  1
2'10
  7
STANDARD
  0
LINE
  8
A-DIMS-1
 10
-194.000000
 20
-215.642194
 11
-194.000000
 21
-37.642194
  0
LINE
  8
A-DIMS-1
 10
-197.000000
 20
-39.142194
 11
-194.000000
 21
-40.642194
  0
LINE
  8
A-DIMS-1
 10
-191.000000
 20
-42.142194
 11
-194.000000
 21
-40.642194
  0
LINE
  8
A-DIMS-1
 10
-145.594534
 20
-40.642194
 11
-114.000000
 21
-40.642194
  0
LINE
  8
A-DIMS-1
 10
-162.405466
 20
-40.642194
 11
-194.000000
 21
-40.642194
  0
TEXT
  8
A-DIMS-1
 10
-159.618135
 20
-43.317497
 40
5.598071
  1
6'8
  7
STANDARD
  0
LINE
  8
A-DIMS-1
 10
-274.000000
 20
-251.642194
 11
-274.000000
 21
-37.642194
  0
LINE
  8
A-DIMS-1
 10
-271.000000
 20
-42.142194
 11
-274.000000
 21
-40.642194
  0
LINE
  8
A-DIMS-1
 10
-225.594534
 20
-40.642194
 11
-194.000000
 21
-40.642194
  0
LINE
  8
A-DIMS-1
 10
-242.405466
 20
-40.642194
 11
-274.000000
 21
-40.642194
  0
TEXT
  8
A-DIMS-1
 10
-239.618135
 20
-43.317497
 40
5.598071
  1
6'8
  7
STANDARD
  0
LINE
  8
A-DIMS-1
 10
230.000000
 20
-251.642194
 11
230.000000
 21
-19.642194
  0
LINE
  8
A-DIMS-1
 10
227.000000
 20
-21.142194
 11
230.000000
 21
-22.642194
  0
LINE
  8
A-DIMS-1
 10
206.000000
 20
-35.642194
 11
206.000000
 21
-19.642194
  0
LINE
  8
A-DIMS-1
 10
203.000000
 20
-21.142194
 11
206.000000
 21
-22.642194
  0
LINE
  8
A-DIMS-1
 10
209.000000
 20
-24.142194
 11
206.000000
 21
-22.642194
  0
LINE
  8
A-DIMS-1
 10
223.997694
 20
-22.642194
 11
230.000000
 21
-22.642194
  0
LINE
  8
A-DIMS-1
 10
212.002306
 20
-22.642194
 11
206.000000
 21
-22.642194
  0
TEXT
  8
A-DIMS-1
 10
214.789637
 20
-25.317497
 40
5.598071
  1
2'
  7
STANDARD
  0
LINE
  8
A-DIMS-1
 10
74.000000
 20
-35.642194
 11
74.000000
 21
-19.642194
  0
LINE
  8
A-DIMS-1
 10
71.000000
 20
-21.142194
 11
74.000000
 21
-22.642194
  0
LINE
  8
A-DIMS-1
 10
77.000000
 20
-24.142194
 11
74.000000
 21
-22.642194
  0
LINE
  8
A-DIMS-1
 10
148.405466
 20
-22.642194
 11
206.000000
 21
-22.642194
  0
LINE
  8
A-DIMS-1
 10
131.594534
 20
-22.642194
 11
74.000000
 21
-22.642194
  0
TEXT
  8
A-DIMS-1
 10
134.381865
 20
-25.317497
 40
5.598071
  1
11'
  7
STANDARD
  0
LINE
  8
A-DIMS-1
 10
-114.000000
 20
-35.642194
 11
-114.000000
 21
-19.642194
  0
LINE
  8
A-DIMS-1
 10
-117.000000
 20
-21.142194
 11
-114.000000
 21
-22.642194
  0
LINE
  8
A-DIMS-1
 10
-111.000000
 20
-24.142194
 11
-114.000000
 21
-22.642194
  0
LINE
  8
A-DIMS-1
 10
-9.186762
 20
-22.642194
 11
74.000000
 21
-22.642194
  0
LINE
  8
A-DIMS-1
 10
-30.813238
 20
-22.642194
 11
-114.000000
 21
-22.642194
  0
TEXT
  8
A-DIMS-1
 10
-28.025908
 20
-25.317497
 40
5.598071
  1
15'8
  7
STANDARD
  0
LINE
  8
A-DIMS-1
 10
-274.000000
 20
-35.642194
 11
-274.000000
 21
-19.642194
  0
LINE
  8
A-DIMS-1
 10
-271.000000
 20
-24.142194
 11
-274.000000
 21
-22.642194
  0
LINE
  8
A-DIMS-1
 10
-183.186762
 20
-22.642194
 11
-114.000000
 21
-22.642194
  0
LINE
  8
A-DIMS-1
 10
-204.813238
 20
-22.642194
 11
-274.000000
 21
-22.642194
  0
TEXT
  8
A-DIMS-1
 10
-202.025908
 20
-25.317497
 40
5.598071
  1
13'4
  7
STANDARD
  0
LINE
  8
A-DIMS-1
 10
230.000000
 20
-17.642194
 11
230.000000
 21
-1.642194
  0
LINE
  8
A-DIMS-1
 10
227.000000
 20
-3.142194
 11
230.000000
 21
-4.642194
  0
LINE
  8
A-DIMS-1
 10
-274.000000
 20
-17.642194
 11
-274.000000
 21
-1.642194
  0
LINE
  8
A-DIMS-1
 10
-271.000000
 20
-6.142194
 11
-274.000000
 21
-4.642194
  0
LINE
  8
A-DIMS-1
 10
-13.594534
 20
-4.642194
 11
230.000000
 21
-4.642194
  0
LINE
  8
A-DIMS-1
 10
-30.405466
 20
-4.642194
 11
-274.000000
 21
-4.642194
  0
TEXT
  8
A-DIMS-1
 10
-27.618135
 20
-7.317497
 40
5.598071
  1
42'
  7
STANDARD
  0
LINE
  8
A-DIMS-1
 10
-277.000000
 20
-566.142194
 11
-274.000000
 21
-567.642194
  0
LINE
  8
A-DIMS-1
 10
-285.979008
 20
-599.642194
 11
-285.979008
 21
-564.642194
  0
LINE
  8
A-DIMS-1
 10
-282.979008
 20
-569.142194
 11
-285.979008
 21
-567.642194
  0
LINE
  8
A-DIMS-1
 10
-273.991810
 20
-567.642194
 11
-274.000000
 21
-567.642194
  0
LINE
  8
A-DIMS-1
 10
-285.987198
 20
-567.642194
 11
-285.979008
 21
-567.642194
  0
TEXT
  8
A-DIMS-1
 10
-283.199867
 20
-570.317497
 40
5.598071
  1
1'
  7
STANDARD
  0
LINE
  8
A-DIMS-1
 10
-322.000000
 20
-802.642194
 11
-322.000000
 21
-877.642194
  0
LINE
  8
A-DIMS-1
 10
-319.000000
 20
-876.142194
 11
-322.000000
 21
-874.642194
  0
LINE
  8
A-DIMS-1
 10
-283.000000
 20
-811.642194
 11
-283.000000
 21
-877.642194
  0
LINE
  8
A-DIMS-1
 10
-280.000000
 20
-876.142194
 11
-283.000000
 21
-874.642194
  0
LINE
  8
A-DIMS-1
 10
-286.000000
 20
-873.142194
 11
-283.000000
 21
-874.642194
  0
LINE
  8
A-DIMS-1
 10
-310.905466
 20
-874.642194
 11
-322.000000
 21
-874.642194
  0
LINE
  8
A-DIMS-1
 10
-294.094534
 20
-874.642194
 11
-283.000000
 21
-874.642194
  0
TEXT
  8
A-DIMS-1
 10
-308.118135
 20
-877.317497
 40
5.598071
  1
3'3
  7
STANDARD
  0
LINE
  8
A-DIMS-1
 10
-248.000000
 20
-811.642194
 11
-248.000000
 21
-877.642194
  0
LINE
  8
A-DIMS-1
 10
-245.000000
 20
-876.142194
 11
-248.000000
 21
-874.642194
  0
LINE
  8
A-DIMS-1
 10
-251.000000
 20
-873.142194
 11
-248.000000
 21
-874.642194
  0
LINE
  8
A-DIMS-1
 10
-276.313238
 20
-874.642194
 11
-283.000000
 21
-874.642194
  0
LINE
  8
A-DIMS-1
 10
-254.686762
 20
-874.642194
 11
-248.000000
 21
-874.642194
  0
TEXT
  8
A-DIMS-1
 10
-273.525908
 20
-877.317497
 40
5.598071
  1
2'11
  7
STANDARD
  0
LINE
  8
A-DIMS-1
 10
-213.000000
 20
-811.642194
 11
-213.000000
 21
-877.642194
  0
LINE
  8
A-DIMS-1
 10
-210.000000
 20
-876.142194
 11
-213.000000
 21
-874.642194
  0
LINE
  8
A-DIMS-1
 10
-216.000000
 20
-873.142194
 11
-213.000000
 21
-874.642194
  0
LINE
  8
A-DIMS-1
 10
-241.313238
 20
-874.642194
 11
-248.000000
 21
-874.642194
  0
LINE
  8
A-DIMS-1
 10
-219.686762
 20
-874.642194
 11
-213.000000
 21
-874.642194
  0
TEXT
  8
A-DIMS-1
 10
-238.525908
 20
-877.317497
 40
5.598071
  1
2'11
  7
STANDARD
  0
LINE
  8
A-DIMS-1
 10
-174.000000
 20
-802.642194
 11
-174.000000
 21
-877.642194
  0
LINE
  8
A-DIMS-1
 10
-171.000000
 20
-876.142194
 11
-174.000000
 21
-874.642194
  0
LINE
  8
A-DIMS-1
 10
-177.000000
 20
-873.142194
 11
-174.000000
 21
-874.642194
  0
LINE
  8
A-DIMS-1
 10
-201.905466
 20
-874.642194
 11
-213.000000
 21
-874.642194
  0
LINE
  8
A-DIMS-1
 10
-185.094534
 20
-874.642194
 11
-174.000000
 21
-874.642194
  0
TEXT
  8
A-DIMS-1
 10
-199.118135
 20
-877.317497
 40
5.598071
  1
3'3
  7
STANDARD
  0
LINE
  8
A-DIMS-1
 10
-108.000000
 20
-787.642194
 11
-108.000000
 21
-877.642194
  0
LINE
  8
A-DIMS-1
 10
-105.000000
 20
-876.142194
 11
-108.000000
 21
-874.642194
  0
LINE
  8
A-DIMS-1
 10
-111.000000
 20
-873.142194
 11
-108.000000
 21
-874.642194
  0
LINE
  8
A-DIMS-1
 10
-149.405466
 20
-874.642194
 11
-174.000000
 21
-874.642194
  0
LINE
  8
A-DIMS-1
 10
-132.594534
 20
-874.642194
 11
-108.000000
 21
-874.642194
  0
TEXT
  8
A-DIMS-1
 10
-146.618135
 20
-877.317497
 40
5.598071
  1
5'6
  7
STANDARD
  0
LINE
  8
A-DIMS-1
 10
-42.000000
 20
-842.642194
 11
-42.000000
 21
-877.642194
  0
LINE
  8
A-DIMS-1
 10
-39.000000
 20
-876.142194
 11
-42.000000
 21
-874.642194
  0
LINE
  8
A-DIMS-1
 10
-45.000000
 20
-873.142194
 11
-42.000000
 21
-874.642194
  0
LINE
  8
A-DIMS-1
 10
-83.405466
 20
-874.642194
 11
-108.000000
 21
-874.642194
  0
LINE
  8
A-DIMS-1
 10
-66.594534
 20
-874.642194
 11
-42.000000
 21
-874.642194
  0
TEXT
  8
A-DIMS-1
 10
-80.618135
 20
-877.317497
 40
5.598071
  1
5'6
  7
STANDARD
  0
LINE
  8
A-DIMS-1
 10
30.000000
 20
-851.642194
 11
30.000000
 21
-877.642194
  0
LINE
  8
A-DIMS-1
 10
33.000000
 20
-876.142194
 11
30.000000
 21
-874.642194
  0
LINE
  8
A-DIMS-1
 10
27.000000
 20
-873.142194
 11
30.000000
 21
-874.642194
  0
LINE
  8
A-DIMS-1
 10
-11.997694
 20
-874.642194
 11
-42.000000
 21
-874.642194
  0
LINE
  8
A-DIMS-1
 10
-0.002306
 20
-874.642194
 11
30.000000
 21
-874.642194
  0
TEXT
  8
A-DIMS-1
 10
-9.210363
 20
-877.317497
 40
5.598071
  1
6'
  7
STANDARD
  0
LINE
  8
A-DIMS-1
 10
102.000000
 20
-842.642194
 11
102.000000
 21
-877.642194
  0
LINE
  8
A-DIMS-1
 10
105.000000
 20
-876.142194
 11
102.000000
 21
-874.642194
  0
LINE
  8
A-DIMS-1
 10
99.000000
 20
-873.142194
 11
102.000000
 21
-874.642194
  0
LINE
  8
A-DIMS-1
 10
60.002306
 20
-874.642194
 11
30.000000
 21
-874.642194
  0
LINE
  8
A-DIMS-1
 10
71.997694
 20
-874.642194
 11
102.000000
 21
-874.642194
  0
TEXT
  8
A-DIMS-1
 10
62.789637
 20
-877.317497
 40
5.598071
  1
6'
  7
STANDARD
  0
LINE
  8
A-DIMS-1
 10
164.000000
 20
-821.642194
 11
164.000000
 21
-877.642194
  0
LINE
  8
A-DIMS-1
 10
167.000000
 20
-876.142194
 11
164.000000
 21
-874.642194
  0
LINE
  8
A-DIMS-1
 10
161.000000
 20
-873.142194
 11
164.000000
 21
-874.642194
  0
LINE
  8
A-DIMS-1
 10
124.594534
 20
-874.642194
 11
102.000000
 21
-874.642194
  0
LINE
  8
A-DIMS-1
 10
141.405466
 20
-874.642194
 11
164.000000
 21
-874.642194
  0
TEXT
  8
A-DIMS-1
 10
127.381865
 20
-877.317497
 40
5.598071
  1
5'2
  7
STANDARD
  0
LINE
  8
A-DIMS-1
 10
230.000000
 20
-812.642194
 11
230.000000
 21
-877.642194
  0
LINE
  8
A-DIMS-1
 10
227.000000
 20
-873.142194
 11
230.000000
 21
-874.642194
  0
LINE
  8
A-DIMS-1
 10
188.594534
 20
-874.642194
 11
164.000000
 21
-874.642194
  0
LINE
  8
A-DIMS-1
 10
205.405466
 20
-874.642194
 11
230.000000
 21
-874.642194
  0
TEXT
  8
A-DIMS-1
 10
191.381865
 20
-877.317497
 40
5.598071
  1
5'6
  7
STANDARD
  0
LINE
  8
A-DIMS-1
 10
-322.000000
 20
-879.642194
 11
-322.000000
 21
-895.642194
  0
LINE
  8
A-DIMS-1
 10
-319.000000
 20
-894.142194
 11
-322.000000
 21
-892.642194
  0
LINE
  8
A-DIMS-1
 10
-174.000000
 20
-879.642194
 11
-174.000000
 21
-895.642194
  0
LINE
  8
A-DIMS-1
 10
-171.000000
 20
-894.142194
 11
-174.000000
 21
-892.642194
  0
LINE
  8
A-DIMS-1
 10
-177.000000
 20
-891.142194
 11
-174.000000
 21
-892.642194
  0
LINE
  8
A-DIMS-1
 10
-258.813238
 20
-892.642194
 11
-322.000000
 21
-892.642194
  0
LINE
  8
A-DIMS-1
 10
-237.186762
 20
-892.642194
 11
-174.000000
 21
-892.642194
  0
TEXT
  8
A-DIMS-1
 10
-256.025908
 20
-895.317497
 40
5.598071
  1
12'4
  7
STANDARD
  0
LINE
  8
A-DIMS-1
 10
-42.000000
 20
-879.642194
 11
-42.000000
 21
-895.642194
  0
LINE
  8
A-DIMS-1
 10
-39.000000
 20
-894.142194
 11
-42.000000
 21
-892.642194
  0
LINE
  8
A-DIMS-1
 10
-45.000000
 20
-891.142194
 11
-42.000000
 21
-892.642194
  0
LINE
  8
A-DIMS-1
 10
-116.405466
 20
-892.642194
 11
-174.000000
 21
-892.642194
  0
LINE
  8
A-DIMS-1
 10
-99.594534
 20
-892.642194
 11
-42.000000
 21
-892.642194
  0
TEXT
  8
A-DIMS-1
 10
-113.618135
 20
-895.317497
 40
5.598071
  1
11'
  7
STANDARD
  0
LINE
  8
A-DIMS-1
 10
102.000000
 20
-879.642194
 11
102.000000
 21
-895.642194
  0
LINE
  8
A-DIMS-1
 10
105.000000
 20
-894.142194
 11
102.000000
 21
-892.642194
  0
LINE
  8
A-DIMS-1
 10
99.000000
 20
-891.142194
 11
102.000000
 21
-892.642194
  0
LINE
  8
A-DIMS-1
 10
21.594534
 20
-892.642194
 11
-42.000000
 21
-892.642194
  0
LINE
  8
A-DIMS-1
 10
38.405466
 20
-892.642194
 11
102.000000
 21
-892.642194
  0
TEXT
  8
A-DIMS-1
 10
24.381865
 20
-895.317497
 40
5.598071
  1
12'
  7
STANDARD
  0
LINE
  8
A-DIMS-1
 10
230.000000
 20
-879.642194
 11
230.000000
 21
-895.642194
  0
LINE
  8
A-DIMS-1
 10
227.000000
 20
-891.142194
 11
230.000000
 21
-892.642194
  0
LINE
  8
A-DIMS-1
 10
155.186762
 20
-892.642194
 11
102.000000
 21
-892.642194
  0
LINE
  8
A-DIMS-1
 10
176.813238
 20
-892.642194
 11
230.000000
 21
-892.642194
  0
TEXT
  8
A-DIMS-1
 10
157.974092
 20
-895.317497
 40
5.598071
  1
10'8
  7
STANDARD
  0
LINE
  8
A-DIMS-1
 10
-322.000000
 20
-897.642194
 11
-322.000000
 21
-913.642194
  0
LINE
  8
A-DIMS-1
 10
-319.000000
 20
-912.142194
 11
-322.000000
 21
-910.642194
  0
LINE
  8
A-DIMS-1
 10
230.000000
 20
-897.642194
 11
230.000000
 21
-913.642194
  0
LINE
  8
A-DIMS-1
 10
227.000000
 20
-909.142194
 11
230.000000
 21
-910.642194
  0
LINE
  8
A-DIMS-1
 10
-54.405466
 20
-910.642194
 11
-322.000000
 21
-910.642194
  0
LINE
  8
A-DIMS-1
 10
-37.594534
 20
-910.642194
 11
230.000000
 21
-910.642194
  0
TEXT
  8
A-DIMS-1
 10
-51.618135
 20
-913.317497
 40
5.598071
  1
46'
  7
STANDARD
  0
LINE
  8
A-DIMS-1
 10
233.963000
 20
-811.000000
 11
284.963000
 21
-811.000000
  0
LINE
  8
A-DIMS-1
 10
283.463000
 20
-808.000000
 11
281.963000
 21
-811.000000
  0
LINE
  8
A-DIMS-1
 10
242.963000
 20
-589.000000
 11
284.963000
 21
-589.000000
  0
LINE
  8
A-DIMS-1
 10
283.463000
 20
-586.000000
 11
281.963000
 21
-589.000000
  0
LINE
  8
A-DIMS-1
 10
280.463000
 20
-592.000000
 11
281.963000
 21
-589.000000
  0
LINE
  8
A-DIMS-1
 10
281.963000
 20
-710.813238
 11
281.963000
 21
-811.000000
  0
LINE
  8
A-DIMS-1
 10
281.963000
 20
-689.186762
 11
281.963000
 21
-589.000000
  0
TEXT
  8
A-DIMS-1
 10
284.638303
 20
-708.025908
 40
5.598071
  1
18'6
 50
90.000000
  7
STANDARD
  0
LINE
  8
A-DIMS-1
 10
233.963000
 20
-565.000000
 11
284.963000
 21
-565.000000
  0
LINE
  8
A-DIMS-1
 10
283.463000
 20
-562.000000
 11
281.963000
 21
-565.000000
  0
LINE
  8
A-DIMS-1
 10
280.463000
 20
-568.000000
 11
281.963000
 21
-565.000000
  0
LINE
  8
A-DIMS-1
 10
281.963000
 20
-582.997694
 11
281.963000
 21
-589.000000
  0
LINE
  8
A-DIMS-1
 10
281.963000
 20
-571.002306
 11
281.963000
 21
-565.000000
  0
TEXT
  8
A-DIMS-1
 10
284.638303
 20
-580.210363
 40
5.598071
  1
2'
 50
90.000000
  7
STANDARD
  0
LINE
  8
A-DIMS-1
 10
266.963000
 20
-491.000000
 11
284.963000
 21
-491.000000
  0
LINE
  8
A-DIMS-1
 10
283.463000
 20
-488.000000
 11
281.963000
 21
-491.000000
  0
LINE
  8
A-DIMS-1
 10
280.463000
 20
-494.000000
 11
281.963000
 21
-491.000000
  0
LINE
  8
A-DIMS-1
 10
281.963000
 20
-536.405466
 11
281.963000
 21
-565.000000
  0
LINE
  8
A-DIMS-1
 10
281.963000
 20
-519.594534
 11
281.963000
 21
-491.000000
  0
TEXT
  8
A-DIMS-1
 10
284.638303
 20
-533.618135
 40
5.598071
  1
6'2
 50
90.000000
  7
STANDARD
  0
LINE
  8
A-DIMS-1
 10
233.963000
 20
-417.000000
 11
284.963000
 21
-417.000000
  0
LINE
  8
A-DIMS-1
 10
280.463000
 20
-420.000000
 11
281.963000
 21
-417.000000
  0
LINE
  8
A-DIMS-1
 10
281.963000
 20
-462.405466
 11
281.963000
 21
-491.000000
  0
LINE
  8
A-DIMS-1
 10
281.963000
 20
-445.594534
 11
281.963000
 21
-417.000000
  0
TEXT
  8
A-DIMS-1
 10
284.638303
 20
-459.618135
 40
5.598071
  1
6'2
 50
90.000000
  7
STANDARD
  0
LINE
  8
A-DIMS-1
 10
233.963000
 20
-255.000000
 11
284.963000
 21
-255.000000
  0
LINE
  8
A-DIMS-1
 10
283.463000
 20
-252.000000
 11
281.963000
 21
-255.000000
  0
LINE
  8
A-DIMS-1
 10
218.963000
 20
-215.000000
 11
284.963000
 21
-215.000000
  0
LINE
  8
A-DIMS-1
 10
283.463000
 20
-212.000000
 11
281.963000
 21
-215.000000
  0
LINE
  8
A-DIMS-1
 10
280.463000
 20
-218.000000
 11
281.963000
 21
-215.000000
  0
LINE
  8
A-DIMS-1
 10
281.963000
 20
-243.405466
 11
281.963000
 21
-255.000000
  0
LINE
  8
A-DIMS-1
 10
281.963000
 20
-226.594534
 11
281.963000
 21
-215.000000
  0
TEXT
  8
A-DIMS-1
 10
284.638303
 20
-240.618135
 40
5.598071
  1
3'4
 50
90.000000
  7
STANDARD
  0
LINE
  8
A-DIMS-1
 10
209.963000
 20
-171.000000
 11
284.963000
 21
-171.000000
  0
LINE
  8
A-DIMS-1
 10
283.463000
 20
-168.000000
 11
281.963000
 21
-171.000000
  0
LINE
  8
A-DIMS-1
 10
280.463000
 20
-174.000000
 11
281.963000
 21
-171.000000
  0
LINE
  8
A-DIMS-1
 10
281.963000
 20
-201.405466
 11
281.963000
 21
-215.000000
  0
LINE
  8
A-DIMS-1
 10
281.963000
 20
-184.594534
 11
281.963000
 21
-171.000000
  0
TEXT
  8
A-DIMS-1
 10
284.638303
 20
-198.618135
 40
5.598071
  1
3'8
 50
90.000000
  7
STANDARD
  0
LINE
  8
A-DIMS-1
 10
86.963000
 20
-123.000000
 11
284.963000
 21
-123.000000
  0
LINE
  8
A-DIMS-1
 10
283.463000
 20
-120.000000
 11
281.963000
 21
-123.000000
  0
LINE
  8
A-DIMS-1
 10
280.463000
 20
-126.000000
 11
281.963000
 21
-123.000000
  0
LINE
  8
A-DIMS-1
 10
281.963000
 20
-152.997694
 11
281.963000
 21
-171.000000
  0
LINE
  8
A-DIMS-1
 10
281.963000
 20
-141.002306
 11
281.963000
 21
-123.000000
  0
TEXT
  8
A-DIMS-1
 10
284.638303
 20
-150.210363
 40
5.598071
  1
4'
 50
90.000000
  7
STANDARD
  0
LINE
  8
A-DIMS-1
 10
77.963000
 20
-95.000000
 11
284.963000
 21
-95.000000
  0
LINE
  8
A-DIMS-1
 10
280.463000
 20
-98.000000
 11
281.963000
 21
-95.000000
  0
LINE
  8
A-DIMS-1
 10
281.963000
 20
-117.405466
 11
281.963000
 21
-123.000000
  0
LINE
  8
A-DIMS-1
 10
281.963000
 20
-100.594534
 11
281.963000
 21
-95.000000
  0
TEXT
  8
A-DIMS-1
 10
284.638303
 20
-114.618135
 40
5.598071
  1
2'4
 50
90.000000
  7
STANDARD
  0
LINE
  8
A-DIMS-1
 10
105.963000
 20
-839.000000
 11
302.963000
 21
-839.000000
  0
LINE
  8
A-DIMS-1
 10
301.463000
 20
-836.000000
 11
299.963000
 21
-839.000000
  0
LINE
  8
A-DIMS-1
 10
286.963000
 20
-811.000000
 11
302.963000
 21
-811.000000
  0
LINE
  8
A-DIMS-1
 10
301.463000
 20
-808.000000
 11
299.963000
 21
-811.000000
  0
LINE
  8
A-DIMS-1
 10
298.463000
 20
-814.000000
 11
299.963000
 21
-811.000000
  0
LINE
  8
A-DIMS-1
 10
299.963000
 20
-833.405466
 11
299.963000
 21
-839.000000
  0
LINE
  8
A-DIMS-1
 10
299.963000
 20
-816.594534
 11
299.963000
 21
-811.000000
  0
TEXT
  8
A-DIMS-1
 10
302.638303
 20
-830.618135
 40
5.598071
  1
2'4
 50
90.000000
  7
STANDARD
  0
LINE
  8
A-DIMS-1
 10
286.963000
 20
-565.000000
 11
302.963000
 21
-565.000000
  0
LINE
  8
A-DIMS-1
 10
301.463000
 20
-562.000000
 11
299.963000
 21
-565.000000
  0
LINE
  8
A-DIMS-1
 10
298.463000
 20
-568.000000
 11
299.963000
 21
-565.000000
  0
LINE
  8
A-DIMS-1
 10
299.963000
 20
-698.813238
 11
299.963000
 21
-811.000000
  0
LINE
  8
A-DIMS-1
 10
299.963000
 20
-677.186762
 11
299.963000
 21
-565.000000
  0
TEXT
  8
A-DIMS-1
 10
302.638303
 20
-696.025908
 40
5.598071
  1
20'6
 50
90.000000
  7
STANDARD
  0
LINE
  8
A-DIMS-1
 10
286.963000
 20
-417.000000
 11
302.963000
 21
-417.000000
  0
LINE
  8
A-DIMS-1
 10
301.463000
 20
-414.000000
 11
299.963000
 21
-417.000000
  0
LINE
  8
A-DIMS-1
 10
298.463000
 20
-420.000000
 11
299.963000
 21
-417.000000
  0
LINE
  8
A-DIMS-1
 10
299.963000
 20
-501.813238
 11
299.963000
 21
-565.000000
  0
LINE
  8
A-DIMS-1
 10
299.963000
 20
-480.186762
 11
299.963000
 21
-417.000000
  0
TEXT
  8
A-DIMS-1
 10
302.638303
 20
-499.025908
 40
5.598071
  1
12'4
 50
90.000000
  7
STANDARD
  0
LINE
  8
A-DIMS-1
 10
286.963000
 20
-255.000000
 11
302.963000
 21
-255.000000
  0
LINE
  8
A-DIMS-1
 10
301.463000
 20
-252.000000
 11
299.963000
 21
-255.000000
  0
LINE
  8
A-DIMS-1
 10
298.463000
 20
-258.000000
 11
299.963000
 21
-255.000000
  0
LINE
  8
A-DIMS-1
 10
299.963000
 20
-346.813238
 11
299.963000
 21
-417.000000
  0
LINE
  8
A-DIMS-1
 10
299.963000
 20
-325.186762
 11
299.963000
 21
-255.000000
  0
TEXT
  8
A-DIMS-1
 10
302.638303
 20
-344.025908
 40
5.598071
  1
13'6
 50
90.000000
  7
STANDARD
  0
LINE
  8
A-DIMS-1
 10
286.963000
 20
-171.000000
 11
302.963000
 21
-171.000000
  0
LINE
  8
A-DIMS-1
 10
301.463000
 20
-168.000000
 11
299.963000
 21
-171.000000
  0
LINE
  8
A-DIMS-1
 10
298.463000
 20
-174.000000
 11
299.963000
 21
-171.000000
  0
LINE
  8
A-DIMS-1
 10
299.963000
 20
-218.997694
 11
299.963000
 21
-255.000000
  0
LINE
  8
A-DIMS-1
 10
299.963000
 20
-207.002306
 11
299.963000
 21
-171.000000
  0
TEXT
  8
A-DIMS-1
 10
302.638303
 20
-216.210363
 40
5.598071
  1
7'
 50
90.000000
  7
STANDARD
  0
LINE
  8
A-DIMS-1
 10
286.963000
 20
-95.000000
 11
302.963000
 21
-95.000000
  0
LINE
  8
A-DIMS-1
 10
298.463000
 20
-98.000000
 11
299.963000
 21
-95.000000
  0
LINE
  8
A-DIMS-1
 10
299.963000
 20
-141.405466
 11
299.963000
 21
-171.000000
  0
LINE
  8
A-DIMS-1
 10
299.963000
 20
-124.594534
 11
299.963000
 21
-95.000000
  0
TEXT
  8
A-DIMS-1
 10
302.638303
 20
-138.618135
 40
5.598071
  1
6'4
 50
90.000000
  7
STANDARD
  0
LINE
  8
A-DIMS-1
 10
304.963000
 20
-839.000000
 11
320.963000
 21
-839.000000
  0
LINE
  8
A-DIMS-1
 10
319.463000
 20
-836.000000
 11
317.963000
 21
-839.000000
  0
LINE
  8
A-DIMS-1
 10
304.963000
 20
-95.000000
 11
320.963000
 21
-95.000000
  0
LINE
  8
A-DIMS-1
 10
316.463000
 20
-98.000000
 11
317.963000
 21
-95.000000
  0
LINE
  8
A-DIMS-1
 10
317.963000
 20
-475.405466
 11
317.963000
 21
-839.000000
  0
LINE
  8
A-DIMS-1
 10
317.963000
 20
-458.594534
 11
317.963000
 21
-95.000000
  0
TEXT
  8
A-DIMS-1
 10
320.638303
 20
-472.618135
 40
5.598071
  1
62'
 50
90.000000
  7
STANDARD
  0
LINE
  8
A-DIMS-1
 10
-170.037000
 20
-799.000000
 11
-134.037000
 21
-799.000000
  0
LINE
  8
A-DIMS-1
 10
-135.537000
 20
-796.000000
 11
-137.037000
 21
-799.000000
  0
LINE
  8
A-DIMS-1
 10
-138.537000
 20
-778.000000
 11
-137.037000
 21
-775.000000
  0
LINE
  8
A-DIMS-1
 10
-137.037000
 20
-792.997694
 11
-137.037000
 21
-799.000000
  0
LINE
  8
A-DIMS-1
 10
-137.037000
 20
-781.002306
 11
-137.037000
 21
-775.000000
  0
TEXT
  8
A-DIMS-1
 10
-134.361697
 20
-790.210363
 40
5.598071
  1
2'
 50
90.000000
  7
STANDARD
  0
ENDSEC
  0
EOF
