  0
SECTION
  2
HEADER
  9
$ACADVER
  1
AC1006
  9
$EXTMIN
 10
-530.592804
 20
-878.819538
  9
$EXTMAX
 10
488.477474
 20
-173.705254
  9
$ANGDIR
 70
   0
  9
$LUNITS
 70
   2
  0
ENDSEC
  0
SECTION
  2
TABLES
  0
TABLE
  2
LTYPE
 70
   3
  0
LTYPE
  2
CONTINUOUS
 70
64
  3
SOLID LINE
 72
65
 73
0
 40
0.
  0
LTYPE
  2
DASHED
 70
64
  3
DASHED LINE
 72
65
 73
2
 40
8.
 49
5.
 49
-3.
  0
LTYPE
  2
DOTTED
 70
64
  3
DOTTED LINE
 72
65
 73
2
 40
4.
 49
2.
 49
-2.
  0
ENDTAB
  0
TABLE
  2
LAYER
 70
   15
  0
LAYER
  2
A-WALL-2
 70
64
 62
   7
  6
CONTINUOUS
  0
LAYER
  2
A-CASE-2
 70
64
 62
   7
  6
CONTINUOUS
  0
LAYER
  2
A-DIMS-2
 70
64
 62
   7
  6
CONTINUOUS
  0
LAYER
  2
A-POWR-2
 70
64
 62
   7
  6
CONTINUOUS
  0
LAYER
  2
A-NOTE-2
 70
64
 62
   7
  6
CONTINUOUS
  0
LAYER
  2
A-TEXT-2
 70
64
 62
   7
  6
CONTINUOUS
  0
LAYER
  2
A-FURN-2
 70
64
 62
   7
  6
CONTINUOUS
  0
LAYER
  2
A-GLAZ-2
 70
64
 62
   7
  6
CONTINUOUS
  0
LAYER
  2
A-STAR-2
 70
64
 62
   7
  6
CONTINUOUS
  0
LAYER
  2
A-ROOF-2
 70
64
 62
   7
  6
CONTINUOUS
  0
LAYER
  2
A-C000-2
 70
64
 62
   7
  6
CONTINUOUS
  0
ENDTAB
  0
ENDSEC
  0
SECTION
  2
BLOCKS
  0
BLOCK
  8
A-CASE-2
  2
FIXT-Toilet
 70
64
 10
0.0
 20
0.0
  0
ARC
  8
A-CASE-2
 10
9.046126
 20
27.780609
 40
1.431891
 50
0.000000
 51
90.000000
  0
LINE
  8
A-CASE-2
 10
9.046126
 20
29.212500
 11
-9.046126
 21
29.212500
  0
ARC
  8
A-CASE-2
 10
-9.046126
 20
27.780609
 40
1.431891
 50
90.000000
 51
180.000000
  0
LINE
  8
A-CASE-2
 10
-10.478017
 20
27.780609
 11
-10.478017
 21
21.731952
  0
ARC
  8
A-CASE-2
 10
-9.046126
 20
21.731952
 40
1.431891
 50
180.000000
 51
270.000000
  0
LINE
  8
A-CASE-2
 10
-9.046126
 20
20.300061
 11
9.046126
 21
20.300061
  0
ARC
  8
A-CASE-2
 10
9.046126
 20
21.731952
 40
1.431891
 50
270.000000
 51
0.000000
  0
LINE
  8
A-CASE-2
 10
10.478017
 20
21.731952
 11
10.478017
 21
27.780609
  0
ARC
  8
A-CASE-2
 10
0.029649
 20
13.174761
 40
6.001594
 50
38.796550
 51
141.203450
  0
ARC
  8
A-CASE-2
 10
0.029649
 20
7.965448
 40
6.001594
 50
218.796550
 51
321.203450
  0
ARC
  8
A-CASE-2
 10
3.269587
 20
10.570105
 40
10.158689
 50
141.203449
 51
218.796551
  0
ARC
  8
A-CASE-2
 10
-3.210289
 20
10.570105
 40
10.158689
 50
321.203449
 51
38.796551
  0
ENDBLK
  0
BLOCK
  8
A-CASE-2
  2
FIXT-Bidet
 70
64
 10
0.0
 20
0.0
  0
ARC
  8
A-CASE-2
 10
-0.029538
 20
8.781067
 40
8.663759
 50
180.000000
 51
270.195342
  0
ARC
  8
A-CASE-2
 10
-0.029740
 20
8.840345
 40
8.723038
 50
270.195342
 51
0.000000
  0
ARC
  8
A-CASE-2
 10
-6.918017
 20
16.812960
 40
1.775280
 50
164.999991
 51
180.000000
  0
LINE
  8
A-CASE-2
 10
-8.693297
 20
8.781067
 11
-8.693297
 21
16.812960
  0
ARC
  8
A-CASE-2
 10
-5.184232
 20
23.283535
 40
1.775280
 50
90.000000
 51
164.999995
  0
LINE
  8
A-CASE-2
 10
-8.632806
 20
17.272436
 11
-6.899021
 21
23.743012
  0
ARC
  8
A-CASE-2
 10
5.210175
 20
23.283535
 40
1.775280
 50
15.000005
 51
90.000000
  0
LINE
  8
A-CASE-2
 10
-5.184232
 20
25.058816
 11
5.210175
 21
25.058816
  0
ARC
  8
A-CASE-2
 10
6.918017
 20
16.909781
 40
1.775280
 50
0.000000
 51
15.000009
  0
LINE
  8
A-CASE-2
 10
6.924964
 20
23.743012
 11
8.632806
 21
17.369258
  0
LINE
  8
A-CASE-2
 10
8.693297
 20
16.909781
 11
8.693297
 21
8.840345
  0
ARC
  8
A-CASE-2
 10
4.642736
 20
16.610235
 40
1.697231
 50
0.000000
 51
14.999999
  0
LINE
  8
A-CASE-2
 10
6.339967
 20
16.610235
 11
6.339967
 21
8.840345
  0
ARC
  8
A-CASE-2
 10
-0.029538
 20
8.781067
 40
6.310430
 50
180.000000
 51
270.195342
  0
ARC
  8
A-CASE-2
 10
-0.029740
 20
8.840345
 40
6.369707
 50
270.195342
 51
0.000000
  0
ARC
  8
A-CASE-2
 10
-4.642736
 20
16.513412
 40
1.697231
 50
165.000001
 51
180.000000
  0
LINE
  8
A-CASE-2
 10
-6.339967
 20
8.781067
 11
-6.339967
 21
16.513412
  0
ARC
  8
A-CASE-2
 10
-3.858729
 20
19.439368
 40
1.697231
 50
90.000000
 51
165.000001
  0
LINE
  8
A-CASE-2
 10
-6.282135
 20
16.952688
 11
-5.498128
 21
19.878644
  0
ARC
  8
A-CASE-2
 10
3.884672
 20
19.439368
 40
1.697231
 50
15.000001
 51
90.000000
  0
LINE
  8
A-CASE-2
 10
-3.858729
 20
21.136599
 11
3.884672
 21
21.136599
  0
LINE
  8
A-CASE-2
 10
5.524072
 20
19.878644
 11
6.282135
 21
17.049511
  0
ENDBLK
  0
BLOCK
  8
A-CASE-2
  2
FIXT-OSpa7242
 70
64
 10
0.0
 20
0.0
  0
ARC
  8
A-CASE-2
 10
-18.841764
 20
23.088358
 40
13.047711
 50
119.446774
 51
240.553224
  0
ARC
  8
A-CASE-2
 10
18.814346
 20
23.088358
 40
13.047711
 50
299.446783
 51
60.553219
  0
ARC
  8
A-CASE-2
 10
-0.013709
 20
56.439077
 40
51.346092
 50
240.553221
 51
299.446780
  0
ARC
  8
A-CASE-2
 10
-0.013709
 20
-10.262360
 40
51.346092
 50
60.553220
 51
119.446779
  0
CIRCLE
  8
A-CASE-2
 10
0.040618
 20
36.571796
 40
1.012500
  0
ENDBLK
  0
BLOCK
  8
A-CASE-2
  2
FIXT-OvalBath
 70
64
 10
0.0
 20
0.0
  0
ARC
  8
A-CASE-2
 10
-3.083726
 20
15.991947
 40
6.926340
 50
128.659806
 51
231.340191
  0
ARC
  8
A-CASE-2
 10
3.083726
 20
15.991947
 40
6.926340
 50
308.659809
 51
51.340194
  0
ARC
  8
A-CASE-2
 10
-0.000000
 20
19.846604
 40
11.862710
 50
231.340192
 51
308.659808
  0
ARC
  8
A-CASE-2
 10
-0.000000
 20
12.137290
 40
11.862710
 50
51.340193
 51
128.659807
  0
ARC
  8
A-CASE-2
 10
-3.083726
 20
15.991947
 40
5.029696
 50
128.659805
 51
231.340188
  0
ARC
  8
A-CASE-2
 10
3.083726
 20
15.991947
 40
5.029696
 50
308.659812
 51
51.340195
  0
ARC
  8
A-CASE-2
 10
0.000000
 20
19.846604
 40
9.966065
 50
231.340190
 51
308.659810
  0
ARC
  8
A-CASE-2
 10
0.000000
 20
12.137290
 40
9.966065
 50
51.340193
 51
128.659807
  0
CIRCLE
  8
A-CASE-2
 10
-0.052685
 20
16.966612
 40
0.605872
  0
CIRCLE
  8
A-CASE-2
 10
-0.052685
 20
16.966612
 40
1.027349
  0
ENDBLK
  0
BLOCK
  8
A-CASE-2
  2
FIXT-Washer26
 70
64
 10
0.0
 20
0.0
  0
LINE
  8
A-CASE-2
 10
13.014303
 20
27.890013
 11
-13.014303
 21
27.890013
  0
LINE
  8
A-CASE-2
 10
-13.014303
 20
27.890013
 11
-13.014303
 21
0.850586
  0
LINE
  8
A-CASE-2
 10
-13.014303
 20
0.850586
 11
13.014303
 21
0.850586
  0
LINE
  8
A-CASE-2
 10
13.014303
 20
0.850586
 11
13.014303
 21
27.890013
  0
LINE
  8
A-CASE-2
 10
12.424659
 20
27.131898
 11
-12.424659
 21
27.131898
  0
LINE
  8
A-CASE-2
 10
-12.424659
 20
27.131898
 11
-12.424659
 21
24.520614
  0
LINE
  8
A-CASE-2
 10
-12.424659
 20
24.520614
 11
12.424659
 21
24.520614
  0
LINE
  8
A-CASE-2
 10
12.424659
 20
24.520614
 11
12.424659
 21
27.131898
  0
ARC
  8
A-CASE-2
 10
5.528337
 20
19.056286
 40
2.263399
 50
0.000000
 51
90.000000
  0
LINE
  8
A-CASE-2
 10
5.528337
 20
21.319685
 11
-5.528337
 21
21.319685
  0
ARC
  8
A-CASE-2
 10
-5.528337
 20
19.056286
 40
2.263399
 50
90.000000
 51
180.000000
  0
LINE
  8
A-CASE-2
 10
-7.791735
 20
19.056286
 11
-7.791735
 21
7.999614
  0
ARC
  8
A-CASE-2
 10
-5.528337
 20
7.999614
 40
2.263399
 50
180.000000
 51
270.000000
  0
LINE
  8
A-CASE-2
 10
-5.528337
 20
5.736216
 11
5.528337
 21
5.736216
  0
ARC
  8
A-CASE-2
 10
5.528337
 20
7.999614
 40
2.263399
 50
270.000000
 51
0.000000
  0
LINE
  8
A-CASE-2
 10
7.791735
 20
7.999614
 11
7.791735
 21
19.056286
  0
ENDBLK
  0
BLOCK
  8
A-CASE-2
  2
FIXT-DryerG28
 70
64
 10
0.0
 20
0.0
  0
LINE
  8
A-CASE-2
 10
14.038907
 20
27.890013
 11
-14.038907
 21
27.890013
  0
LINE
  8
A-CASE-2
 10
-14.038907
 20
27.890013
 11
-14.038907
 21
0.850586
  0
LINE
  8
A-CASE-2
 10
-14.038907
 20
0.850586
 11
14.038907
 21
0.850586
  0
LINE
  8
A-CASE-2
 10
14.038907
 20
0.850586
 11
14.038907
 21
27.890013
  0
LINE
  8
A-CASE-2
 10
13.620029
 20
27.131898
 11
-13.620029
 21
27.131898
  0
LINE
  8
A-CASE-2
 10
-13.620029
 20
27.131898
 11
-13.620029
 21
24.520614
  0
LINE
  8
A-CASE-2
 10
-13.620029
 20
24.520614
 11
13.620029
 21
24.520614
  0
LINE
  8
A-CASE-2
 10
13.620029
 20
24.520614
 11
13.620029
 21
27.131898
  0
ENDBLK
  0
BLOCK
  8
A-CASE-2
  2
FIXT-tubshr02
 70
64
 10
0.0
 20
0.0
  0
ARC
  8
A-CASE-2
 10
21.128384
 20
24.794895
 40
4.812746
 50
0.000000
 51
90.000000
  0
LINE
  8
A-CASE-2
 10
21.128384
 20
29.607641
 11
-22.458626
 21
29.607641
  0
ARC
  8
A-CASE-2
 10
-22.458626
 20
24.794895
 40
4.812746
 50
90.000000
 51
180.000000
  0
LINE
  8
A-CASE-2
 10
-27.271372
 20
24.794895
 11
-27.271372
 21
8.432888
  0
ARC
  8
A-CASE-2
 10
-22.458626
 20
8.432888
 40
4.812746
 50
180.000000
 51
270.000000
  0
LINE
  8
A-CASE-2
 10
-22.458626
 20
3.620142
 11
21.128384
 21
3.620142
  0
ARC
  8
A-CASE-2
 10
21.128384
 20
8.432888
 40
4.812746
 50
270.000000
 51
0.000000
  0
LINE
  8
A-CASE-2
 10
25.941130
 20
8.432888
 11
25.941130
 21
24.794895
  0
CIRCLE
  8
A-CASE-2
 10
-23.952621
 20
16.670141
 40
1.012500
  0
LINE
  8
A-CASE-2
 10
-30.005365
 20
32.000000
 11
-30.005365
 21
-0.013599
  0
LINE
  8
A-CASE-2
 10
-30.005365
 20
-0.013599
 11
30.005365
 21
-0.013599
  0
LINE
  8
A-CASE-2
 10
30.005365
 20
-0.013599
 11
30.005365
 21
32.000000
  0
LINE
  8
A-CASE-2
 10
30.005365
 20
32.000000
 11
-30.005365
 21
32.000000
  0
LINE
  8
A-CASE-2
 10
-30.005365
 20
1.994635
 11
30.005365
 21
1.994635
  0
LINE
  8
A-CASE-2
 10
0.000000
 20
1.994635
 11
0.000000
 21
-0.013599
  0
ENDBLK
  0
BLOCK
  8
A-FURN-2
  2
FIXT-Bedwat01
 70
64
 10
0.0
 20
0.0
  0
LINE
  8
A-FURN-2
 10
-33.005383
 20
89.000000
 11
-33.005383
 21
-9.078674
  0
LINE
  8
A-FURN-2
 10
-33.005383
 20
89.000000
 11
33.005383
 21
89.000000
  0
LINE
  8
A-FURN-2
 10
33.005383
 20
89.000000
 11
33.005383
 21
-9.078674
  0
LINE
  8
A-FURN-2
 10
33.005383
 20
-9.078674
 11
-32.888485
 21
-9.078674
  0
LINE
  8
A-FURN-2
 10
-32.888485
 20
-9.078674
 11
-29.872314
 21
-6.062508
  0
LINE
  8
A-FURN-2
 10
-32.930199
 20
76.882545
 11
33.005383
 21
76.882545
  0
LINE
  8
A-FURN-2
 10
-29.872314
 20
76.882545
 11
-29.872314
 21
-6.062508
  0
LINE
  8
A-FURN-2
 10
-29.872314
 20
-6.062508
 11
29.947502
 21
-6.062508
  0
LINE
  8
A-FURN-2
 10
29.947502
 20
-6.062508
 11
29.947502
 21
76.882545
  0
LINE
  8
A-FURN-2
 10
29.947502
 20
-6.062508
 11
33.005383
 21
-9.120384
  0
LINE
  8
A-FURN-2
 10
-28.877428
 20
72.922468
 11
-0.867468
 21
72.922468
  0
LINE
  8
A-FURN-2
 10
-0.867468
 20
72.922468
 11
-0.867468
 21
51.937515
  0
LINE
  8
A-FURN-2
 10
-0.867468
 20
51.937515
 11
-28.877428
 21
51.937515
  0
LINE
  8
A-FURN-2
 10
-28.877428
 20
51.937515
 11
-28.877428
 21
72.922468
  0
LINE
  8
A-FURN-2
 10
1.113944
 20
51.937515
 11
1.113944
 21
72.922468
  0
LINE
  8
A-FURN-2
 10
1.113944
 20
72.922468
 11
29.123905
 21
72.922468
  0
LINE
  8
A-FURN-2
 10
29.123905
 20
72.922468
 11
29.123905
 21
51.937515
  0
LINE
  8
A-FURN-2
 10
29.123905
 20
51.937515
 11
1.113944
 21
51.937515
  0
ARC
  8
A-FURN-2
 10
-39.369907
 20
62.429993
 40
14.838604
 50
315.000005
 51
0.000000
  0
ARC
  8
A-FURN-2
 10
-39.369907
 20
62.429993
 40
14.838604
 50
0.000000
 51
44.999990
  0
ARC
  8
A-FURN-2
 10
9.625010
 20
62.429993
 40
14.838604
 50
135.000005
 51
180.000000
  0
ARC
  8
A-FURN-2
 10
9.625010
 20
62.429993
 40
14.838604
 50
180.000000
 51
225.000000
  0
ARC
  8
A-FURN-2
 10
-9.378533
 20
62.429993
 40
14.838604
 50
315.000001
 51
0.000000
  0
ARC
  8
A-FURN-2
 10
-9.378533
 20
62.429993
 40
14.838604
 50
0.000000
 51
44.999994
  0
ARC
  8
A-FURN-2
 10
39.616383
 20
62.429993
 40
14.838604
 50
135.000005
 51
180.000000
  0
ARC
  8
A-FURN-2
 10
39.616383
 20
62.429993
 40
14.838604
 50
180.000000
 51
225.000000
  0
ENDBLK
  0
BLOCK
  8
A-FURN-2
  2
FIXT-nitstn04
 70
64
 10
0.0
 20
0.0
  0
LINE
  8
A-FURN-2
 10
9.965295
 20
17.973040
 11
9.965295
 21
1.050323
  0
LINE
  8
A-FURN-2
 10
9.965295
 20
1.050323
 11
-9.965295
 21
1.050323
  0
LINE
  8
A-FURN-2
 10
-9.965295
 20
1.050323
 11
-9.965295
 21
17.973040
  0
LINE
  8
A-FURN-2
 10
-9.965295
 20
17.973040
 11
9.965295
 21
17.973040
  0
LINE
  8
A-FURN-2
 10
-8.972636
 20
2.042982
 11
8.972636
 21
2.042982
  0
LINE
  8
A-FURN-2
 10
8.972636
 20
2.042982
 11
8.972636
 21
16.980382
  0
LINE
  8
A-FURN-2
 10
8.972636
 20
16.980382
 11
-8.972636
 21
16.980382
  0
LINE
  8
A-FURN-2
 10
-8.972636
 20
16.980382
 11
-8.972636
 21
2.042982
  0
LINE
  8
A-FURN-2
 10
-8.972636
 20
16.980382
 11
-9.992254
 21
18.000000
  0
LINE
  8
A-FURN-2
 10
8.972636
 20
16.980382
 11
9.992254
 21
18.000000
  0
LINE
  8
A-FURN-2
 10
8.972636
 20
2.042982
 11
9.992254
 21
1.023365
  0
LINE
  8
A-FURN-2
 10
-8.972636
 20
2.042982
 11
-9.992254
 21
1.023365
  0
LINE
  8
A-FURN-2
 10
2.024029
 20
1.063622
 11
2.024029
 21
0.057665
  0
LINE
  8
A-FURN-2
 10
2.024029
 20
0.057665
 11
-1.955570
 21
0.057665
  0
LINE
  8
A-FURN-2
 10
-1.955570
 20
0.057665
 11
-1.955570
 21
1.063622
  0
LINE
  8
A-FURN-2
 10
-1.955570
 20
1.063622
 11
2.024029
 21
1.063622
  0
ENDBLK
  0
BLOCK
  8
A-FURN-2
  2
FIXT-Dresng48
 70
64
 10
0.0
 20
0.0
  0
ARC
  8
A-FURN-2
 10
11.600245
 20
2.169289
 40
1.605391
 50
180.000000
 51
270.000000
  0
ARC
  8
A-FURN-2
 10
20.535124
 20
4.006065
 40
3.442167
 50
270.000000
 51
0.000000
  0
LINE
  8
A-FURN-2
 10
11.600245
 20
0.563898
 11
20.535124
 21
0.563898
  0
ARC
  8
A-FURN-2
 10
20.535124
 20
15.143538
 40
3.442167
 50
0.000000
 51
90.000000
  0
LINE
  8
A-FURN-2
 10
23.977291
 20
4.006065
 11
23.977291
 21
15.143538
  0
ARC
  8
A-FURN-2
 10
-20.535124
 20
15.143538
 40
3.442167
 50
90.000000
 51
180.000000
  0
LINE
  8
A-FURN-2
 10
20.535124
 20
18.585706
 11
-20.535124
 21
18.585706
  0
ARC
  8
A-FURN-2
 10
-20.535124
 20
4.006065
 40
3.442167
 50
180.000000
 51
270.000000
  0
LINE
  8
A-FURN-2
 10
-23.977291
 20
15.143538
 11
-23.977291
 21
4.006065
  0
ARC
  8
A-FURN-2
 10
-11.600245
 20
2.169289
 40
1.605391
 50
270.000000
 51
0.000000
  0
LINE
  8
A-FURN-2
 10
-20.535124
 20
0.563898
 11
-11.600245
 21
0.563898
  0
ARC
  8
A-FURN-2
 10
-8.389462
 20
2.169289
 40
1.605391
 50
90.000000
 51
180.000000
  0
LINE
  8
A-FURN-2
 10
-9.994853
 20
2.169289
 11
-9.994853
 21
2.169289
  0
ARC
  8
A-FURN-2
 10
8.389462
 20
2.169289
 40
1.605391
 50
0.000000
 51
90.000000
  0
LINE
  8
A-FURN-2
 10
-8.389462
 20
3.774679
 11
8.389462
 21
3.774679
  0
LINE
  8
A-FURN-2
 10
9.994853
 20
2.169289
 11
9.994853
 21
2.169289
  0
ENDBLK
  0
BLOCK
  8
A-FURN-2
  2
FIXT-cdraw001
 70
64
 10
0.0
 20
0.0
  0
LINE
  8
A-FURN-2
 10
17.996254
 20
20.000000
 11
17.996254
 21
0.984129
  0
LINE
  8
A-FURN-2
 10
17.996254
 20
0.984129
 11
-17.996254
 21
0.984129
  0
LINE
  8
A-FURN-2
 10
-17.996254
 20
0.984129
 11
-17.996254
 21
20.000000
  0
LINE
  8
A-FURN-2
 10
-17.996254
 20
20.000000
 11
17.996254
 21
20.000000
  0
LINE
  8
A-FURN-2
 10
-1.988255
 20
0.984129
 11
-1.988255
 21
-0.035490
  0
LINE
  8
A-FURN-2
 10
-1.988255
 20
-0.035490
 11
1.937274
 21
-0.035490
  0
LINE
  8
A-FURN-2
 10
1.937274
 20
-0.035490
 11
1.937274
 21
0.984129
  0
ENDBLK
  0
BLOCK
  8
A-FURN-2
  2
FIXT-sofareca
 70
64
 10
0.0
 20
0.0
  0
LINE
  8
A-FURN-2
 10
16.997557
 20
-8.884338
 11
16.997557
 21
60.056798
  0
LINE
  8
A-FURN-2
 10
16.997557
 20
60.056798
 11
-16.997557
 21
60.056798
  0
LINE
  8
A-FURN-2
 10
-16.997557
 20
60.056798
 11
-16.997557
 21
-8.884338
  0
LINE
  8
A-FURN-2
 10
-16.997557
 20
-8.884338
 11
16.997557
 21
-8.884338
  0
LINE
  8
A-FURN-2
 10
-16.997557
 20
41.038555
 11
-22.940758
 21
41.038555
  0
LINE
  8
A-FURN-2
 10
-22.940758
 20
41.038555
 11
-22.940758
 21
66.000000
  0
LINE
  8
A-FURN-2
 10
-22.940758
 20
66.000000
 11
22.940758
 21
66.000000
  0
LINE
  8
A-FURN-2
 10
22.940758
 20
66.000000
 11
22.940758
 21
41.038555
  0
LINE
  8
A-FURN-2
 10
22.940758
 20
41.038555
 11
16.997557
 21
41.038555
  0
LINE
  8
A-FURN-2
 10
-16.997557
 20
60.056798
 11
-22.940758
 21
66.000000
  0
LINE
  8
A-FURN-2
 10
16.997557
 20
60.056798
 11
22.940758
 21
66.000000
  0
ENDBLK
  0
BLOCK
  8
A-FURN-2
  2
FIXT-sidechr2
 70
64
 10
0.0
 20
0.0
  0
ARC
  8
A-FURN-2
 10
6.682232
 20
11.682577
 40
2.317423
 50
0.000000
 51
90.000000
  0
LINE
  8
A-FURN-2
 10
6.682232
 20
14.000000
 11
-6.682232
 21
14.000000
  0
ARC
  8
A-FURN-2
 10
-6.682232
 20
11.682577
 40
2.317423
 50
90.000000
 51
180.000000
  0
LINE
  8
A-FURN-2
 10
-8.999656
 20
11.682577
 11
-8.999656
 21
-1.681888
  0
ARC
  8
A-FURN-2
 10
-6.682232
 20
-1.681888
 40
2.317423
 50
180.000000
 51
270.000000
  0
LINE
  8
A-FURN-2
 10
-6.682232
 20
-3.999311
 11
6.682232
 21
-3.999311
  0
ARC
  8
A-FURN-2
 10
6.682232
 20
-1.681888
 40
2.317423
 50
270.000000
 51
0.000000
  0
LINE
  8
A-FURN-2
 10
8.999656
 20
-1.681888
 11
8.999656
 21
11.682577
  0
ARC
  8
A-FURN-2
 10
-7.803170
 20
0.162378
 40
1.144465
 50
270.000000
 51
0.000000
  0
LINE
  8
A-FURN-2
 10
-8.947635
 20
-0.982086
 11
-7.803170
 21
-0.982086
  0
ARC
  8
A-FURN-2
 10
-5.040187
 20
10.092552
 40
1.618518
 50
90.000000
 51
180.000000
  0
LINE
  8
A-FURN-2
 10
-6.658705
 20
0.162378
 11
-6.658705
 21
10.092552
  0
ARC
  8
A-FURN-2
 10
5.040187
 20
10.092552
 40
1.618518
 50
0.000000
 51
90.000000
  0
LINE
  8
A-FURN-2
 10
-5.040187
 20
11.711070
 11
5.040187
 21
11.711070
  0
ARC
  8
A-FURN-2
 10
7.829181
 20
0.188389
 40
1.170475
 50
180.000000
 51
270.000000
  0
LINE
  8
A-FURN-2
 10
6.658705
 20
10.092552
 11
6.658705
 21
0.188389
  0
LINE
  8
A-FURN-2
 10
7.829181
 20
-0.982086
 11
8.999656
 21
-0.982086
  0
ENDBLK
  0
BLOCK
  8
A-FURN-2
  2
FIXT-tvcrt02
 70
64
 10
0.0
 20
0.0
  0
LINE
  8
A-FURN-2
 10
13.895146
 20
9.044383
 11
13.895146
 21
1.076044
  0
LINE
  8
A-FURN-2
 10
13.895146
 20
1.076044
 11
-13.965787
 21
1.076044
  0
LINE
  8
A-FURN-2
 10
-13.965787
 20
1.076044
 11
-13.965787
 21
9.044383
  0
LINE
  8
A-FURN-2
 10
-13.965787
 20
9.044383
 11
13.895146
 21
9.044383
  0
LINE
  8
A-FURN-2
 10
-12.948552
 20
9.100897
 11
-6.520871
 21
20.233967
  0
LINE
  8
A-FURN-2
 10
-6.520871
 20
20.233967
 11
6.435423
 21
20.233967
  0
LINE
  8
A-FURN-2
 10
6.435423
 20
20.233967
 11
12.863105
 21
9.100897
  0
LINE
  8
A-FURN-2
 10
17.999407
 20
22.000000
 11
17.999407
 21
0.044680
  0
LINE
  8
A-FURN-2
 10
17.999407
 20
0.044680
 11
-17.999407
 21
0.044680
  0
LINE
  8
A-FURN-2
 10
-17.999407
 20
0.044680
 11
-17.999407
 21
22.000000
  0
LINE
  8
A-FURN-2
 10
-17.999407
 20
22.000000
 11
17.999407
 21
22.000000
  0
ENDBLK
  0
BLOCK
  8
A-FURN-2
  2
FIXT-bedt3976
 70
64
 10
0.0
 20
0.0
  0
LINE
  8
A-FURN-2
 10
-20.958750
 20
78.020000
 11
20.981251
 21
78.020000
  0
LINE
  8
A-FURN-2
 10
20.981251
 20
78.020000
 11
20.981251
 21
80.000000
  0
LINE
  8
A-FURN-2
 10
20.981251
 20
80.000000
 11
-20.958750
 21
80.000000
  0
LINE
  8
A-FURN-2
 10
-20.958750
 20
80.000000
 11
-20.958750
 21
78.020000
  0
LINE
  8
A-FURN-2
 10
19.987762
 20
2.183807
 11
19.987762
 21
77.958905
  0
LINE
  8
A-FURN-2
 10
19.987762
 20
77.958905
 11
-20.010262
 21
77.958905
  0
LINE
  8
A-FURN-2
 10
-20.010262
 20
77.958905
 11
-20.010262
 21
2.183807
  0
LINE
  8
A-FURN-2
 10
-20.010262
 20
2.183807
 11
19.987762
 21
2.183807
  0
LINE
  8
A-FURN-2
 10
20.958750
 20
2.059998
 11
-20.981251
 21
2.059998
  0
LINE
  8
A-FURN-2
 10
-20.981251
 20
2.059998
 11
-20.981251
 21
0.080002
  0
LINE
  8
A-FURN-2
 10
-20.981251
 20
0.080002
 11
20.958750
 21
0.080002
  0
LINE
  8
A-FURN-2
 10
20.958750
 20
0.080002
 11
20.958750
 21
2.059998
  0
LINE
  8
A-FURN-2
 10
-15.960605
 20
53.059330
 11
-15.960605
 21
74.063914
  0
LINE
  8
A-FURN-2
 10
-15.960605
 20
74.063914
 11
16.046867
 21
74.063914
  0
LINE
  8
A-FURN-2
 10
16.046867
 20
74.063914
 11
16.046867
 21
53.059330
  0
LINE
  8
A-FURN-2
 10
16.046867
 20
53.059330
 11
-15.960605
 21
53.059330
  0
ARC
  8
A-FURN-2
 10
-26.462896
 20
63.561623
 40
14.852484
 50
314.999997
 51
0.000000
  0
ARC
  8
A-FURN-2
 10
-26.462896
 20
63.561623
 40
14.852484
 50
0.000000
 51
44.999999
  0
ARC
  8
A-FURN-2
 10
26.549160
 20
63.561623
 40
14.852484
 50
135.000004
 51
180.000000
  0
ARC
  8
A-FURN-2
 10
26.549160
 20
63.561623
 40
14.852484
 50
180.000000
 51
225.000000
  0
ENDBLK
  0
BLOCK
  8
A-FURN-2
  2
FIXT-Beddub01
 70
64
 10
0.0
 20
0.0
  0
LINE
  8
A-FURN-2
 10
-26.974157
 20
78.014788
 11
-26.974157
 21
1.839394
  0
LINE
  8
A-FURN-2
 10
-26.974157
 20
1.839394
 11
26.986168
 21
1.839394
  0
LINE
  8
A-FURN-2
 10
26.986168
 20
1.839394
 11
26.986168
 21
78.014788
  0
LINE
  8
A-FURN-2
 10
26.986168
 20
78.014788
 11
-29.036011
 21
78.014788
  0
LINE
  8
A-FURN-2
 10
-29.036011
 20
78.014788
 11
-29.036011
 21
80.000000
  0
LINE
  8
A-FURN-2
 10
-29.036011
 20
80.000000
 11
29.036011
 21
80.000000
  0
LINE
  8
A-FURN-2
 10
29.036011
 20
80.000000
 11
29.036011
 21
77.977994
  0
LINE
  8
A-FURN-2
 10
29.036011
 20
77.977994
 11
26.986168
 21
77.977994
  0
ARC
  8
A-FURN-2
 10
-26.436769
 20
63.514618
 40
14.811591
 50
315.000000
 51
0.000000
  0
ARC
  8
A-FURN-2
 10
-26.436769
 20
63.514618
 40
14.811591
 50
0.000000
 51
44.999999
  0
ARC
  8
A-FURN-2
 10
26.537395
 20
63.514618
 40
14.811591
 50
135.000001
 51
180.000000
  0
ARC
  8
A-FURN-2
 10
26.537395
 20
63.514618
 40
14.811591
 50
180.000000
 51
225.000000
  0
LINE
  8
A-FURN-2
 10
28.954601
 20
1.839394
 11
-28.987591
 21
1.839394
  0
LINE
  8
A-FURN-2
 10
-28.987591
 20
1.839394
 11
-28.987591
 21
0.082695
  0
LINE
  8
A-FURN-2
 10
-28.987591
 20
0.082695
 11
28.954601
 21
0.082695
  0
LINE
  8
A-FURN-2
 10
28.954601
 20
0.082695
 11
28.954601
 21
1.839394
  0
LINE
  8
A-FURN-2
 10
16.064018
 20
53.041241
 11
16.064018
 21
73.987995
  0
LINE
  8
A-FURN-2
 10
16.064018
 20
73.987995
 11
-15.963392
 21
73.987995
  0
LINE
  8
A-FURN-2
 10
-15.963392
 20
73.987995
 11
-15.963392
 21
53.041241
  0
LINE
  8
A-FURN-2
 10
-15.963392
 20
53.041241
 11
16.064018
 21
53.041241
  0
ENDBLK
  0
BLOCK
  8
A-FURN-2
  2
FIXT-Chest60
 70
64
 10
0.0
 20
0.0
  0
LINE
  8
A-FURN-2
 10
29.932774
 20
18.585706
 11
-29.932774
 21
18.585706
  0
LINE
  8
A-FURN-2
 10
-29.932774
 20
18.585706
 11
-29.932774
 21
0.563898
  0
LINE
  8
A-FURN-2
 10
-29.932774
 20
0.563898
 11
29.932774
 21
0.563898
  0
LINE
  8
A-FURN-2
 10
29.932774
 20
0.563898
 11
29.932774
 21
18.585706
  0
ENDBLK
  0
BLOCK
  8
A-FURN-2
  2
FIXT-seat3632
 70
64
 10
0.0
 20
0.0
  0
LINE
  8
A-FURN-2
 10
15.906859
 20
36.000000
 11
-15.906859
 21
36.000000
  0
LINE
  8
A-FURN-2
 10
-15.906859
 20
36.000000
 11
-15.906859
 21
-0.026325
  0
LINE
  8
A-FURN-2
 10
-15.906859
 20
-0.026325
 11
15.906859
 21
-0.026325
  0
LINE
  8
A-FURN-2
 10
15.906859
 20
-0.026325
 11
15.906859
 21
36.000000
  0
LINE
  8
A-FURN-2
 10
-16.104507
 20
30.472151
 11
15.895205
 21
30.472151
  0
ARC
  8
A-FURN-2
 10
-0.133503
 20
66.983116
 40
40.760502
 50
255.000000
 51
270.000000
  0
ARC
  8
A-FURN-2
 10
-0.133503
 20
66.983116
 40
40.760502
 50
270.000000
 51
284.999999
  0
LINE
  8
A-FURN-2
 10
-10.546526
 20
30.447630
 11
-10.546526
 21
5.567564
  0
LINE
  8
A-FURN-2
 10
10.546526
 20
30.447630
 11
10.546526
 21
5.567564
  0
LINE
  8
A-FURN-2
 10
-10.546526
 20
5.567564
 11
-15.879167
 21
5.567564
  0
LINE
  8
A-FURN-2
 10
10.546526
 20
5.567564
 11
15.879167
 21
5.567564
  0
ENDBLK
  0
BLOCK
  8
A-CASE-2
  2
FIXT-Shwr60
 70
64
 10
0.0
 20
0.0
  0
LINE
  8
A-CASE-2
 10
-29.963196
 20
2.971920
 11
29.987392
 21
2.971920
  0
LINE
  8
A-CASE-2
 10
-27.265932
 20
6.097593
 11
-5.551453
 21
18.634455
  0
LINE
  8
A-CASE-2
 10
27.385593
 20
33.365020
 11
-27.385593
 21
33.365020
  0
LINE
  8
A-CASE-2
 10
-27.385593
 20
33.365020
 11
-27.385593
 21
5.977932
  0
LINE
  8
A-CASE-2
 10
-27.385593
 20
5.977932
 11
27.385593
 21
5.977932
  0
LINE
  8
A-CASE-2
 10
27.385593
 20
5.977932
 11
27.385593
 21
33.365020
  0
CIRCLE
  8
A-CASE-2
 10
0.082513
 20
19.722193
 40
1.102624
  0
LINE
  8
A-CASE-2
 10
27.146271
 20
33.125696
 11
5.343473
 21
20.537846
  0
LINE
  8
A-CASE-2
 10
27.265932
 20
6.097593
 11
5.557290
 21
18.631084
  0
LINE
  8
A-CASE-2
 10
-27.182060
 20
33.073641
 11
-5.719962
 21
20.682493
  0
ENDBLK
  0
BLOCK
  8
A-POWR-2
  2
FIXT-GFI_Out
 70
64
 10
0.0
 20
0.0
  0
CIRCLE
  8
A-POWR-2
 10
-0.006993
 20
-5.734540
 40
3.254864
  0
LINE
  8
A-POWR-2
 10
-1.973961
 20
-8.380580
 11
-1.973961
 21
-0.000000
  0
LINE
  8
A-POWR-2
 10
2.006808
 20
-8.286915
 11
2.006808
 21
-0.000000
  0
TEXT
  8
A-POWR-2
 10
-2.176550
 20
-15.391215
 40
2.084462
  1
GFI
  7
STANDARD
  0
ENDBLK
  0
BLOCK
  8
A-POWR-2
  2
FIXT-WP_Out
 70
64
 10
0.0
 20
0.0
  0
CIRCLE
  8
A-POWR-2
 10
-0.006993
 20
-5.734540
 40
3.254864
  0
LINE
  8
A-POWR-2
 10
-1.973961
 20
-8.380580
 11
-1.973961
 21
-0.000000
  0
LINE
  8
A-POWR-2
 10
2.006808
 20
-8.286915
 11
2.006808
 21
-0.000000
  0
TEXT
  8
A-POWR-2
 10
-2.216396
 20
-15.391215
 40
2.084462
  1
WP
  7
STANDARD
  0
ENDBLK
  0
BLOCK
  8
A-POWR-2
  2
FIXT-3_Way
 70
64
 10
0.0
 20
0.0
  0
LINE
  8
A-POWR-2
 10
1.506088
 20
-2.396511
 11
-2.053707
 21
-2.396511
  0
ARC
  8
A-POWR-2
 10
-2.053707
 20
-4.016987
 40
1.620476
 50
90.000000
 51
181.041633
  0
ARC
  8
A-POWR-2
 10
-1.993710
 20
-4.015897
 40
1.680484
 50
181.041622
 51
270.000000
  0
LINE
  8
A-POWR-2
 10
-1.993710
 20
-5.696380
 11
-0.263288
 21
-5.696380
  0
ARC
  8
A-POWR-2
 10
-0.173292
 20
-7.420123
 40
1.636124
 50
270.000000
 51
1.534338
  0
ARC
  8
A-POWR-2
 10
-0.263288
 20
-7.422534
 40
1.726153
 50
1.534347
 51
90.000000
  0
LINE
  8
A-POWR-2
 10
-0.173292
 20
-9.056247
 11
-3.662938
 21
-9.056247
  0
LINE
  8
A-POWR-2
 10
-1.156680
 20
-0.026605
 11
-1.156680
 21
-11.036168
  0
TEXT
  8
A-POWR-2
 10
0.376841
 20
-14.456529
 40
2.779283
  1
3
  7
STANDARD
  0
ENDBLK
  0
BLOCK
  8
A-POWR-2
  2
FIXT-4_Way
 70
64
 10
0.0
 20
0.0
  0
LINE
  8
A-POWR-2
 10
1.506088
 20
-2.396511
 11
-2.053707
 21
-2.396511
  0
ARC
  8
A-POWR-2
 10
-2.053707
 20
-4.016987
 40
1.620476
 50
90.000000
 51
181.041633
  0
ARC
  8
A-POWR-2
 10
-1.993710
 20
-4.015897
 40
1.680484
 50
181.041622
 51
270.000000
  0
LINE
  8
A-POWR-2
 10
-1.993710
 20
-5.696380
 11
-0.263288
 21
-5.696380
  0
ARC
  8
A-POWR-2
 10
-0.173292
 20
-7.420123
 40
1.636124
 50
270.000000
 51
1.534338
  0
ARC
  8
A-POWR-2
 10
-0.263288
 20
-7.422534
 40
1.726153
 50
1.534347
 51
90.000000
  0
LINE
  8
A-POWR-2
 10
-0.173292
 20
-9.056247
 11
-3.662938
 21
-9.056247
  0
LINE
  8
A-POWR-2
 10
-1.156680
 20
-0.026605
 11
-1.156680
 21
-11.036168
  0
TEXT
  8
A-POWR-2
 10
0.376841
 20
-14.456529
 40
2.779283
  1
4
  7
STANDARD
  0
ENDBLK
  0
BLOCK
  8
A-POWR-2
  2
FIXT-5_Way
 70
64
 10
0.0
 20
0.0
  0
LINE
  8
A-POWR-2
 10
1.506088
 20
-2.396511
 11
-2.053707
 21
-2.396511
  0
ARC
  8
A-POWR-2
 10
-2.053707
 20
-4.016987
 40
1.620476
 50
90.000000
 51
181.041633
  0
ARC
  8
A-POWR-2
 10
-1.993710
 20
-4.015897
 40
1.680484
 50
181.041622
 51
270.000000
  0
LINE
  8
A-POWR-2
 10
-1.993710
 20
-5.696380
 11
-0.263288
 21
-5.696380
  0
ARC
  8
A-POWR-2
 10
-0.173292
 20
-7.420123
 40
1.636124
 50
270.000000
 51
1.534338
  0
ARC
  8
A-POWR-2
 10
-0.263288
 20
-7.422534
 40
1.726153
 50
1.534347
 51
90.000000
  0
LINE
  8
A-POWR-2
 10
-0.173292
 20
-9.056247
 11
-3.662938
 21
-9.056247
  0
LINE
  8
A-POWR-2
 10
-1.156680
 20
-0.026605
 11
-1.156680
 21
-11.036168
  0
TEXT
  8
A-POWR-2
 10
0.376841
 20
-14.456529
 40
2.779283
  1
5
  7
STANDARD
  0
ENDBLK
  0
ENDSEC
  0
SECTION
  2
ENTITIES
  0
LINE
  8
A-STAR-2
 10
-217.000000
 20
-603.000000
 11
-208.000000
 21
-603.000000
  0
LINE
  8
A-STAR-2
 10
-208.000000
 20
-603.000000
 11
-208.000000
 21
-561.000000
  0
LINE
  8
A-STAR-2
 10
-208.000000
 20
-561.000000
 11
-217.000000
 21
-561.000000
  0
LINE
  8
A-STAR-2
 10
-226.000000
 20
-603.000000
 11
-217.000000
 21
-603.000000
  0
LINE
  8
A-STAR-2
 10
-217.000000
 20
-603.000000
 11
-217.000000
 21
-561.000000
  0
LINE
  8
A-STAR-2
 10
-217.000000
 20
-561.000000
 11
-226.000000
 21
-561.000000
  0
LINE
  8
A-STAR-2
 10
-226.000000
 20
-603.000000
 11
-226.000000
 21
-561.000000
  0
LINE
  8
A-STAR-2
 10
-226.000000
 20
-560.500000
 11
-226.000000
 21
-603.500000
  0
LINE
  8
A-STAR-2
 10
-226.000000
 20
-603.500000
 11
-268.000000
 21
-603.500000
  0
LINE
  8
A-STAR-2
 10
-268.000000
 20
-603.500000
 11
-268.000000
 21
-560.500000
  0
LINE
  8
A-STAR-2
 10
-268.000000
 20
-560.500000
 11
-226.000000
 21
-560.500000
  0
LINE
  8
A-STAR-2
 10
-268.000000
 20
-551.200000
 11
-268.000000
 21
-560.500000
  0
LINE
  8
A-STAR-2
 10
-268.000000
 20
-560.500000
 11
-226.000000
 21
-560.500000
  0
LINE
  8
A-STAR-2
 10
-226.000000
 20
-560.500000
 11
-226.000000
 21
-551.200000
  0
LINE
  8
A-STAR-2
 10
-268.000000
 20
-541.900000
 11
-268.000000
 21
-551.200000
  0
LINE
  8
A-STAR-2
 10
-268.000000
 20
-551.200000
 11
-226.000000
 21
-551.200000
  0
LINE
  8
A-STAR-2
 10
-226.000000
 20
-551.200000
 11
-226.000000
 21
-541.900000
  0
LINE
  8
A-STAR-2
 10
-268.000000
 20
-532.600000
 11
-268.000000
 21
-541.900000
  0
LINE
  8
A-STAR-2
 10
-268.000000
 20
-541.900000
 11
-226.000000
 21
-541.900000
  0
LINE
  8
A-STAR-2
 10
-226.000000
 20
-541.900000
 11
-226.000000
 21
-532.600000
  0
LINE
  8
A-STAR-2
 10
-268.000000
 20
-523.300000
 11
-268.000000
 21
-532.600000
  0
LINE
  8
A-STAR-2
 10
-268.000000
 20
-532.600000
 11
-226.000000
 21
-532.600000
  0
LINE
  8
A-STAR-2
 10
-226.000000
 20
-532.600000
 11
-226.000000
 21
-523.300000
  0
LINE
  8
A-STAR-2
 10
-268.000000
 20
-514.000000
 11
-268.000000
 21
-523.300000
  0
LINE
  8
A-STAR-2
 10
-268.000000
 20
-523.300000
 11
-226.000000
 21
-523.300000
  0
LINE
  8
A-STAR-2
 10
-226.000000
 20
-523.300000
 11
-226.000000
 21
-514.000000
  0
LINE
  8
A-STAR-2
 10
-268.000000
 20
-514.000000
 11
-226.000000
 21
-514.000000
  0
LINE
  8
A-STAR-2
 10
-225.500000
 20
-514.000000
 11
-268.000000
 21
-514.000000
  0
LINE
  8
A-STAR-2
 10
-268.000000
 20
-514.000000
 11
-268.000000
 21
-472.000000
  0
LINE
  8
A-STAR-2
 10
-268.000000
 20
-472.000000
 11
-225.500000
 21
-472.000000
  0
LINE
  8
A-STAR-2
 10
-225.500000
 20
-472.000000
 11
-225.500000
 21
-514.000000
  0
LINE
  8
A-STAR-2
 10
-216.500000
 20
-472.000000
 11
-225.500000
 21
-472.000000
  0
LINE
  8
A-STAR-2
 10
-225.500000
 20
-472.000000
 11
-225.500000
 21
-514.000000
  0
LINE
  8
A-STAR-2
 10
-225.500000
 20
-514.000000
 11
-216.500000
 21
-514.000000
  0
LINE
  8
A-STAR-2
 10
-207.500000
 20
-472.000000
 11
-216.500000
 21
-472.000000
  0
LINE
  8
A-STAR-2
 10
-216.500000
 20
-472.000000
 11
-216.500000
 21
-514.000000
  0
LINE
  8
A-STAR-2
 10
-216.500000
 20
-514.000000
 11
-207.500000
 21
-514.000000
  0
LINE
  8
A-STAR-2
 10
-198.500000
 20
-472.000000
 11
-207.500000
 21
-472.000000
  0
LINE
  8
A-STAR-2
 10
-207.500000
 20
-472.000000
 11
-207.500000
 21
-514.000000
  0
LINE
  8
A-STAR-2
 10
-207.500000
 20
-514.000000
 11
-198.500000
 21
-514.000000
  0
LINE
  8
A-STAR-2
 10
-189.500000
 20
-472.000000
 11
-198.500000
 21
-472.000000
  0
LINE
  8
A-STAR-2
 10
-198.500000
 20
-472.000000
 11
-198.500000
 21
-514.000000
  0
LINE
  8
A-STAR-2
 10
-198.500000
 20
-514.000000
 11
-189.500000
 21
-514.000000
  0
LINE
  8
A-STAR-2
 10
-180.500000
 20
-472.000000
 11
-189.500000
 21
-472.000000
  0
LINE
  8
A-STAR-2
 10
-189.500000
 20
-472.000000
 11
-189.500000
 21
-514.000000
  0
LINE
  8
A-STAR-2
 10
-189.500000
 20
-514.000000
 11
-180.500000
 21
-514.000000
  0
LINE
  8
A-STAR-2
 10
-171.500000
 20
-472.000000
 11
-180.500000
 21
-472.000000
  0
LINE
  8
A-STAR-2
 10
-180.500000
 20
-472.000000
 11
-180.500000
 21
-514.000000
  0
LINE
  8
A-STAR-2
 10
-180.500000
 20
-514.000000
 11
-171.500000
 21
-514.000000
  0
LINE
  8
A-STAR-2
 10
-171.500000
 20
-472.000000
 11
-171.500000
 21
-514.000000
  0
TEXT
  8
A-POWR-2
 10
-185.644020
 20
-496.136343
 40
4.516334
  1
DN
  7
STANDARD
  0
LINE
  8
A-STAR-2
 10
-190.500000
 20
-493.000000
 11
-215.500000
 21
-493.000000
  0
LINE
  8
A-STAR-2
 10
-171.500000
 20
-472.000000
 11
-171.500000
 21
-514.000000
  0
LINE
  8
A-WALL-2
 10
-242.000000
 20
-255.000000
 11
-274.000000
 21
-255.000000
  0
LINE
  8
A-WALL-2
 10
-270.000000
 20
-259.000000
 11
-242.000000
 21
-259.000000
  0
LINE
  8
A-WALL-2
 10
-142.000000
 20
-259.000000
 11
-102.000000
 21
-259.000000
  0
LINE
  8
A-WALL-2
 10
-84.000000
 20
-255.000000
 11
-142.000000
 21
-255.000000
  0
LINE
  8
A-WALL-2
 10
-98.000000
 20
-259.000000
 11
-84.000000
 21
-259.000000
  0
LINE
  8
A-WALL-2
 10
16.000000
 20
-255.000000
 11
-56.000000
 21
-255.000000
  0
LINE
  8
A-WALL-2
 10
-56.000000
 20
-259.000000
 11
16.000000
 21
-259.000000
  0
LINE
  8
A-WALL-2
 10
44.000000
 20
-259.000000
 11
54.000000
 21
-259.000000
  0
LINE
  8
A-WALL-2
 10
58.000000
 20
-259.000000
 11
94.000000
 21
-259.000000
  0
LINE
  8
A-WALL-2
 10
188.000000
 20
-255.000000
 11
44.000000
 21
-255.000000
  0
LINE
  8
A-WALL-2
 10
98.000000
 20
-259.000000
 11
188.000000
 21
-259.000000
  0
LINE
  8
A-WALL-2
 10
230.000000
 20
-255.000000
 11
220.000000
 21
-255.000000
  0
LINE
  8
A-WALL-2
 10
220.000000
 20
-259.000000
 11
226.000000
 21
-259.000000
  0
LINE
  8
A-GLAZ-2
 10
-210.000000
 20
-255.000000
 11
-210.000000
 21
-259.000000
  0
LINE
  8
A-GLAZ-2
 10
-242.000000
 20
-259.000000
 11
-242.000000
 21
-255.000000
  0
LINE
  8
A-GLAZ-2
 10
-242.000000
 20
-259.000000
 11
-210.000000
 21
-259.000000
  0
LINE
  8
A-GLAZ-2
 10
-210.000000
 20
-255.000000
 11
-242.000000
 21
-255.000000
  0
LINE
  8
A-GLAZ-2
 10
-210.000000
 20
-257.000000
 11
-242.000000
 21
-257.000000
  0
TEXT
  8
A-DIMS-2
 10
-235.563123
 20
-250.509603
 40
5.558566
  1
2852
  7
STANDARD
  0
LINE
  8
A-GLAZ-2
 10
-176.000000
 20
-255.000000
 11
-176.000000
 21
-259.000000
  0
LINE
  8
A-GLAZ-2
 10
-208.000000
 20
-259.000000
 11
-208.000000
 21
-255.000000
  0
LINE
  8
A-GLAZ-2
 10
-208.000000
 20
-255.000000
 11
-210.000000
 21
-255.000000
  0
LINE
  8
A-GLAZ-2
 10
-208.000000
 20
-259.000000
 11
-210.000000
 21
-259.000000
  0
LINE
  8
A-GLAZ-2
 10
-208.000000
 20
-259.000000
 11
-176.000000
 21
-259.000000
  0
LINE
  8
A-GLAZ-2
 10
-176.000000
 20
-255.000000
 11
-208.000000
 21
-255.000000
  0
LINE
  8
A-GLAZ-2
 10
-176.000000
 20
-257.000000
 11
-208.000000
 21
-257.000000
  0
TEXT
  8
A-DIMS-2
 10
-201.563123
 20
-250.509603
 40
5.558566
  1
2852
  7
STANDARD
  0
LINE
  8
A-GLAZ-2
 10
-142.000000
 20
-255.000000
 11
-142.000000
 21
-259.000000
  0
LINE
  8
A-GLAZ-2
 10
-174.000000
 20
-259.000000
 11
-174.000000
 21
-255.000000
  0
LINE
  8
A-GLAZ-2
 10
-174.000000
 20
-255.000000
 11
-176.000000
 21
-255.000000
  0
LINE
  8
A-GLAZ-2
 10
-174.000000
 20
-259.000000
 11
-176.000000
 21
-259.000000
  0
LINE
  8
A-GLAZ-2
 10
-174.000000
 20
-259.000000
 11
-142.000000
 21
-259.000000
  0
LINE
  8
A-GLAZ-2
 10
-142.000000
 20
-255.000000
 11
-174.000000
 21
-255.000000
  0
LINE
  8
A-GLAZ-2
 10
-142.000000
 20
-257.000000
 11
-174.000000
 21
-257.000000
  0
TEXT
  8
A-DIMS-2
 10
-167.563123
 20
-250.509603
 40
5.558566
  1
2852
  7
STANDARD
  0
LINE
  8
A-GLAZ-2
 10
-56.000000
 20
-255.000000
 11
-56.000000
 21
-259.000000
  0
LINE
  8
A-GLAZ-2
 10
-84.000000
 20
-259.000000
 11
-84.000000
 21
-255.000000
  0
LINE
  8
A-GLAZ-2
 10
-84.000000
 20
-259.000000
 11
-56.000000
 21
-259.000000
  0
LINE
  8
A-GLAZ-2
 10
-56.000000
 20
-255.000000
 11
-84.000000
 21
-255.000000
  0
LINE
  8
A-GLAZ-2
 10
-56.000000
 20
-257.000000
 11
-84.000000
 21
-257.000000
  0
TEXT
  8
A-DIMS-2
 10
-79.563123
 20
-250.509603
 40
5.558566
  1
2424
  7
STANDARD
  0
LINE
  8
A-GLAZ-2
 10
44.000000
 20
-255.000000
 11
44.000000
 21
-259.000000
  0
LINE
  8
A-GLAZ-2
 10
16.000000
 20
-259.000000
 11
16.000000
 21
-255.000000
  0
LINE
  8
A-GLAZ-2
 10
16.000000
 20
-259.000000
 11
44.000000
 21
-259.000000
  0
LINE
  8
A-GLAZ-2
 10
44.000000
 20
-255.000000
 11
16.000000
 21
-255.000000
  0
LINE
  8
A-GLAZ-2
 10
44.000000
 20
-257.000000
 11
16.000000
 21
-257.000000
  0
TEXT
  8
A-DIMS-2
 10
20.436877
 20
-250.509603
 40
5.558566
  1
2424
  7
STANDARD
  0
LINE
  8
A-GLAZ-2
 10
220.000000
 20
-255.000000
 11
220.000000
 21
-259.000000
  0
LINE
  8
A-GLAZ-2
 10
188.000000
 20
-259.000000
 11
188.000000
 21
-255.000000
  0
LINE
  8
A-GLAZ-2
 10
188.000000
 20
-259.000000
 11
220.000000
 21
-259.000000
  0
LINE
  8
A-GLAZ-2
 10
220.000000
 20
-255.000000
 11
188.000000
 21
-255.000000
  0
LINE
  8
A-GLAZ-2
 10
220.000000
 20
-257.000000
 11
188.000000
 21
-257.000000
  0
TEXT
  8
A-DIMS-2
 10
194.436877
 20
-250.509603
 40
5.558566
  1
2842
  7
STANDARD
  0
LINE
  8
A-WALL-2
 10
230.000000
 20
-268.000000
 11
230.000000
 21
-255.000000
  0
LINE
  8
A-WALL-2
 10
226.000000
 20
-259.000000
 11
226.000000
 21
-268.000000
  0
LINE
  8
A-WALL-2
 10
226.000000
 20
-334.000000
 11
226.000000
 21
-349.000000
  0
LINE
  8
A-WALL-2
 10
230.000000
 20
-370.000000
 11
230.000000
 21
-334.000000
  0
LINE
  8
A-WALL-2
 10
226.000000
 20
-353.000000
 11
226.000000
 21
-370.000000
  0
LINE
  8
A-WALL-2
 10
226.000000
 20
-398.000000
 11
226.000000
 21
-416.000000
  0
LINE
  8
A-WALL-2
 10
226.000000
 20
-420.000000
 11
226.000000
 21
-474.000000
  0
LINE
  8
A-WALL-2
 10
230.000000
 20
-511.000000
 11
230.000000
 21
-398.000000
  0
LINE
  8
A-WALL-2
 10
226.000000
 20
-478.000000
 11
226.000000
 21
-511.000000
  0
LINE
  8
A-WALL-2
 10
226.000000
 20
-577.000000
 11
226.000000
 21
-610.000000
  0
LINE
  8
A-WALL-2
 10
230.000000
 20
-692.000000
 11
230.000000
 21
-577.000000
  0
LINE
  8
A-WALL-2
 10
226.000000
 20
-614.000000
 11
226.000000
 21
-692.000000
  0
LINE
  8
A-WALL-2
 10
230.000000
 20
-762.000000
 11
230.000000
 21
-720.000000
  0
LINE
  8
A-WALL-2
 10
226.000000
 20
-720.000000
 11
226.000000
 21
-758.000000
  0
LINE
  8
A-GLAZ-2
 10
230.000000
 20
-300.000000
 11
226.000000
 21
-300.000000
  0
LINE
  8
A-GLAZ-2
 10
226.000000
 20
-268.000000
 11
230.000000
 21
-268.000000
  0
LINE
  8
A-GLAZ-2
 10
226.000000
 20
-268.000000
 11
226.000000
 21
-300.000000
  0
LINE
  8
A-GLAZ-2
 10
230.000000
 20
-300.000000
 11
230.000000
 21
-268.000000
  0
LINE
  8
A-GLAZ-2
 10
228.000000
 20
-300.000000
 11
228.000000
 21
-268.000000
  0
TEXT
  8
A-DIMS-2
 10
239.803243
 20
-293.563123
 40
5.558566
  1
2842
 50
90.000000
  7
STANDARD
  0
LINE
  8
A-GLAZ-2
 10
230.000000
 20
-334.000000
 11
226.000000
 21
-334.000000
  0
LINE
  8
A-GLAZ-2
 10
226.000000
 20
-302.000000
 11
230.000000
 21
-302.000000
  0
LINE
  8
A-GLAZ-2
 10
230.000000
 20
-302.000000
 11
230.000000
 21
-300.000000
  0
LINE
  8
A-GLAZ-2
 10
226.000000
 20
-302.000000
 11
226.000000
 21
-300.000000
  0
LINE
  8
A-GLAZ-2
 10
226.000000
 20
-302.000000
 11
226.000000
 21
-334.000000
  0
LINE
  8
A-GLAZ-2
 10
230.000000
 20
-334.000000
 11
230.000000
 21
-302.000000
  0
LINE
  8
A-GLAZ-2
 10
228.000000
 20
-334.000000
 11
228.000000
 21
-302.000000
  0
TEXT
  8
A-DIMS-2
 10
239.803243
 20
-327.563123
 40
5.558566
  1
2842
 50
90.000000
  7
STANDARD
  0
LINE
  8
A-GLAZ-2
 10
230.000000
 20
-398.000000
 11
226.000000
 21
-398.000000
  0
LINE
  8
A-GLAZ-2
 10
226.000000
 20
-370.000000
 11
230.000000
 21
-370.000000
  0
LINE
  8
A-GLAZ-2
 10
226.000000
 20
-370.000000
 11
226.000000
 21
-398.000000
  0
LINE
  8
A-GLAZ-2
 10
230.000000
 20
-398.000000
 11
230.000000
 21
-370.000000
  0
LINE
  8
A-GLAZ-2
 10
228.000000
 20
-398.000000
 11
228.000000
 21
-370.000000
  0
TEXT
  8
A-DIMS-2
 10
239.803243
 20
-393.563123
 40
5.558566
  1
2432
 50
90.000000
  7
STANDARD
  0
LINE
  8
A-GLAZ-2
 10
230.000000
 20
-543.000000
 11
226.000000
 21
-543.000000
  0
LINE
  8
A-GLAZ-2
 10
226.000000
 20
-511.000000
 11
230.000000
 21
-511.000000
  0
LINE
  8
A-GLAZ-2
 10
226.000000
 20
-511.000000
 11
226.000000
 21
-543.000000
  0
LINE
  8
A-GLAZ-2
 10
230.000000
 20
-543.000000
 11
230.000000
 21
-511.000000
  0
LINE
  8
A-GLAZ-2
 10
228.000000
 20
-543.000000
 11
228.000000
 21
-511.000000
  0
TEXT
  8
A-DIMS-2
 10
239.803243
 20
-536.563123
 40
5.558566
  1
2852
 50
90.000000
  7
STANDARD
  0
LINE
  8
A-GLAZ-2
 10
230.000000
 20
-577.000000
 11
226.000000
 21
-577.000000
  0
LINE
  8
A-GLAZ-2
 10
226.000000
 20
-545.000000
 11
230.000000
 21
-545.000000
  0
LINE
  8
A-GLAZ-2
 10
230.000000
 20
-545.000000
 11
230.000000
 21
-543.000000
  0
LINE
  8
A-GLAZ-2
 10
226.000000
 20
-545.000000
 11
226.000000
 21
-543.000000
  0
LINE
  8
A-GLAZ-2
 10
226.000000
 20
-545.000000
 11
226.000000
 21
-577.000000
  0
LINE
  8
A-GLAZ-2
 10
230.000000
 20
-577.000000
 11
230.000000
 21
-545.000000
  0
LINE
  8
A-GLAZ-2
 10
228.000000
 20
-577.000000
 11
228.000000
 21
-545.000000
  0
TEXT
  8
A-DIMS-2
 10
239.803243
 20
-570.563123
 40
5.558566
  1
2852
 50
90.000000
  7
STANDARD
  0
LINE
  8
A-GLAZ-2
 10
230.000000
 20
-720.000000
 11
226.000000
 21
-720.000000
  0
LINE
  8
A-GLAZ-2
 10
226.000000
 20
-692.000000
 11
230.000000
 21
-692.000000
  0
LINE
  8
A-GLAZ-2
 10
226.000000
 20
-692.000000
 11
226.000000
 21
-720.000000
  0
LINE
  8
A-GLAZ-2
 10
230.000000
 20
-720.000000
 11
230.000000
 21
-692.000000
  0
LINE
  8
A-GLAZ-2
 10
228.000000
 20
-720.000000
 11
228.000000
 21
-692.000000
  0
TEXT
  8
A-DIMS-2
 10
239.803243
 20
-715.563123
 40
5.558566
  1
2432
 50
90.000000
  7
STANDARD
  0
LINE
  8
A-WALL-2
 10
-270.000000
 20
-280.000000
 11
-270.000000
 21
-259.000000
  0
LINE
  8
A-WALL-2
 10
-274.000000
 20
-255.000000
 11
-274.000000
 21
-280.000000
  0
LINE
  8
A-WALL-2
 10
-270.000000
 20
-416.000000
 11
-270.000000
 21
-312.000000
  0
LINE
  8
A-WALL-2
 10
-274.000000
 20
-312.000000
 11
-274.000000
 21
-416.000000
  0
LINE
  8
A-WALL-2
 10
-270.000000
 20
-468.000000
 11
-270.000000
 21
-448.000000
  0
LINE
  8
A-WALL-2
 10
-274.000000
 20
-448.000000
 11
-274.000000
 21
-470.000000
  0
LINE
  8
A-GLAZ-2
 10
-274.000000
 20
-280.000000
 11
-270.000000
 21
-280.000000
  0
LINE
  8
A-GLAZ-2
 10
-270.000000
 20
-312.000000
 11
-274.000000
 21
-312.000000
  0
LINE
  8
A-GLAZ-2
 10
-270.000000
 20
-312.000000
 11
-270.000000
 21
-280.000000
  0
LINE
  8
A-GLAZ-2
 10
-274.000000
 20
-280.000000
 11
-274.000000
 21
-312.000000
  0
LINE
  8
A-GLAZ-2
 10
-272.000000
 20
-280.000000
 11
-272.000000
 21
-312.000000
  0
TEXT
  8
A-DIMS-2
 10
-278.490397
 20
-305.563123
 40
5.558566
  1
2852
 50
90.000000
  7
STANDARD
  0
LINE
  8
A-GLAZ-2
 10
-274.000000
 20
-416.000000
 11
-270.000000
 21
-416.000000
  0
LINE
  8
A-GLAZ-2
 10
-270.000000
 20
-448.000000
 11
-274.000000
 21
-448.000000
  0
LINE
  8
A-GLAZ-2
 10
-270.000000
 20
-448.000000
 11
-270.000000
 21
-416.000000
  0
LINE
  8
A-GLAZ-2
 10
-274.000000
 20
-416.000000
 11
-274.000000
 21
-448.000000
  0
LINE
  8
A-GLAZ-2
 10
-272.000000
 20
-416.000000
 11
-272.000000
 21
-448.000000
  0
TEXT
  8
A-DIMS-2
 10
-278.490397
 20
-441.563123
 40
5.558566
  1
2852
 50
90.000000
  7
STANDARD
  0
LINE
  8
A-WALL-2
 10
-202.000000
 20
-603.000000
 11
-268.000000
 21
-603.000000
  0
LINE
  8
A-WALL-2
 10
-274.000000
 20
-609.000000
 11
-204.000000
 21
-609.000000
  0
LINE
  8
A-WALL-2
 10
38.000000
 20
-406.000000
 11
-32.000000
 21
-406.000000
  0
LINE
  8
A-WALL-2
 10
-32.000000
 20
-410.000000
 11
38.000000
 21
-410.000000
  0
LINE
  8
A-WALL-2
 10
226.000000
 20
-758.000000
 11
162.000000
 21
-758.000000
  0
LINE
  8
A-WALL-2
 10
154.000000
 20
-762.000000
 11
230.000000
 21
-762.000000
  0
LINE
  8
A-WALL-2
 10
158.000000
 20
-758.000000
 11
154.000000
 21
-758.000000
  0
LINE
  8
A-WALL-2
 10
-10.000000
 20
-762.000000
 11
88.000000
 21
-762.000000
  0
LINE
  8
A-WALL-2
 10
88.000000
 20
-758.000000
 11
-10.000000
 21
-758.000000
  0
LINE
  8
A-GLAZ-2
 10
122.000000
 20
-762.000000
 11
122.000000
 21
-758.000000
  0
LINE
  8
A-GLAZ-2
 10
154.000000
 20
-758.000000
 11
154.000000
 21
-762.000000
  0
LINE
  8
A-GLAZ-2
 10
154.000000
 20
-758.000000
 11
122.000000
 21
-758.000000
  0
LINE
  8
A-GLAZ-2
 10
122.000000
 20
-762.000000
 11
154.000000
 21
-762.000000
  0
LINE
  8
A-GLAZ-2
 10
122.000000
 20
-760.000000
 11
154.000000
 21
-760.000000
  0
TEXT
  8
A-DIMS-2
 10
128.436877
 20
-771.803243
 40
5.558566
  1
2852
  7
STANDARD
  0
LINE
  8
A-GLAZ-2
 10
88.000000
 20
-762.000000
 11
88.000000
 21
-758.000000
  0
LINE
  8
A-GLAZ-2
 10
120.000000
 20
-758.000000
 11
120.000000
 21
-762.000000
  0
LINE
  8
A-GLAZ-2
 10
120.000000
 20
-762.000000
 11
122.000000
 21
-762.000000
  0
LINE
  8
A-GLAZ-2
 10
120.000000
 20
-758.000000
 11
122.000000
 21
-758.000000
  0
LINE
  8
A-GLAZ-2
 10
120.000000
 20
-758.000000
 11
88.000000
 21
-758.000000
  0
LINE
  8
A-GLAZ-2
 10
88.000000
 20
-762.000000
 11
120.000000
 21
-762.000000
  0
LINE
  8
A-GLAZ-2
 10
88.000000
 20
-760.000000
 11
120.000000
 21
-760.000000
  0
TEXT
  8
A-DIMS-2
 10
94.436877
 20
-771.803243
 40
5.558566
  1
2852
  7
STANDARD
  0
LINE
  8
A-WALL-2
 10
-158.000000
 20
-771.000000
 11
-200.000000
 21
-771.000000
  0
LINE
  8
A-WALL-2
 10
-204.000000
 20
-775.000000
 11
-158.000000
 21
-775.000000
  0
LINE
  8
A-WALL-2
 10
-42.000000
 20
-771.000000
 11
-58.000000
 21
-771.000000
  0
LINE
  8
A-WALL-2
 10
-14.000000
 20
-771.000000
 11
-38.000000
 21
-771.000000
  0
LINE
  8
A-WALL-2
 10
-58.000000
 20
-775.000000
 11
-10.000000
 21
-775.000000
  0
LINE
  8
A-GLAZ-2
 10
-158.000000
 20
-775.000000
 11
-158.000000
 21
-771.000000
  0
LINE
  8
A-GLAZ-2
 10
-126.000000
 20
-771.000000
 11
-126.000000
 21
-775.000000
  0
LINE
  8
A-GLAZ-2
 10
-126.000000
 20
-775.000000
 11
-124.000000
 21
-775.000000
  0
LINE
  8
A-GLAZ-2
 10
-126.000000
 20
-771.000000
 11
-124.000000
 21
-771.000000
  0
LINE
  8
A-GLAZ-2
 10
-126.000000
 20
-771.000000
 11
-158.000000
 21
-771.000000
  0
LINE
  8
A-GLAZ-2
 10
-158.000000
 20
-775.000000
 11
-126.000000
 21
-775.000000
  0
LINE
  8
A-GLAZ-2
 10
-158.000000
 20
-773.000000
 11
-126.000000
 21
-773.000000
  0
TEXT
  8
A-DIMS-2
 10
-151.563123
 20
-784.803243
 40
5.558566
  1
2852
  7
STANDARD
  0
LINE
  8
A-GLAZ-2
 10
-124.000000
 20
-775.000000
 11
-124.000000
 21
-771.000000
  0
LINE
  8
A-GLAZ-2
 10
-92.000000
 20
-771.000000
 11
-92.000000
 21
-775.000000
  0
LINE
  8
A-GLAZ-2
 10
-92.000000
 20
-775.000000
 11
-90.000000
 21
-775.000000
  0
LINE
  8
A-GLAZ-2
 10
-92.000000
 20
-771.000000
 11
-90.000000
 21
-771.000000
  0
LINE
  8
A-GLAZ-2
 10
-92.000000
 20
-771.000000
 11
-124.000000
 21
-771.000000
  0
LINE
  8
A-GLAZ-2
 10
-124.000000
 20
-775.000000
 11
-92.000000
 21
-775.000000
  0
LINE
  8
A-GLAZ-2
 10
-124.000000
 20
-773.000000
 11
-92.000000
 21
-773.000000
  0
TEXT
  8
A-DIMS-2
 10
-117.563123
 20
-784.803243
 40
5.558566
  1
2852
  7
STANDARD
  0
LINE
  8
A-GLAZ-2
 10
-90.000000
 20
-775.000000
 11
-90.000000
 21
-771.000000
  0
LINE
  8
A-GLAZ-2
 10
-58.000000
 20
-771.000000
 11
-58.000000
 21
-775.000000
  0
LINE
  8
A-GLAZ-2
 10
-58.000000
 20
-771.000000
 11
-90.000000
 21
-771.000000
  0
LINE
  8
A-GLAZ-2
 10
-90.000000
 20
-775.000000
 11
-58.000000
 21
-775.000000
  0
LINE
  8
A-GLAZ-2
 10
-90.000000
 20
-773.000000
 11
-58.000000
 21
-773.000000
  0
TEXT
  8
A-DIMS-2
 10
-83.563123
 20
-784.803243
 40
5.558566
  1
2852
  7
STANDARD
  0
LINE
  8
A-WALL-2
 10
-10.000000
 20
-775.000000
 11
-10.000000
 21
-762.000000
  0
LINE
  8
A-WALL-2
 10
-14.000000
 20
-703.000000
 11
-14.000000
 21
-771.000000
  0
LINE
  8
A-WALL-2
 10
-14.000000
 20
-692.000000
 11
-14.000000
 21
-699.000000
  0
LINE
  8
A-WALL-2
 10
-10.000000
 20
-758.000000
 11
-10.000000
 21
-692.000000
  0
LINE
  8
A-WALL-2
 10
-14.000000
 20
-629.935120
 11
-14.000000
 21
-636.000000
  0
LINE
  8
A-WALL-2
 10
-10.000000
 20
-636.000000
 11
-10.000000
 21
-629.935120
  0
LINE
  8
A-GLAZ-2
 10
-14.000000
 20
-692.000000
 11
-10.000000
 21
-692.000000
  0
LINE
  8
A-GLAZ-2
 10
-14.000000
 20
-636.000000
 11
-10.000000
 21
-636.000000
  0
LINE
  8
A-GLAZ-2
 10
-10.000000
 20
-692.000000
 11
18.000000
 21
-692.000000
  0
LINE
  8
A-GLAZ-2
 10
18.000000
 20
-690.625000
 11
-10.000000
 21
-690.625000
  0
LINE
  8
A-GLAZ-2
 10
-10.000000
 20
-690.625000
 11
-10.000000
 21
-692.000000
  0
ARC
  8
A-GLAZ-2
 10
-10.000000
 20
-692.000000
 40
28.000000
 50
0.000000
 51
90.000000
  0
LINE
  8
A-GLAZ-2
 10
-10.000000
 20
-636.000000
 11
18.000000
 21
-636.000000
  0
LINE
  8
A-GLAZ-2
 10
18.000000
 20
-637.375000
 11
-10.000000
 21
-637.375000
  0
LINE
  8
A-GLAZ-2
 10
-10.000000
 20
-637.375000
 11
-10.000000
 21
-636.000000
  0
ARC
  8
A-GLAZ-2
 10
-10.000000
 20
-636.000000
 40
28.000000
 50
270.000000
 51
0.000000
  0
TEXT
  8
A-DIMS-2
 10
-9.343577
 20
-673.563123
 40
5.558566
  1
4868
 50
90.000000
  7
STANDARD
  0
LINE
  8
A-WALL-2
 10
-54.409515
 20
-625.935120
 11
-118.000000
 21
-625.935120
  0
LINE
  8
A-WALL-2
 10
-122.000000
 20
-629.935120
 11
-42.000000
 21
-629.935120
  0
LINE
  8
A-WALL-2
 10
-38.000000
 20
-629.935120
 11
-14.000000
 21
-629.935120
  0
LINE
  8
A-WALL-2
 10
10.000000
 20
-625.935120
 11
-50.409515
 21
-625.935120
  0
LINE
  8
A-WALL-2
 10
-10.000000
 20
-629.935120
 11
14.000000
 21
-629.935120
  0
LINE
  8
A-WALL-2
 10
162.000000
 20
-694.000000
 11
162.000000
 21
-614.000000
  0
LINE
  8
A-WALL-2
 10
158.000000
 20
-614.000000
 11
158.000000
 21
-694.000000
  0
LINE
  8
A-WALL-2
 10
162.000000
 20
-758.000000
 11
162.000000
 21
-726.000000
  0
LINE
  8
A-WALL-2
 10
158.000000
 20
-726.000000
 11
158.000000
 21
-758.000000
  0
LINE
  8
A-GLAZ-2
 10
162.000000
 20
-694.000000
 11
158.000000
 21
-694.000000
  0
LINE
  8
A-GLAZ-2
 10
162.000000
 20
-726.000000
 11
158.000000
 21
-726.000000
  0
LINE
  8
A-GLAZ-2
 10
162.000000
 20
-726.000000
 11
194.000000
 21
-726.000000
  0
LINE
  8
A-GLAZ-2
 10
194.000000
 20
-724.625000
 11
162.000000
 21
-724.625000
  0
LINE
  8
A-GLAZ-2
 10
162.000000
 20
-724.625000
 11
162.000000
 21
-726.000000
  0
ARC
  8
A-GLAZ-2
 10
162.000000
 20
-726.000000
 40
32.000000
 50
0.000000
 51
90.000000
  0
TEXT
  8
A-DIMS-2
 10
162.656423
 20
-719.563123
 40
5.558566
  1
2868
 50
90.000000
  7
STANDARD
  0
LINE
  8
A-WALL-2
 10
222.000000
 20
-478.000000
 11
226.000000
 21
-478.000000
  0
LINE
  8
A-WALL-2
 10
226.000000
 20
-474.000000
 11
222.000000
 21
-474.000000
  0
LINE
  8
A-WALL-2
 10
190.000000
 20
-474.000000
 11
160.000000
 21
-474.000000
  0
LINE
  8
A-WALL-2
 10
58.000000
 20
-478.000000
 11
190.000000
 21
-478.000000
  0
LINE
  8
A-WALL-2
 10
156.000000
 20
-474.000000
 11
58.000000
 21
-474.000000
  0
LINE
  8
A-GLAZ-2
 10
222.000000
 20
-478.000000
 11
222.000000
 21
-474.000000
  0
LINE
  8
A-GLAZ-2
 10
190.000000
 20
-478.000000
 11
190.000000
 21
-474.000000
  0
LINE
  8
A-GLAZ-2
 10
222.000000
 20
-474.000000
 11
222.000000
 21
-442.000000
  0
LINE
  8
A-GLAZ-2
 10
220.625000
 20
-442.000000
 11
220.625000
 21
-474.000000
  0
LINE
  8
A-GLAZ-2
 10
220.625000
 20
-474.000000
 11
222.000000
 21
-474.000000
  0
ARC
  8
A-GLAZ-2
 10
222.000000
 20
-474.000000
 40
32.000000
 50
90.000000
 51
180.000000
  0
TEXT
  8
A-DIMS-2
 10
196.436877
 20
-478.656423
 40
5.558566
  1
2868
  7
STANDARD
  0
LINE
  8
A-WALL-2
 10
58.000000
 20
-474.000000
 11
58.000000
 21
-468.000000
  0
LINE
  8
A-WALL-2
 10
58.000000
 20
-496.000000
 11
58.000000
 21
-478.000000
  0
LINE
  8
A-WALL-2
 10
54.000000
 20
-472.000000
 11
54.000000
 21
-496.000000
  0
LINE
  8
A-WALL-2
 10
54.000000
 20
-528.000000
 11
54.000000
 21
-591.000000
  0
LINE
  8
A-WALL-2
 10
58.000000
 20
-610.000000
 11
58.000000
 21
-528.000000
  0
LINE
  8
A-WALL-2
 10
54.000000
 20
-595.000000
 11
54.000000
 21
-614.000000
  0
LINE
  8
A-GLAZ-2
 10
58.000000
 20
-496.000000
 11
54.000000
 21
-496.000000
  0
LINE
  8
A-GLAZ-2
 10
58.000000
 20
-528.000000
 11
54.000000
 21
-528.000000
  0
LINE
  8
A-GLAZ-2
 10
58.000000
 20
-496.000000
 11
90.000000
 21
-496.000000
  0
LINE
  8
A-GLAZ-2
 10
90.000000
 20
-497.375000
 11
58.000000
 21
-497.375000
  0
LINE
  8
A-GLAZ-2
 10
58.000000
 20
-497.375000
 11
58.000000
 21
-496.000000
  0
ARC
  8
A-GLAZ-2
 10
58.000000
 20
-496.000000
 40
32.000000
 50
270.000000
 51
0.000000
  0
TEXT
  8
A-DIMS-2
 10
58.656423
 20
-521.563123
 40
5.558566
  1
2868
 50
90.000000
  7
STANDARD
  0
LINE
  8
A-WALL-2
 10
160.000000
 20
-420.000000
 11
226.000000
 21
-420.000000
  0
LINE
  8
A-WALL-2
 10
226.000000
 20
-416.000000
 11
160.000000
 21
-416.000000
  0
LINE
  8
A-WALL-2
 10
160.000000
 20
-355.500000
 11
160.000000
 21
-353.000000
  0
LINE
  8
A-WALL-2
 10
156.000000
 20
-349.000000
 11
156.000000
 21
-355.500000
  0
LINE
  8
A-WALL-2
 10
156.000000
 20
-385.500000
 11
156.000000
 21
-390.075684
  0
LINE
  8
A-WALL-2
 10
160.000000
 20
-416.000000
 11
160.000000
 21
-385.500000
  0
LINE
  8
A-WALL-2
 10
160.000000
 20
-474.000000
 11
160.000000
 21
-420.000000
  0
LINE
  8
A-WALL-2
 10
156.000000
 20
-394.075684
 11
156.000000
 21
-474.000000
  0
LINE
  8
A-GLAZ-2
 10
160.000000
 20
-355.500000
 11
156.000000
 21
-355.500000
  0
LINE
  8
A-GLAZ-2
 10
160.000000
 20
-385.500000
 11
156.000000
 21
-385.500000
  0
LINE
  8
A-GLAZ-2
 10
160.000000
 20
-355.500000
 11
190.000000
 21
-355.500000
  0
LINE
  8
A-GLAZ-2
 10
190.000000
 20
-356.875000
 11
160.000000
 21
-356.875000
  0
LINE
  8
A-GLAZ-2
 10
160.000000
 20
-356.875000
 11
160.000000
 21
-355.500000
  0
ARC
  8
A-GLAZ-2
 10
160.000000
 20
-355.500000
 40
30.000000
 50
270.000000
 51
0.000000
  0
TEXT
  8
A-DIMS-2
 10
160.656423
 20
-380.063123
 40
5.558566
  1
2668
 50
90.000000
  7
STANDARD
  0
LINE
  8
A-WALL-2
 10
-28.000000
 20
-378.000000
 11
-36.000000
 21
-378.000000
  0
LINE
  8
A-WALL-2
 10
-32.000000
 20
-382.000000
 11
-28.000000
 21
-382.000000
  0
LINE
  8
A-WALL-2
 10
42.000000
 20
-378.000000
 11
34.000000
 21
-378.000000
  0
LINE
  8
A-WALL-2
 10
34.000000
 20
-382.000000
 11
38.000000
 21
-382.000000
  0
LINE
  8
A-GLAZ-2
 10
-28.000000
 20
-378.000000
 11
-28.000000
 21
-382.000000
  0
LINE
  8
A-GLAZ-2
 10
34.000000
 20
-378.000000
 11
34.000000
 21
-382.000000
  0
LINE
  8
A-GLAZ-2
 10
-28.000000
 20
-380.000000
 11
-17.039845
 21
-369.039845
  0
LINE
  8
A-GLAZ-2
 10
-17.039845
 20
-369.039845
 11
-16.067573
 21
-370.012117
  0
LINE
  8
A-GLAZ-2
 10
-16.067573
 20
-370.012117
 11
-27.027728
 21
-380.972272
  0
LINE
  8
A-GLAZ-2
 10
-27.027728
 20
-380.972272
 11
-28.000000
 21
-380.000000
  0
LINE
  8
A-GLAZ-2
 10
-16.067573
 20
-370.012117
 11
-5.107418
 21
-380.972272
  0
LINE
  8
A-GLAZ-2
 10
-5.107418
 20
-380.972272
 11
-4.135146
 21
-380.000000
  0
LINE
  8
A-GLAZ-2
 10
-4.135146
 20
-380.000000
 11
-15.095301
 21
-369.039845
  0
LINE
  8
A-GLAZ-2
 10
-15.095301
 20
-369.039845
 11
-16.067573
 21
-370.012117
  0
LINE
  8
A-GLAZ-2
 10
34.000000
 20
-380.000000
 11
23.039845
 21
-369.039845
  0
LINE
  8
A-GLAZ-2
 10
23.039845
 20
-369.039845
 11
22.067573
 21
-370.012117
  0
LINE
  8
A-GLAZ-2
 10
22.067573
 20
-370.012117
 11
33.027728
 21
-380.972272
  0
LINE
  8
A-GLAZ-2
 10
33.027728
 20
-380.972272
 11
34.000000
 21
-380.000000
  0
LINE
  8
A-GLAZ-2
 10
22.067573
 20
-370.012117
 11
11.107418
 21
-380.972272
  0
LINE
  8
A-GLAZ-2
 10
11.107418
 20
-380.972272
 11
10.135146
 21
-380.000000
  0
LINE
  8
A-GLAZ-2
 10
10.135146
 20
-380.000000
 11
21.095301
 21
-369.039845
  0
LINE
  8
A-GLAZ-2
 10
21.095301
 20
-369.039845
 11
22.067573
 21
-370.012117
  0
TEXT
  8
A-DIMS-2
 10
-6.563123
 20
-382.656423
 40
5.558566
  1
5268
  7
STANDARD
  0
LINE
  8
A-WALL-2
 10
98.000000
 20
-293.500000
 11
98.000000
 21
-259.000000
  0
LINE
  8
A-WALL-2
 10
94.000000
 20
-259.000000
 11
94.000000
 21
-293.500000
  0
LINE
  8
A-WALL-2
 10
94.000000
 20
-321.500000
 11
94.000000
 21
-325.000000
  0
LINE
  8
A-WALL-2
 10
94.000000
 20
-329.000000
 11
94.000000
 21
-342.000000
  0
LINE
  8
A-WALL-2
 10
98.000000
 20
-354.575684
 11
98.000000
 21
-321.500000
  0
LINE
  8
A-WALL-2
 10
94.000000
 20
-346.000000
 11
94.000000
 21
-354.575684
  0
LINE
  8
A-WALL-2
 10
98.000000
 20
-390.075684
 11
98.000000
 21
-386.575684
  0
LINE
  8
A-WALL-2
 10
94.000000
 20
-386.575684
 11
94.000000
 21
-390.075684
  0
LINE
  8
A-GLAZ-2
 10
98.000000
 20
-293.500000
 11
94.000000
 21
-293.500000
  0
LINE
  8
A-GLAZ-2
 10
98.000000
 20
-321.500000
 11
94.000000
 21
-321.500000
  0
LINE
  8
A-GLAZ-2
 10
98.000000
 20
-293.500000
 11
126.000000
 21
-293.500000
  0
LINE
  8
A-GLAZ-2
 10
126.000000
 20
-294.875000
 11
98.000000
 21
-294.875000
  0
LINE
  8
A-GLAZ-2
 10
98.000000
 20
-294.875000
 11
98.000000
 21
-293.500000
  0
ARC
  8
A-GLAZ-2
 10
98.000000
 20
-293.500000
 40
28.000000
 50
270.000000
 51
0.000000
  0
TEXT
  8
A-DIMS-2
 10
98.656423
 20
-317.063123
 40
5.558566
  1
2468
 50
90.000000
  7
STANDARD
  0
LINE
  8
A-GLAZ-2
 10
98.000000
 20
-354.575691
 11
94.000000
 21
-354.575691
  0
LINE
  8
A-GLAZ-2
 10
98.000000
 20
-386.575691
 11
94.000000
 21
-386.575691
  0
LINE
  8
A-GLAZ-2
 10
98.000000
 20
-386.575691
 11
130.000000
 21
-386.575691
  0
LINE
  8
A-GLAZ-2
 10
130.000000
 20
-385.200691
 11
98.000000
 21
-385.200691
  0
LINE
  8
A-GLAZ-2
 10
98.000000
 20
-385.200691
 11
98.000000
 21
-386.575691
  0
ARC
  8
A-GLAZ-2
 10
98.000000
 20
-386.575691
 40
32.000000
 50
0.000000
 51
90.000000
  0
TEXT
  8
A-DIMS-2
 10
98.656423
 20
-380.138814
 40
5.558566
  1
2868
 50
90.000000
  7
STANDARD
  0
LINE
  8
A-WALL-2
 10
58.000000
 20
-325.000000
 11
58.000000
 21
-259.000000
  0
LINE
  8
A-WALL-2
 10
58.000000
 20
-342.000000
 11
58.000000
 21
-329.000000
  0
LINE
  8
A-WALL-2
 10
54.000000
 20
-259.000000
 11
54.000000
 21
-346.000000
  0
LINE
  8
A-WALL-2
 10
64.000000
 20
-342.000000
 11
58.000000
 21
-342.000000
  0
LINE
  8
A-WALL-2
 10
54.000000
 20
-346.000000
 11
64.000000
 21
-346.000000
  0
LINE
  8
A-WALL-2
 10
94.000000
 20
-342.000000
 11
88.000000
 21
-342.000000
  0
LINE
  8
A-WALL-2
 10
88.000000
 20
-346.000000
 11
94.000000
 21
-346.000000
  0
LINE
  8
A-GLAZ-2
 10
64.000000
 20
-342.000000
 11
64.000000
 21
-346.000000
  0
LINE
  8
A-GLAZ-2
 10
88.000000
 20
-342.000000
 11
88.000000
 21
-346.000000
  0
LINE
  8
A-GLAZ-2
 10
88.000000
 20
-346.000000
 11
88.000000
 21
-370.000000
  0
LINE
  8
A-GLAZ-2
 10
86.625000
 20
-370.000000
 11
86.625000
 21
-346.000000
  0
LINE
  8
A-GLAZ-2
 10
86.625000
 20
-346.000000
 11
88.000000
 21
-346.000000
  0
ARC
  8
A-GLAZ-2
 10
88.000000
 20
-346.000000
 40
24.000000
 50
180.000000
 51
270.000000
  0
TEXT
  8
A-DIMS-2
 10
66.436877
 20
-346.656423
 40
5.558566
  1
2068
  7
STANDARD
  0
LINE
  8
A-WALL-2
 10
94.000000
 20
-325.000000
 11
58.000000
 21
-325.000000
  0
LINE
  8
A-WALL-2
 10
58.000000
 20
-329.000000
 11
94.000000
 21
-329.000000
  0
LINE
  8
A-WALL-2
 10
-32.000000
 20
-406.000000
 11
-32.000000
 21
-382.000000
  0
LINE
  8
A-WALL-2
 10
-36.000000
 20
-378.000000
 11
-36.000000
 21
-408.000000
  0
LINE
  8
A-WALL-2
 10
-96.984024
 20
-433.000000
 11
-98.000000
 21
-433.000000
  0
LINE
  8
A-WALL-2
 10
-98.000000
 20
-437.000000
 11
-96.984024
 21
-437.000000
  0
LINE
  8
A-WALL-2
 10
-36.000000
 20
-433.000000
 11
-36.984024
 21
-433.000000
  0
LINE
  8
A-WALL-2
 10
-36.984024
 20
-437.000000
 11
-36.000000
 21
-437.000000
  0
LINE
  8
A-GLAZ-2
 10
-96.984026
 20
-433.000000
 11
-96.984026
 21
-437.000000
  0
LINE
  8
A-GLAZ-2
 10
-36.984026
 20
-433.000000
 11
-36.984026
 21
-437.000000
  0
LINE
  8
A-GLAZ-2
 10
-96.984026
 20
-437.000000
 11
-96.984026
 21
-467.000000
  0
LINE
  8
A-GLAZ-2
 10
-95.609026
 20
-467.000000
 11
-95.609026
 21
-437.000000
  0
LINE
  8
A-GLAZ-2
 10
-95.609026
 20
-437.000000
 11
-96.984026
 21
-437.000000
  0
ARC
  8
A-GLAZ-2
 10
-96.984026
 20
-437.000000
 40
30.000000
 50
270.000000
 51
0.000000
  0
LINE
  8
A-GLAZ-2
 10
-36.984026
 20
-437.000000
 11
-36.984026
 21
-467.000000
  0
LINE
  8
A-GLAZ-2
 10
-38.359026
 20
-467.000000
 11
-38.359026
 21
-437.000000
  0
LINE
  8
A-GLAZ-2
 10
-38.359026
 20
-437.000000
 11
-36.984026
 21
-437.000000
  0
ARC
  8
A-GLAZ-2
 10
-36.984026
 20
-437.000000
 40
30.000000
 50
180.000000
 51
270.000000
  0
TEXT
  8
A-DIMS-2
 10
-76.547148
 20
-437.656423
 40
5.558566
  1
5068
  7
STANDARD
  0
LINE
  8
A-WALL-2
 10
-15.000000
 20
-468.000000
 11
-32.000000
 21
-468.000000
  0
LINE
  8
A-WALL-2
 10
-36.000000
 20
-472.000000
 11
-15.000000
 21
-472.000000
  0
LINE
  8
A-WALL-2
 10
38.000000
 20
-468.000000
 11
21.000000
 21
-468.000000
  0
LINE
  8
A-WALL-2
 10
58.000000
 20
-468.000000
 11
42.000000
 21
-468.000000
  0
LINE
  8
A-WALL-2
 10
21.000000
 20
-472.000000
 11
54.000000
 21
-472.000000
  0
LINE
  8
A-GLAZ-2
 10
-15.000000
 20
-468.000000
 11
-15.000000
 21
-472.000000
  0
LINE
  8
A-GLAZ-2
 10
21.000000
 20
-468.000000
 11
21.000000
 21
-472.000000
  0
LINE
  8
A-GLAZ-2
 10
21.000000
 20
-472.000000
 11
21.000000
 21
-508.000000
  0
LINE
  8
A-GLAZ-2
 10
19.625000
 20
-508.000000
 11
19.625000
 21
-472.000000
  0
LINE
  8
A-GLAZ-2
 10
19.625000
 20
-472.000000
 11
21.000000
 21
-472.000000
  0
ARC
  8
A-GLAZ-2
 10
21.000000
 20
-472.000000
 40
36.000000
 50
180.000000
 51
270.000000
  0
TEXT
  8
A-DIMS-2
 10
-6.563123
 20
-472.656423
 40
5.558566
  1
3068
  7
STANDARD
  0
LINE
  8
A-WALL-2
 10
42.000000
 20
-390.075684
 11
42.000000
 21
-378.000000
  0
LINE
  8
A-WALL-2
 10
42.000000
 20
-408.000000
 11
42.000000
 21
-394.075684
  0
LINE
  8
A-WALL-2
 10
38.000000
 20
-382.000000
 11
38.000000
 21
-406.000000
  0
LINE
  8
A-WALL-2
 10
42.000000
 20
-422.241241
 11
58.146046
 21
-422.241241
  0
LINE
  8
A-WALL-2
 10
54.146046
 20
-418.241241
 11
42.000000
 21
-418.241241
  0
LINE
  8
A-WALL-2
 10
-98.000000
 20
-339.000000
 11
-98.000000
 21
-259.000000
  0
LINE
  8
A-WALL-2
 10
-102.000000
 20
-259.000000
 11
-102.000000
 21
-339.000000
  0
LINE
  8
A-WALL-2
 10
-98.000000
 20
-433.000000
 11
-98.000000
 21
-403.000000
  0
LINE
  8
A-WALL-2
 10
-98.000000
 20
-472.000000
 11
-98.000000
 21
-437.000000
  0
LINE
  8
A-WALL-2
 10
-102.000000
 20
-403.000000
 11
-102.000000
 21
-468.000000
  0
LINE
  8
A-GLAZ-2
 10
-98.000000
 20
-339.000000
 11
-102.000000
 21
-339.000000
  0
LINE
  8
A-GLAZ-2
 10
-98.000000
 20
-403.000000
 11
-102.000000
 21
-403.000000
  0
TEXT
  8
A-DIMS-2
 10
-97.343577
 20
-380.563123
 40
5.558566
  1
5476
 50
90.000000
  7
STANDARD
  0
LINE
  8
A-WALL-2
 10
-102.000000
 20
-468.000000
 11
-270.000000
 21
-468.000000
  0
LINE
  8
A-WALL-2
 10
-268.000000
 20
-472.000000
 11
-98.000000
 21
-472.000000
  0
LINE
  8
A-WALL-2
 10
226.000000
 20
-349.000000
 11
156.000000
 21
-349.000000
  0
LINE
  8
A-WALL-2
 10
160.000000
 20
-353.000000
 11
226.000000
 21
-353.000000
  0
LINE
  8
A-WALL-2
 10
-170.000000
 20
-515.000000
 11
-174.000000
 21
-515.000000
  0
LINE
  8
A-WALL-2
 10
-170.000000
 20
-603.000000
 11
-170.000000
 21
-515.000000
  0
LINE
  8
A-WALL-2
 10
-174.000000
 20
-515.000000
 11
-174.000000
 21
-603.000000
  0
LINE
  8
A-WALL-2
 10
14.000000
 20
-629.935120
 11
14.000000
 21
-595.000000
  0
LINE
  8
A-WALL-2
 10
10.000000
 20
-581.935120
 11
10.000000
 21
-625.935120
  0
LINE
  8
A-WALL-2
 10
14.000000
 20
-591.000000
 11
14.000000
 21
-581.935120
  0
LINE
  8
A-WALL-2
 10
10.000000
 20
-546.000000
 11
10.000000
 21
-549.935120
  0
LINE
  8
A-WALL-2
 10
10.000000
 20
-524.045959
 11
10.000000
 21
-542.000000
  0
LINE
  8
A-WALL-2
 10
14.000000
 20
-549.935120
 11
14.000000
 21
-520.045959
  0
LINE
  8
A-GLAZ-2
 10
10.000000
 20
-581.935114
 11
14.000000
 21
-581.935114
  0
LINE
  8
A-GLAZ-2
 10
10.000000
 20
-549.935114
 11
14.000000
 21
-549.935114
  0
LINE
  8
A-GLAZ-2
 10
10.000000
 20
-549.935114
 11
-22.000000
 21
-549.935114
  0
LINE
  8
A-GLAZ-2
 10
-22.000000
 20
-551.310114
 11
10.000000
 21
-551.310114
  0
LINE
  8
A-GLAZ-2
 10
10.000000
 20
-551.310114
 11
10.000000
 21
-549.935114
  0
ARC
  8
A-GLAZ-2
 10
10.000000
 20
-549.935114
 40
32.000000
 50
180.000000
 51
270.000000
  0
TEXT
  8
A-DIMS-2
 10
14.656423
 20
-575.498237
 40
5.558566
  1
2868
 50
90.000000
  7
STANDARD
  0
LINE
  8
A-WALL-2
 10
6.000000
 20
-524.045959
 11
10.000000
 21
-524.045959
  0
LINE
  8
A-WALL-2
 10
14.000000
 20
-520.045959
 11
6.000000
 21
-520.045959
  0
LINE
  8
A-WALL-2
 10
-50.409515
 20
-524.045959
 11
-46.000000
 21
-524.045959
  0
LINE
  8
A-WALL-2
 10
-82.500000
 20
-524.045959
 11
-54.409515
 21
-524.045959
  0
LINE
  8
A-WALL-2
 10
-46.000000
 20
-520.045959
 11
-82.500000
 21
-520.045959
  0
LINE
  8
A-WALL-2
 10
-118.000000
 20
-524.045959
 11
-114.500000
 21
-524.045959
  0
LINE
  8
A-WALL-2
 10
-114.500000
 20
-520.045959
 11
-122.000000
 21
-520.045959
  0
LINE
  8
A-GLAZ-2
 10
6.000000
 20
-524.045982
 11
6.000000
 21
-520.045982
  0
LINE
  8
A-GLAZ-2
 10
-46.000000
 20
-524.045982
 11
-46.000000
 21
-520.045982
  0
LINE
  8
A-GLAZ-2
 10
6.000000
 20
-522.045982
 11
-3.192388
 21
-512.853594
  0
LINE
  8
A-GLAZ-2
 10
-3.192388
 20
-512.853594
 11
-4.164660
 21
-513.825866
  0
LINE
  8
A-GLAZ-2
 10
-4.164660
 20
-513.825866
 11
5.027728
 21
-523.018254
  0
LINE
  8
A-GLAZ-2
 10
5.027728
 20
-523.018254
 11
6.000000
 21
-522.045982
  0
LINE
  8
A-GLAZ-2
 10
-4.164660
 20
-513.825866
 11
-13.357048
 21
-523.018254
  0
LINE
  8
A-GLAZ-2
 10
-13.357048
 20
-523.018254
 11
-14.329320
 21
-522.045982
  0
LINE
  8
A-GLAZ-2
 10
-14.329320
 20
-522.045982
 11
-5.136932
 21
-512.853594
  0
LINE
  8
A-GLAZ-2
 10
-5.136932
 20
-512.853594
 11
-4.164660
 21
-513.825866
  0
LINE
  8
A-GLAZ-2
 10
-46.000000
 20
-522.045982
 11
-36.807612
 21
-512.853594
  0
LINE
  8
A-GLAZ-2
 10
-36.807612
 20
-512.853594
 11
-35.835340
 21
-513.825866
  0
LINE
  8
A-GLAZ-2
 10
-35.835340
 20
-513.825866
 11
-45.027728
 21
-523.018254
  0
LINE
  8
A-GLAZ-2
 10
-45.027728
 20
-523.018254
 11
-46.000000
 21
-522.045982
  0
LINE
  8
A-GLAZ-2
 10
-35.835340
 20
-513.825866
 11
-26.642952
 21
-523.018254
  0
LINE
  8
A-GLAZ-2
 10
-26.642952
 20
-523.018254
 11
-25.670680
 21
-522.045982
  0
LINE
  8
A-GLAZ-2
 10
-25.670680
 20
-522.045982
 11
-34.863068
 21
-512.853594
  0
LINE
  8
A-GLAZ-2
 10
-34.863068
 20
-512.853594
 11
-35.835340
 21
-513.825866
  0
TEXT
  8
A-DIMS-2
 10
-29.563123
 20
-524.702406
 40
5.558566
  1
4468
  7
STANDARD
  0
LINE
  8
A-GLAZ-2
 10
-82.500000
 20
-524.045982
 11
-82.500000
 21
-520.045982
  0
LINE
  8
A-GLAZ-2
 10
-114.500000
 20
-524.045982
 11
-114.500000
 21
-520.045982
  0
LINE
  8
A-GLAZ-2
 10
-114.500000
 20
-524.045982
 11
-114.500000
 21
-556.045982
  0
LINE
  8
A-GLAZ-2
 10
-113.125000
 20
-556.045982
 11
-113.125000
 21
-524.045982
  0
LINE
  8
A-GLAZ-2
 10
-113.125000
 20
-524.045982
 11
-114.500000
 21
-524.045982
  0
ARC
  8
A-GLAZ-2
 10
-114.500000
 20
-524.045982
 40
32.000000
 50
270.000000
 51
0.000000
  0
TEXT
  8
A-DIMS-2
 10
-108.063123
 20
-524.702406
 40
5.558566
  1
2868
  7
STANDARD
  0
LINE
  8
A-WALL-2
 10
-122.000000
 20
-520.045959
 11
-122.000000
 21
-603.000000
  0
LINE
  8
A-WALL-2
 10
-118.000000
 20
-625.935120
 11
-118.000000
 21
-524.045959
  0
LINE
  8
A-WALL-2
 10
-122.000000
 20
-607.000000
 11
-122.000000
 21
-629.935120
  0
LINE
  8
A-WALL-2
 10
54.000000
 20
-614.000000
 11
158.000000
 21
-614.000000
  0
LINE
  8
A-WALL-2
 10
166.000000
 20
-610.000000
 11
58.000000
 21
-610.000000
  0
LINE
  8
A-WALL-2
 10
162.000000
 20
-614.000000
 11
166.000000
 21
-614.000000
  0
LINE
  8
A-WALL-2
 10
226.000000
 20
-610.000000
 11
198.000000
 21
-610.000000
  0
LINE
  8
A-WALL-2
 10
198.000000
 20
-614.000000
 11
226.000000
 21
-614.000000
  0
LINE
  8
A-GLAZ-2
 10
166.000000
 20
-610.000000
 11
166.000000
 21
-614.000000
  0
LINE
  8
A-GLAZ-2
 10
198.000000
 20
-610.000000
 11
198.000000
 21
-614.000000
  0
LINE
  8
A-GLAZ-2
 10
166.000000
 20
-614.000000
 11
166.000000
 21
-646.000000
  0
LINE
  8
A-GLAZ-2
 10
167.375000
 20
-646.000000
 11
167.375000
 21
-614.000000
  0
LINE
  8
A-GLAZ-2
 10
167.375000
 20
-614.000000
 11
166.000000
 21
-614.000000
  0
ARC
  8
A-GLAZ-2
 10
166.000000
 20
-614.000000
 40
32.000000
 50
270.000000
 51
0.000000
  0
TEXT
  8
A-DIMS-2
 10
172.436877
 20
-614.656423
 40
5.558566
  1
2868
  7
STANDARD
  0
LINE
  8
A-WALL-2
 10
-38.000000
 20
-699.000000
 11
-38.000000
 21
-629.935120
  0
LINE
  8
A-WALL-2
 10
-38.000000
 20
-708.935120
 11
-38.000000
 21
-703.000000
  0
LINE
  8
A-WALL-2
 10
-42.000000
 20
-629.935120
 11
-42.000000
 21
-708.935120
  0
LINE
  8
A-WALL-2
 10
-38.000000
 20
-771.000000
 11
-38.000000
 21
-764.935120
  0
LINE
  8
A-WALL-2
 10
-42.000000
 20
-764.935120
 11
-42.000000
 21
-771.000000
  0
LINE
  8
A-GLAZ-2
 10
-38.000000
 20
-708.935114
 11
-42.000000
 21
-708.935114
  0
LINE
  8
A-GLAZ-2
 10
-38.000000
 20
-764.935114
 11
-42.000000
 21
-764.935114
  0
LINE
  8
A-GLAZ-2
 10
-42.000000
 20
-708.935114
 11
-70.000000
 21
-708.935114
  0
LINE
  8
A-GLAZ-2
 10
-70.000000
 20
-710.310114
 11
-42.000000
 21
-710.310114
  0
LINE
  8
A-GLAZ-2
 10
-42.000000
 20
-710.310114
 11
-42.000000
 21
-708.935114
  0
ARC
  8
A-GLAZ-2
 10
-42.000000
 20
-708.935114
 40
28.000000
 50
180.000000
 51
270.000000
  0
LINE
  8
A-GLAZ-2
 10
-42.000000
 20
-764.935114
 11
-70.000000
 21
-764.935114
  0
LINE
  8
A-GLAZ-2
 10
-70.000000
 20
-763.560114
 11
-42.000000
 21
-763.560114
  0
LINE
  8
A-GLAZ-2
 10
-42.000000
 20
-763.560114
 11
-42.000000
 21
-764.935114
  0
ARC
  8
A-GLAZ-2
 10
-42.000000
 20
-764.935114
 40
28.000000
 50
90.000000
 51
180.000000
  0
TEXT
  8
A-DIMS-2
 10
-37.343577
 20
-746.498237
 40
5.558566
  1
4868
 50
90.000000
  7
STANDARD
  0
LINE
  8
A-WALL-2
 10
-14.000000
 20
-699.000000
 11
-38.000000
 21
-699.000000
  0
LINE
  8
A-WALL-2
 10
-38.000000
 20
-703.000000
 11
-14.000000
 21
-703.000000
  0
LINE
  8
A-WALL-2
  6
DOTTED
 10
-174.000000
 20
-515.000000
 11
-170.000000
 21
-515.000000
  0
LINE
  8
A-WALL-2
  6
DOTTED
 10
-170.000000
 20
-515.000000
 11
-170.000000
 21
-472.000000
  0
LINE
  8
A-WALL-2
  6
DOTTED
 10
-174.000000
 20
-472.000000
 11
-174.000000
 21
-515.000000
  0
LINE
  8
A-WALL-2
 10
-200.000000
 20
-771.000000
 11
-200.000000
 21
-607.000000
  0
LINE
  8
A-WALL-2
 10
-204.000000
 20
-609.000000
 11
-204.000000
 21
-775.000000
  0
LINE
  8
A-WALL-2
 10
17.959486
 20
-591.000000
 11
14.000000
 21
-591.000000
  0
LINE
  8
A-WALL-2
 10
14.000000
 20
-595.000000
 11
17.959486
 21
-595.000000
  0
LINE
  8
A-WALL-2
 10
54.000000
 20
-591.000000
 11
49.959484
 21
-591.000000
  0
LINE
  8
A-WALL-2
 10
49.959484
 20
-595.000000
 11
54.000000
 21
-595.000000
  0
LINE
  8
A-GLAZ-2
 10
17.959486
 20
-591.000000
 11
17.959486
 21
-595.000000
  0
LINE
  8
A-GLAZ-2
 10
49.959486
 20
-591.000000
 11
49.959486
 21
-595.000000
  0
LINE
  8
A-GLAZ-2
 10
17.959486
 20
-595.000000
 11
17.959486
 21
-627.000000
  0
LINE
  8
A-GLAZ-2
 10
19.334486
 20
-627.000000
 11
19.334486
 21
-595.000000
  0
LINE
  8
A-GLAZ-2
 10
19.334486
 20
-595.000000
 11
17.959486
 21
-595.000000
  0
ARC
  8
A-GLAZ-2
 10
17.959486
 20
-595.000000
 40
32.000000
 50
270.000000
 51
0.000000
  0
TEXT
  8
A-DIMS-2
 10
24.396363
 20
-595.656423
 40
5.558566
  1
2868
  7
STANDARD
  0
LINE
  8
A-WALL-2
 10
10.000000
 20
-542.000000
 11
-50.409515
 21
-542.000000
  0
LINE
  8
A-WALL-2
 10
-50.409515
 20
-546.000000
 11
10.000000
 21
-546.000000
  0
LINE
  8
A-WALL-2
 10
42.000000
 20
-418.241241
 11
42.000000
 21
-408.000000
  0
LINE
  8
A-WALL-2
 10
42.000000
 20
-468.000000
 11
42.000000
 21
-422.241241
  0
LINE
  8
A-WALL-2
 10
38.000000
 20
-410.000000
 11
38.000000
 21
-468.000000
  0
LINE
  8
A-WALL-2
 10
-36.000000
 20
-437.000000
 11
-36.000000
 21
-472.000000
  0
LINE
  8
A-WALL-2
 10
-36.000000
 20
-408.000000
 11
-36.000000
 21
-433.000000
  0
LINE
  8
A-WALL-2
 10
-32.000000
 20
-468.000000
 11
-32.000000
 21
-410.000000
  0
LINE
  8
A-WALL-2
 10
58.146046
 20
-422.241241
 11
58.146046
 21
-394.075684
  0
LINE
  8
A-WALL-2
 10
54.146046
 20
-394.075684
 11
54.146046
 21
-418.241241
  0
LINE
  8
A-WALL-2
 10
42.000000
 20
-394.075684
 11
54.146046
 21
-394.075684
  0
LINE
  8
A-WALL-2
 10
60.883793
 20
-390.075684
 11
42.000000
 21
-390.075684
  0
LINE
  8
A-WALL-2
 10
58.146046
 20
-394.075684
 11
60.883793
 21
-394.075684
  0
LINE
  8
A-WALL-2
 10
94.000000
 20
-390.075684
 11
90.883797
 21
-390.075684
  0
LINE
  8
A-WALL-2
 10
156.000000
 20
-390.075684
 11
98.000000
 21
-390.075684
  0
LINE
  8
A-WALL-2
 10
90.883797
 20
-394.075684
 11
156.000000
 21
-394.075684
  0
LINE
  8
A-GLAZ-2
 10
60.883794
 20
-390.075691
 11
60.883794
 21
-394.075691
  0
LINE
  8
A-GLAZ-2
 10
90.883794
 20
-390.075691
 11
90.883794
 21
-394.075691
  0
LINE
  8
A-GLAZ-2
 10
60.883794
 20
-394.075691
 11
60.883794
 21
-424.075691
  0
LINE
  8
A-GLAZ-2
 10
62.258794
 20
-424.075691
 11
62.258794
 21
-394.075691
  0
LINE
  8
A-GLAZ-2
 10
62.258794
 20
-394.075691
 11
60.883794
 21
-394.075691
  0
ARC
  8
A-GLAZ-2
 10
60.883794
 20
-394.075691
 40
30.000000
 50
270.000000
 51
0.000000
  0
TEXT
  8
A-DIMS-2
 10
66.320671
 20
-394.732115
 40
5.558566
  1
2668
  7
STANDARD
  0
LINE
  8
A-WALL-2
 10
-268.000000
 20
-603.000000
 11
-268.000000
 21
-472.000000
  0
LINE
  8
A-WALL-2
 10
-274.000000
 20
-470.000000
 11
-274.000000
 21
-609.000000
  0
LINE
  8
A-WALL-2
 10
-160.889130
 20
-603.000000
 11
-202.000000
 21
-603.000000
  0
LINE
  8
A-WALL-2
 10
-200.000000
 20
-607.000000
 11
-160.889130
 21
-607.000000
  0
LINE
  8
A-WALL-2
 10
-122.000000
 20
-603.000000
 11
-128.889130
 21
-603.000000
  0
LINE
  8
A-WALL-2
 10
-128.889130
 20
-607.000000
 11
-122.000000
 21
-607.000000
  0
LINE
  8
A-GLAZ-2
 10
-160.889132
 20
-603.000000
 11
-160.889132
 21
-607.000000
  0
LINE
  8
A-GLAZ-2
 10
-128.889132
 20
-603.000000
 11
-128.889132
 21
-607.000000
  0
LINE
  8
A-GLAZ-2
 10
-128.889132
 20
-607.000000
 11
-128.889132
 21
-639.000000
  0
LINE
  8
A-GLAZ-2
 10
-130.264132
 20
-639.000000
 11
-130.264132
 21
-607.000000
  0
LINE
  8
A-GLAZ-2
 10
-130.264132
 20
-607.000000
 11
-128.889132
 21
-607.000000
  0
ARC
  8
A-GLAZ-2
 10
-128.889132
 20
-607.000000
 40
32.000000
 50
180.000000
 51
270.000000
  0
TEXT
  8
A-DIMS-2
 10
-154.452255
 20
-607.656423
 40
5.558566
  1
2868
  7
STANDARD
  0
LINE
  8
A-WALL-2
 10
-50.409515
 20
-625.935120
 11
-50.409515
 21
-546.000000
  0
LINE
  8
A-WALL-2
 10
-54.409515
 20
-524.045959
 11
-54.409515
 21
-625.935120
  0
LINE
  8
A-WALL-2
 10
-50.409515
 20
-542.000000
 11
-50.409515
 21
-524.045959
  0
INSERT
  8
A-CASE-2
  2
FIXT-Toilet
 10
206.211552
 20
-386.019364
 41
1.000000
 42
1.071429
 43
 1.0
 50
-180.000000
  0
INSERT
  8
A-CASE-2
  2
FIXT-Bidet
 10
177.544432
 20
-389.941346
 41
1.000000
 42
1.000000
 43
 1.0
 50
-180.000000
  0
LINE
  8
A-CASE-2
 10
226.000000
 20
-343.000000
 11
182.000000
 21
-343.000000
  0
LINE
  8
A-CASE-2
 10
182.000000
 20
-343.000000
 11
182.000000
 21
-259.000000
  0
INSERT
  8
A-CASE-2
  2
FIXT-OSpa7242
 10
181.952856
 20
-301.000000
 41
1.166667
 42
1.047619
 43
 1.0
 50
-90.000000
  0
LINE
  8
A-CASE-2
 10
140.000000
 20
-259.000000
 11
140.000000
 21
-262.000000
  0
LINE
  8
A-CASE-2
 10
140.000000
 20
-280.000000
 11
140.000000
 21
-283.000000
  0
LINE
  8
A-CASE-2
 10
140.000000
 20
-283.000000
 11
98.000000
 21
-283.000000
  0
INSERT
  8
A-CASE-2
  2
FIXT-OvalBath
 10
119.000000
 20
-287.983894
 41
1.000000
 42
1.000000
 43
 1.0
 50
0.000000
  0
LINE
  8
A-CASE-2
 10
182.000000
 20
-259.000000
 11
182.000000
 21
-283.000000
  0
LINE
  8
A-CASE-2
 10
140.000000
 20
-283.000000
 11
140.000000
 21
-280.000000
  0
LINE
  8
A-CASE-2
 10
140.000000
 20
-262.000000
 11
140.000000
 21
-259.000000
  0
LINE
  8
A-CASE-2
 10
182.000000
 20
-283.000000
 11
140.000000
 21
-283.000000
  0
INSERT
  8
A-CASE-2
  2
FIXT-OvalBath
 10
161.000000
 20
-287.983894
 41
1.000000
 42
1.000000
 43
 1.0
 50
0.000000
  0
LINE
  8
A-CASE-2
  6
DASHED
 10
182.000000
 20
-259.000000
 11
182.000000
 21
-260.000000
  0
LINE
  8
A-CASE-2
  6
DASHED
 10
182.000000
 20
-260.000000
 11
98.000000
 21
-260.000000
  0
LINE
  8
A-CASE-2
  6
DASHED
 10
100.000000
 20
-286.275119
 11
98.000000
 21
-286.275119
  0
LINE
  8
A-CASE-2
  6
DASHED
 10
98.000000
 20
-262.275119
 11
100.000000
 21
-262.275119
  0
LINE
  8
A-CASE-2
  6
DASHED
 10
100.000000
 20
-262.275119
 11
100.000000
 21
-286.275119
  0
LINE
  8
A-CASE-2
  6
DASHED
 10
98.000000
 20
-286.275119
 11
98.000000
 21
-262.275119
  0
INSERT
  8
A-CASE-2
  2
FIXT-Washer26
 10
-35.704758
 20
-595.201330
 41
1.000000
 42
1.000000
 43
 1.0
 50
-180.000000
  0
INSERT
  8
A-CASE-2
  2
FIXT-DryerG28
 10
-6.743087
 20
-595.201330
 41
1.000000
 42
1.000000
 43
 1.0
 50
-180.000000
  0
LINE
  8
A-CASE-2
 10
-49.848617
 20
-625.935114
 11
-49.848617
 21
-613.935114
  0
LINE
  8
A-CASE-2
 10
10.151383
 20
-613.935114
 11
10.151383
 21
-625.935114
  0
LINE
  8
A-CASE-2
 10
10.151383
 20
-625.935114
 11
10.000000
 21
-625.935114
  0
LINE
  8
A-CASE-2
 10
-49.848617
 20
-613.935114
 11
10.151383
 21
-613.935114
  0
LINE
  8
A-CASE-2
 10
-49.795242
 20
-625.935114
 11
-49.795242
 21
-613.935114
  0
LINE
  8
A-CASE-2
 10
10.204758
 20
-613.935114
 11
10.204758
 21
-625.935114
  0
LINE
  8
A-CASE-2
 10
10.204758
 20
-625.935114
 11
10.000000
 21
-625.935114
  0
LINE
  8
A-CASE-2
 10
-49.795242
 20
-613.935114
 11
10.204758
 21
-613.935114
  0
LINE
  8
A-CASE-2
 10
-32.409516
 20
-576.000000
 11
-50.409516
 21
-576.000000
  0
LINE
  8
A-CASE-2
 10
-32.409516
 20
-546.000000
 11
-32.409516
 21
-576.000000
  0
LINE
  8
A-CASE-2
 10
-37.409516
 20
-556.000000
 11
-32.409516
 21
-561.000000
  0
LINE
  8
A-CASE-2
 10
-37.409516
 20
-566.000000
 11
-32.409516
 21
-561.000000
  0
INSERT
  8
A-CASE-2
  2
FIXT-Toilet
 10
-84.390152
 20
-577.202703
 41
1.000000
 42
1.071429
 43
 1.0
 50
-90.000000
  0
LINE
  8
A-CASE-2
 10
-54.409516
 20
-560.045982
 11
-78.409516
 21
-560.045982
  0
LINE
  8
A-CASE-2
 10
-78.409516
 20
-560.045982
 11
-78.409516
 21
-524.045982
  0
INSERT
  8
A-CASE-2
  2
FIXT-OvalBath
 10
-83.393410
 20
-542.045982
 41
1.000000
 42
1.000000
 43
 1.0
 50
-90.000000
  0
INSERT
  8
A-CASE-2
  2
FIXT-tubshr02
 10
-88.000000
 20
-593.941914
 41
1.000000
 42
1.000000
 43
 1.0
 50
-180.000000
  0
INSERT
  8
A-CASE-2
  2
FIXT-tubshr02
 10
192.000000
 20
-726.006800
 41
1.000000
 42
1.000000
 43
 1.0
 50
-180.000000
  0
INSERT
  8
A-CASE-2
  2
FIXT-Toilet
 10
196.019364
 20
-706.405410
 41
1.000000
 42
1.071429
 43
 1.0
 50
-90.000000
  0
LINE
  8
A-CASE-2
 10
225.184193
 20
-650.652645
 11
222.184193
 21
-650.652645
  0
LINE
  8
A-CASE-2
 10
204.184193
 20
-650.652645
 11
201.184193
 21
-650.652645
  0
LINE
  8
A-CASE-2
 10
201.184193
 20
-650.652645
 11
201.184193
 21
-614.652645
  0
INSERT
  8
A-CASE-2
  2
FIXT-OvalBath
 10
196.200299
 20
-632.652645
 41
1.000000
 42
1.000000
 43
 1.0
 50
-90.000000
  0
LINE
  8
A-CASE-2
 10
225.184193
 20
-686.652645
 11
201.184193
 21
-686.652645
  0
LINE
  8
A-CASE-2
 10
201.184193
 20
-650.652645
 11
204.184193
 21
-650.652645
  0
LINE
  8
A-CASE-2
 10
222.184193
 20
-650.652645
 11
225.184193
 21
-650.652645
  0
LINE
  8
A-CASE-2
 10
201.184193
 20
-686.652645
 11
201.184193
 21
-650.652645
  0
INSERT
  8
A-CASE-2
  2
FIXT-OvalBath
 10
196.200299
 20
-668.652645
 41
1.000000
 42
1.000000
 43
 1.0
 50
-90.000000
  0
LINE
  8
A-CASE-2
  6
DASHED
 10
-105.000000
 20
-409.679711
 11
-102.000000
 21
-409.679711
  0
LINE
  8
A-CASE-2
  6
DASHED
 10
-102.000000
 20
-425.679711
 11
-105.000000
 21
-425.679711
  0
LINE
  8
A-CASE-2
  6
DASHED
 10
-105.000000
 20
-425.679711
 11
-105.000000
 21
-409.679711
  0
LINE
  8
A-CASE-2
  6
DASHED
 10
-102.000000
 20
-409.679711
 11
-102.000000
 21
-425.679711
  0
LINE
  8
A-CASE-2
  6
DASHED
 10
54.000000
 20
-332.868417
 11
53.000000
 21
-332.868417
  0
LINE
  8
A-CASE-2
  6
DASHED
 10
53.000000
 20
-304.868417
 11
54.000000
 21
-304.868417
  0
LINE
  8
A-CASE-2
  6
DASHED
 10
53.000000
 20
-332.868417
 11
53.000000
 21
-304.868417
  0
LINE
  8
A-CASE-2
  6
DASHED
 10
225.347355
 20
-686.000000
 11
224.347355
 21
-686.000000
  0
LINE
  8
A-CASE-2
  6
DASHED
 10
225.347355
 20
-614.000000
 11
225.347355
 21
-686.000000
  0
LINE
  8
A-CASE-2
  6
DASHED
 10
224.347355
 20
-686.000000
 11
224.347355
 21
-614.000000
  0
INSERT
  8
A-CASE-2
  2
FIXT-Shwr60
 10
58.015317
 20
-292.000000
 41
1.100000
 42
1.090909
 43
 1.0
 50
-90.000000
  0
TEXT
  8
A-NOTE-2
 10
-233.735354
 20
-420.632351
 40
8.106241
  1
MASTER BEDROOM
  7
STANDARD
  0
TEXT
  8
A-NOTE-2
 10
-194.974487
 20
-431.980886
 40
6.209389
  1
14' x 17'5
  7
STANDARD
  0
TEXT
  8
A-NOTE-2
 10
-65.904701
 20
-825.062858
 40
9.650287
  1
LIVING AREA
  7
STANDARD
  0
TEXT
  8
A-NOTE-2
 10
-45.907807
 20
-838.137655
 40
7.305163
  1
1620 sq ft
  7
STANDARD
  0
TEXT
  8
A-NOTE-2
 10
27.927234
 20
-724.052032
 40
9.650287
  1
BEDROOM #3
  7
STANDARD
  0
TEXT
  8
A-NOTE-2
 10
54.315739
 20
-737.126829
 40
7.305163
  1
14' x 12'
  7
STANDARD
  0
TEXT
  8
A-NOTE-2
 10
-182.709507
 20
-707.416685
 40
9.650287
  1
BEDROOM #2
  7
STANDARD
  0
TEXT
  8
A-NOTE-2
 10
-162.297954
 20
-720.491481
 40
7.305163
  1
13'2 x 13'8
  7
STANDARD
  0
TEXT
  8
A-NOTE-2
 10
-61.075696
 20
-350.474376
 40
8.106241
  1
SITTING ROOM
  7
STANDARD
  0
TEXT
  8
A-NOTE-2
 10
-38.308235
 20
-361.822911
 40
6.209389
  1
12'8 x 9'11
  7
STANDARD
  0
TEXT
  8
A-NOTE-2
 10
-36.569945
 20
-644.666647
 40
4.632138
  1
CLOSET
  7
STANDARD
  0
TEXT
  8
A-NOTE-2
 10
-30.533423
 20
-650.607629
 40
3.287323
  1
2' x 5'9
  7
STANDARD
  0
TEXT
  8
A-NOTE-2
 10
171.507200
 20
-431.039803
 40
7.334218
  1
CLOSET
  7
STANDARD
  0
TEXT
  8
A-NOTE-2
 10
178.431180
 20
-440.915821
 40
5.478872
  1
5'6 x 4'6
  7
STANDARD
  0
TEXT
  8
A-NOTE-2
 10
103.902050
 20
-331.669125
 40
7.334218
  1
MASTER BATH
  7
STANDARD
  0
TEXT
  8
A-NOTE-2
 10
120.746759
 20
-341.545143
 40
5.478872
  1
10'8 x 10'11
  7
STANDARD
  0
TEXT
  8
A-NOTE-2
 10
62.982006
 20
-292.538659
 40
4.632138
  1
SHOWER
  7
STANDARD
  0
TEXT
  8
A-NOTE-2
 10
70.937528
 20
-298.479641
 40
3.287323
  1
3' x 5'6
  7
STANDARD
  0
TEXT
  8
A-NOTE-2
 10
-83.879642
 20
-489.570616
 40
9.650287
  1
HALL
  7
STANDARD
  0
TEXT
  8
A-NOTE-2
 10
-91.889487
 20
-502.645413
 40
7.305163
  1
18'8 x 6'11
  7
STANDARD
  0
TEXT
  8
A-NOTE-2
 10
-24.297708
 20
-439.249275
 40
7.334218
  1
ELEVATOR
  7
STANDARD
  0
TEXT
  8
A-NOTE-2
 10
-14.746040
 20
-449.125293
 40
5.478872
  1
5'10 x 4'10
  7
STANDARD
  0
TEXT
  8
A-NOTE-2
 10
94.276018
 20
-534.030845
 40
9.650287
  1
BEDROOM #4
  7
STANDARD
  0
TEXT
  8
A-NOTE-2
 10
120.664523
 20
-547.105641
 40
7.305163
  1
14' x 11'
  7
STANDARD
  0
TEXT
  8
A-NOTE-2
 10
65.607515
 20
-333.809517
 40
3.474103
  1
CLOSET
  7
STANDARD
  0
TEXT
  8
A-NOTE-2
 10
70.601099
 20
-338.760497
 40
2.556807
  1
3' x 1'1
  7
STANDARD
  0
TEXT
  8
A-NOTE-2
 10
-16.103887
 20
-392.439863
 40
6.176184
  1
CLOSET
  7
STANDARD
  0
TEXT
  8
A-NOTE-2
 10
-9.923997
 20
-401.325879
 40
4.748356
  1
5'10 x 2'
  7
STANDARD
  0
TEXT
  8
A-NOTE-2
 10
73.790584
 20
-447.056492
 40
9.650287
  1
CLOSET
  7
STANDARD
  0
TEXT
  8
A-NOTE-2
 10
82.574790
 20
-460.131289
 40
7.305163
  1
9'6 x 6'8
  7
STANDARD
  0
TEXT
  8
A-NOTE-2
 10
39.445311
 20
-406.999974
 40
3.474103
  1
CHASE
  7
STANDARD
  0
TEXT
  8
A-NOTE-2
 10
43.949662
 20
-411.950954
 40
2.556807
  1
1' x 2'
  7
STANDARD
  0
TEXT
  8
A-NOTE-2
 10
-47.956100
 20
-584.666627
 40
6.176184
  1
LAUNDRY
  7
STANDARD
  0
TEXT
  8
A-NOTE-2
 10
-36.440101
 20
-593.552643
 40
4.748356
  1
5' x 6'8
  7
STANDARD
  0
TEXT
  8
A-NOTE-2
 10
187.918096
 20
-369.955463
 40
7.334218
  1
TOILET
  7
STANDARD
  0
TEXT
  8
A-NOTE-2
 10
192.256476
 20
-379.831481
 40
5.478872
  1
5'6 x 5'3
  7
STANDARD
  0
TEXT
  8
A-NOTE-2
 10
-40.665410
 20
-755.622258
 40
4.632138
  1
CLOSET
  7
STANDARD
  0
TEXT
  8
A-NOTE-2
 10
-34.628888
 20
-761.563241
 40
3.287323
  1
2' x 5'8
  7
STANDARD
  0
TEXT
  8
A-NOTE-2
 10
-33.056504
 20
-533.297204
 40
4.632138
  1
CLOSET
  7
STANDARD
  0
TEXT
  8
A-NOTE-2
 10
-27.019983
 20
-539.238187
 40
3.287323
  1
5' x 1'6
  7
STANDARD
  0
TEXT
  8
A-NOTE-2
 10
166.716723
 20
-666.293283
 40
8.106241
  1
BATH
  7
STANDARD
  0
TEXT
  8
A-NOTE-2
 10
166.385594
 20
-677.641818
 40
6.209389
  1
5'4 x 12'
  7
STANDARD
  0
TEXT
  8
A-NOTE-2
 10
-114.193943
 20
-576.516520
 40
7.334218
  1
BATH
  7
STANDARD
  0
TEXT
  8
A-NOTE-2
 10
-114.380363
 20
-586.392538
 40
5.478872
  1
5'3 x 8'6
  7
STANDARD
  0
TEXT
  8
A-NOTE-2
 10
-222.832811
 20
-533.896987
 40
5.018149
  1
OPEN BELOW
  7
STANDARD
  0
TEXT
  8
A-NOTE-2
 10
-212.030572
 20
-540.574228
 40
3.652582
  1
7'10 x 10'11
  7
STANDARD
  0
TEXT
  8
A-TEXT-2
 10
44.000868
 20
-363.573515
 40
4.632138
  1
2' 9"
  7
STANDARD
  0
LINE
  8
A-TEXT-2
 10
50.363868
 20
-355.783343
 11
52.289127
 21
-351.285461
  0
LINE
  8
A-TEXT-2
 10
52.289127
 20
-351.285461
 11
54.214390
 21
-346.712891
  0
LINE
  8
A-TEXT-2
 10
49.970037
 20
-350.350949
 11
54.214390
 21
-346.712891
  0
LINE
  8
A-TEXT-2
 10
54.578225
 20
-352.291208
 11
54.214390
 21
-346.712891
  0
TEXT
  8
A-TEXT-2
 10
48.128612
 20
-370.076187
 40
6.176184
  1
 
  7
STANDARD
  0
LINE
  8
A-TEXT-2
 10
45.328612
 20
-367.691358
 11
44.192249
 21
-372.724945
  0
LINE
  8
A-TEXT-2
 10
44.192249
 20
-372.724945
 11
42.181194
 21
-377.758545
  0
LINE
  8
A-TEXT-2
 10
48.028473
 20
-372.556686
 11
42.181194
 21
-377.758545
  0
LINE
  8
A-TEXT-2
 10
41.528075
 20
-369.959607
 11
42.181194
 21
-377.758545
  0
TEXT
  8
A-TEXT-2
 10
61.912574
 20
-269.233248
 40
4.632138
  1
Seat Here
  7
STANDARD
  0
TEXT
  8
A-TEXT-2
 10
194.162054
 20
-806.601267
 40
7.334218
  1
Strang/Smith 12/2/2000
  7
STANDARD
  0
LINE
  8
A-DIMS-2
 10
-6.676947
 20
-775.000000
 11
28.323053
 21
-775.000000
  0
LINE
  8
A-DIMS-2
 10
26.823053
 20
-772.000000
 11
25.323053
 21
-775.000000
  0
LINE
  8
A-DIMS-2
 10
23.823053
 20
-765.000000
 11
25.323053
 21
-762.000000
  0
LINE
  8
A-DIMS-2
 10
25.323053
 20
-776.846149
 11
25.323053
 21
-775.000000
  0
LINE
  8
A-DIMS-2
 10
25.323053
 20
-760.153851
 11
25.323053
 21
-762.000000
  0
TEXT
  8
A-DIMS-2
 10
27.979476
 20
-774.078488
 40
5.558566
  1
1'1
 50
90.000000
  7
STANDARD
  0
LINE
  8
A-DIMS-2
 10
30.323053
 20
-775.000000
 11
304.323053
 21
-775.000000
  0
LINE
  8
A-DIMS-2
 10
302.823053
 20
-772.000000
 11
301.323053
 21
-775.000000
  0
LINE
  8
A-DIMS-2
 10
288.323053
 20
-255.000000
 11
304.323053
 21
-255.000000
  0
LINE
  8
A-DIMS-2
 10
299.823053
 20
-258.000000
 11
301.323053
 21
-255.000000
  0
LINE
  8
A-DIMS-2
 10
301.323053
 20
-525.736930
 11
301.323053
 21
-775.000000
  0
LINE
  8
A-DIMS-2
 10
301.323053
 20
-504.263070
 11
301.323053
 21
-255.000000
  0
TEXT
  8
A-DIMS-2
 10
303.979476
 20
-522.969269
 40
5.558566
  1
43'4
 50
90.000000
  7
STANDARD
  0
LINE
  8
A-DIMS-2
 10
270.323053
 20
-762.000000
 11
286.323053
 21
-762.000000
  0
LINE
  8
A-DIMS-2
 10
284.823053
 20
-759.000000
 11
283.323053
 21
-762.000000
  0
LINE
  8
A-DIMS-2
 10
270.323053
 20
-612.000000
 11
286.323053
 21
-612.000000
  0
LINE
  8
A-DIMS-2
 10
284.823053
 20
-609.000000
 11
283.323053
 21
-612.000000
  0
LINE
  8
A-DIMS-2
 10
281.823053
 20
-615.000000
 11
283.323053
 21
-612.000000
  0
LINE
  8
A-DIMS-2
 10
283.323053
 20
-697.736930
 11
283.323053
 21
-762.000000
  0
LINE
  8
A-DIMS-2
 10
283.323053
 20
-676.263070
 11
283.323053
 21
-612.000000
  0
TEXT
  8
A-DIMS-2
 10
285.979476
 20
-694.969269
 40
5.558566
  1
12'6
 50
90.000000
  7
STANDARD
  0
LINE
  8
A-DIMS-2
 10
270.323053
 20
-476.000000
 11
286.323053
 21
-476.000000
  0
LINE
  8
A-DIMS-2
 10
284.823053
 20
-473.000000
 11
283.323053
 21
-476.000000
  0
LINE
  8
A-DIMS-2
 10
281.823053
 20
-479.000000
 11
283.323053
 21
-476.000000
  0
LINE
  8
A-DIMS-2
 10
283.323053
 20
-554.736930
 11
283.323053
 21
-612.000000
  0
LINE
  8
A-DIMS-2
 10
283.323053
 20
-533.263070
 11
283.323053
 21
-476.000000
  0
TEXT
  8
A-DIMS-2
 10
285.979476
 20
-551.969269
 40
5.558566
  1
11'4
 50
90.000000
  7
STANDARD
  0
LINE
  8
A-DIMS-2
 10
270.323053
 20
-418.000000
 11
286.323053
 21
-418.000000
  0
LINE
  8
A-DIMS-2
 10
284.823053
 20
-415.000000
 11
283.323053
 21
-418.000000
  0
LINE
  8
A-DIMS-2
 10
281.823053
 20
-421.000000
 11
283.323053
 21
-418.000000
  0
LINE
  8
A-DIMS-2
 10
283.323053
 20
-457.736930
 11
283.323053
 21
-476.000000
  0
LINE
  8
A-DIMS-2
 10
283.323053
 20
-436.263070
 11
283.323053
 21
-418.000000
  0
TEXT
  8
A-DIMS-2
 10
285.979476
 20
-454.969269
 40
5.558566
  1
4'10
 50
90.000000
  7
STANDARD
  0
LINE
  8
A-DIMS-2
 10
270.323053
 20
-351.000000
 11
286.323053
 21
-351.000000
  0
LINE
  8
A-DIMS-2
 10
284.823053
 20
-348.000000
 11
283.323053
 21
-351.000000
  0
LINE
  8
A-DIMS-2
 10
281.823053
 20
-354.000000
 11
283.323053
 21
-351.000000
  0
LINE
  8
A-DIMS-2
 10
283.323053
 20
-392.846149
 11
283.323053
 21
-418.000000
  0
LINE
  8
A-DIMS-2
 10
283.323053
 20
-376.153851
 11
283.323053
 21
-351.000000
  0
TEXT
  8
A-DIMS-2
 10
285.979476
 20
-390.078488
 40
5.558566
  1
5'7
 50
90.000000
  7
STANDARD
  0
LINE
  8
A-DIMS-2
 10
270.323053
 20
-255.000000
 11
286.323053
 21
-255.000000
  0
LINE
  8
A-DIMS-2
 10
281.823053
 20
-258.000000
 11
283.323053
 21
-255.000000
  0
LINE
  8
A-DIMS-2
 10
283.323053
 20
-308.955368
 11
283.323053
 21
-351.000000
  0
LINE
  8
A-DIMS-2
 10
283.323053
 20
-297.044632
 11
283.323053
 21
-255.000000
  0
TEXT
  8
A-DIMS-2
 10
285.979476
 20
-306.187708
 40
5.558566
  1
8'
 50
90.000000
  7
STANDARD
  0
LINE
  8
A-DIMS-2
 10
233.323053
 20
-418.000000
 11
268.323053
 21
-418.000000
  0
LINE
  8
A-DIMS-2
 10
266.823053
 20
-415.000000
 11
265.323053
 21
-418.000000
  0
LINE
  8
A-DIMS-2
 10
242.323053
 20
-384.000000
 11
268.323053
 21
-384.000000
  0
LINE
  8
A-DIMS-2
 10
266.823053
 20
-381.000000
 11
265.323053
 21
-384.000000
  0
LINE
  8
A-DIMS-2
 10
263.823053
 20
-387.000000
 11
265.323053
 21
-384.000000
  0
LINE
  8
A-DIMS-2
 10
265.323053
 20
-411.736930
 11
265.323053
 21
-418.000000
  0
LINE
  8
A-DIMS-2
 10
265.323053
 20
-390.263070
 11
265.323053
 21
-384.000000
  0
TEXT
  8
A-DIMS-2
 10
267.979476
 20
-408.969269
 40
5.558566
  1
2'10
 50
90.000000
  7
STANDARD
  0
LINE
  8
A-DIMS-2
 10
233.323053
 20
-351.000000
 11
268.323053
 21
-351.000000
  0
LINE
  8
A-DIMS-2
 10
266.823053
 20
-348.000000
 11
265.323053
 21
-351.000000
  0
LINE
  8
A-DIMS-2
 10
263.823053
 20
-354.000000
 11
265.323053
 21
-351.000000
  0
LINE
  8
A-DIMS-2
 10
265.323053
 20
-375.846149
 11
265.323053
 21
-384.000000
  0
LINE
  8
A-DIMS-2
 10
265.323053
 20
-359.153851
 11
265.323053
 21
-351.000000
  0
TEXT
  8
A-DIMS-2
 10
267.979476
 20
-373.078488
 40
5.558566
  1
2'9
 50
90.000000
  7
STANDARD
  0
LINE
  8
A-DIMS-2
 10
242.323053
 20
-318.000000
 11
268.323053
 21
-318.000000
  0
LINE
  8
A-DIMS-2
 10
266.823053
 20
-315.000000
 11
265.323053
 21
-318.000000
  0
LINE
  8
A-DIMS-2
 10
263.823053
 20
-321.000000
 11
265.323053
 21
-318.000000
  0
LINE
  8
A-DIMS-2
 10
265.323053
 20
-342.846149
 11
265.323053
 21
-351.000000
  0
LINE
  8
A-DIMS-2
 10
265.323053
 20
-326.153851
 11
265.323053
 21
-318.000000
  0
TEXT
  8
A-DIMS-2
 10
267.979476
 20
-340.078488
 40
5.558566
  1
2'9
 50
90.000000
  7
STANDARD
  0
LINE
  8
A-DIMS-2
 10
242.323053
 20
-284.000000
 11
268.323053
 21
-284.000000
  0
LINE
  8
A-DIMS-2
 10
266.823053
 20
-281.000000
 11
265.323053
 21
-284.000000
  0
LINE
  8
A-DIMS-2
 10
263.823053
 20
-287.000000
 11
265.323053
 21
-284.000000
  0
LINE
  8
A-DIMS-2
 10
265.323053
 20
-311.736930
 11
265.323053
 21
-318.000000
  0
LINE
  8
A-DIMS-2
 10
265.323053
 20
-290.263070
 11
265.323053
 21
-284.000000
  0
TEXT
  8
A-DIMS-2
 10
267.979476
 20
-308.969269
 40
5.558566
  1
2'10
 50
90.000000
  7
STANDARD
  0
LINE
  8
A-DIMS-2
 10
233.323053
 20
-255.000000
 11
268.323053
 21
-255.000000
  0
LINE
  8
A-DIMS-2
 10
263.823053
 20
-258.000000
 11
265.323053
 21
-255.000000
  0
LINE
  8
A-DIMS-2
 10
265.323053
 20
-277.846149
 11
265.323053
 21
-284.000000
  0
LINE
  8
A-DIMS-2
 10
265.323053
 20
-261.153851
 11
265.323053
 21
-255.000000
  0
TEXT
  8
A-DIMS-2
 10
267.979476
 20
-275.078488
 40
5.558566
  1
2'5
 50
90.000000
  7
STANDARD
  0
LINE
  8
A-DIMS-2
 10
233.323053
 20
-762.000000
 11
268.323053
 21
-762.000000
  0
LINE
  8
A-DIMS-2
 10
266.823053
 20
-759.000000
 11
265.323053
 21
-762.000000
  0
LINE
  8
A-DIMS-2
 10
242.323053
 20
-706.000000
 11
268.323053
 21
-706.000000
  0
LINE
  8
A-DIMS-2
 10
266.823053
 20
-703.000000
 11
265.323053
 21
-706.000000
  0
LINE
  8
A-DIMS-2
 10
263.823053
 20
-709.000000
 11
265.323053
 21
-706.000000
  0
LINE
  8
A-DIMS-2
 10
265.323053
 20
-742.346149
 11
265.323053
 21
-762.000000
  0
LINE
  8
A-DIMS-2
 10
265.323053
 20
-725.653851
 11
265.323053
 21
-706.000000
  0
TEXT
  8
A-DIMS-2
 10
267.979476
 20
-739.578488
 40
5.558566
  1
4'8
 50
90.000000
  7
STANDARD
  0
LINE
  8
A-DIMS-2
 10
233.323053
 20
-612.000000
 11
268.323053
 21
-612.000000
  0
LINE
  8
A-DIMS-2
 10
266.823053
 20
-609.000000
 11
265.323053
 21
-612.000000
  0
LINE
  8
A-DIMS-2
 10
263.823053
 20
-615.000000
 11
265.323053
 21
-612.000000
  0
LINE
  8
A-DIMS-2
 10
265.323053
 20
-669.736930
 11
265.323053
 21
-706.000000
  0
LINE
  8
A-DIMS-2
 10
265.323053
 20
-648.263070
 11
265.323053
 21
-612.000000
  0
TEXT
  8
A-DIMS-2
 10
267.979476
 20
-666.969269
 40
5.558566
  1
7'10
 50
90.000000
  7
STANDARD
  0
LINE
  8
A-DIMS-2
 10
242.323053
 20
-561.000000
 11
268.323053
 21
-561.000000
  0
LINE
  8
A-DIMS-2
 10
266.823053
 20
-558.000000
 11
265.323053
 21
-561.000000
  0
LINE
  8
A-DIMS-2
 10
263.823053
 20
-564.000000
 11
265.323053
 21
-561.000000
  0
LINE
  8
A-DIMS-2
 10
265.323053
 20
-594.846149
 11
265.323053
 21
-612.000000
  0
LINE
  8
A-DIMS-2
 10
265.323053
 20
-578.153851
 11
265.323053
 21
-561.000000
  0
TEXT
  8
A-DIMS-2
 10
267.979476
 20
-592.078488
 40
5.558566
  1
4'3
 50
90.000000
  7
STANDARD
  0
LINE
  8
A-DIMS-2
 10
242.323053
 20
-527.000000
 11
268.323053
 21
-527.000000
  0
LINE
  8
A-DIMS-2
 10
266.823053
 20
-524.000000
 11
265.323053
 21
-527.000000
  0
LINE
  8
A-DIMS-2
 10
263.823053
 20
-530.000000
 11
265.323053
 21
-527.000000
  0
LINE
  8
A-DIMS-2
 10
265.323053
 20
-554.736930
 11
265.323053
 21
-561.000000
  0
LINE
  8
A-DIMS-2
 10
265.323053
 20
-533.263070
 11
265.323053
 21
-527.000000
  0
TEXT
  8
A-DIMS-2
 10
267.979476
 20
-551.969269
 40
5.558566
  1
2'10
 50
90.000000
  7
STANDARD
  0
LINE
  8
A-DIMS-2
 10
233.323053
 20
-476.000000
 11
268.323053
 21
-476.000000
  0
LINE
  8
A-DIMS-2
 10
263.823053
 20
-479.000000
 11
265.323053
 21
-476.000000
  0
LINE
  8
A-DIMS-2
 10
265.323053
 20
-509.846149
 11
265.323053
 21
-527.000000
  0
LINE
  8
A-DIMS-2
 10
265.323053
 20
-493.153851
 11
265.323053
 21
-476.000000
  0
TEXT
  8
A-DIMS-2
 10
267.979476
 20
-507.078488
 40
5.558566
  1
4'3
 50
90.000000
  7
STANDARD
  0
LINE
  8
A-DIMS-2
 10
-274.000000
 20
-610.834960
 11
-274.000000
 21
-831.834960
  0
LINE
  8
A-DIMS-2
 10
-271.000000
 20
-830.334960
 11
-274.000000
 21
-828.834960
  0
LINE
  8
A-DIMS-2
 10
-204.000000
 20
-815.834960
 11
-204.000000
 21
-831.834960
  0
LINE
  8
A-DIMS-2
 10
-201.000000
 20
-830.334960
 11
-204.000000
 21
-828.834960
  0
LINE
  8
A-DIMS-2
 10
-207.000000
 20
-827.334960
 11
-204.000000
 21
-828.834960
  0
LINE
  8
A-DIMS-2
 10
-249.736930
 20
-828.834960
 11
-274.000000
 21
-828.834960
  0
LINE
  8
A-DIMS-2
 10
-228.263070
 20
-828.834960
 11
-204.000000
 21
-828.834960
  0
TEXT
  8
A-DIMS-2
 10
-246.969269
 20
-831.491383
 40
5.558566
  1
5'10
  7
STANDARD
  0
LINE
  8
A-DIMS-2
 10
-40.000000
 20
-815.834960
 11
-40.000000
 21
-831.834960
  0
LINE
  8
A-DIMS-2
 10
-37.000000
 20
-830.334960
 11
-40.000000
 21
-828.834960
  0
LINE
  8
A-DIMS-2
 10
-43.000000
 20
-827.334960
 11
-40.000000
 21
-828.834960
  0
LINE
  8
A-DIMS-2
 10
-132.736930
 20
-828.834960
 11
-204.000000
 21
-828.834960
  0
LINE
  8
A-DIMS-2
 10
-111.263070
 20
-828.834960
 11
-40.000000
 21
-828.834960
  0
TEXT
  8
A-DIMS-2
 10
-129.969269
 20
-831.491383
 40
5.558566
  1
13'8
  7
STANDARD
  0
LINE
  8
A-DIMS-2
 10
-10.000000
 20
-815.834960
 11
-10.000000
 21
-831.834960
  0
LINE
  8
A-DIMS-2
 10
-7.000000
 20
-830.334960
 11
-10.000000
 21
-828.834960
  0
LINE
  8
A-DIMS-2
 10
-13.000000
 20
-827.334960
 11
-10.000000
 21
-828.834960
  0
LINE
  8
A-DIMS-2
 10
-33.346149
 20
-828.834960
 11
-40.000000
 21
-828.834960
  0
LINE
  8
A-DIMS-2
 10
-16.653851
 20
-828.834960
 11
-10.000000
 21
-828.834960
  0
TEXT
  8
A-DIMS-2
 10
-30.578488
 20
-831.491383
 40
5.558566
  1
2'6
  7
STANDARD
  0
LINE
  8
A-DIMS-2
 10
160.000000
 20
-815.834960
 11
160.000000
 21
-831.834960
  0
LINE
  8
A-DIMS-2
 10
157.000000
 20
-827.334960
 11
160.000000
 21
-828.834960
  0
LINE
  8
A-DIMS-2
 10
64.263070
 20
-828.834960
 11
-10.000000
 21
-828.834960
  0
LINE
  8
A-DIMS-2
 10
85.736930
 20
-828.834960
 11
160.000000
 21
-828.834960
  0
TEXT
  8
A-DIMS-2
 10
67.030731
 20
-831.491383
 40
5.558566
  1
14'2
  7
STANDARD
  0
LINE
  8
A-DIMS-2
 10
-10.000000
 20
-778.834960
 11
-10.000000
 21
-813.834960
  0
LINE
  8
A-DIMS-2
 10
-7.000000
 20
-812.334960
 11
-10.000000
 21
-810.834960
  0
LINE
  8
A-DIMS-2
 10
104.000000
 20
-774.834960
 11
104.000000
 21
-813.834960
  0
LINE
  8
A-DIMS-2
 10
107.000000
 20
-812.334960
 11
104.000000
 21
-810.834960
  0
LINE
  8
A-DIMS-2
 10
101.000000
 20
-809.334960
 11
104.000000
 21
-810.834960
  0
LINE
  8
A-DIMS-2
 10
38.653851
 20
-810.834960
 11
-10.000000
 21
-810.834960
  0
LINE
  8
A-DIMS-2
 10
55.346149
 20
-810.834960
 11
104.000000
 21
-810.834960
  0
TEXT
  8
A-DIMS-2
 10
41.421512
 20
-813.491383
 40
5.558566
  1
9'6
  7
STANDARD
  0
LINE
  8
A-DIMS-2
 10
138.000000
 20
-774.834960
 11
138.000000
 21
-813.834960
  0
LINE
  8
A-DIMS-2
 10
141.000000
 20
-812.334960
 11
138.000000
 21
-810.834960
  0
LINE
  8
A-DIMS-2
 10
135.000000
 20
-809.334960
 11
138.000000
 21
-810.834960
  0
LINE
  8
A-DIMS-2
 10
110.263070
 20
-810.834960
 11
104.000000
 21
-810.834960
  0
LINE
  8
A-DIMS-2
 10
131.736930
 20
-810.834960
 11
138.000000
 21
-810.834960
  0
TEXT
  8
A-DIMS-2
 10
113.030731
 20
-813.491383
 40
5.558566
  1
2'10
  7
STANDARD
  0
LINE
  8
A-DIMS-2
 10
160.000000
 20
-765.834960
 11
160.000000
 21
-813.834960
  0
LINE
  8
A-DIMS-2
 10
157.000000
 20
-809.334960
 11
160.000000
 21
-810.834960
  0
LINE
  8
A-DIMS-2
 10
138.263070
 20
-810.834960
 11
138.000000
 21
-810.834960
  0
LINE
  8
A-DIMS-2
 10
159.736930
 20
-810.834960
 11
160.000000
 21
-810.834960
  0
TEXT
  8
A-DIMS-2
 10
141.030731
 20
-813.491383
 40
5.558566
  1
1'10
  7
STANDARD
  0
LINE
  8
A-DIMS-2
 10
-204.000000
 20
-778.834960
 11
-204.000000
 21
-813.834960
  0
LINE
  8
A-DIMS-2
 10
-201.000000
 20
-812.334960
 11
-204.000000
 21
-810.834960
  0
LINE
  8
A-DIMS-2
 10
-142.000000
 20
-787.834960
 11
-142.000000
 21
-813.834960
  0
LINE
  8
A-DIMS-2
 10
-139.000000
 20
-812.334960
 11
-142.000000
 21
-810.834960
  0
LINE
  8
A-DIMS-2
 10
-145.000000
 20
-809.334960
 11
-142.000000
 21
-810.834960
  0
LINE
  8
A-DIMS-2
 10
-181.346149
 20
-810.834960
 11
-204.000000
 21
-810.834960
  0
LINE
  8
A-DIMS-2
 10
-164.653851
 20
-810.834960
 11
-142.000000
 21
-810.834960
  0
TEXT
  8
A-DIMS-2
 10
-178.578488
 20
-813.491383
 40
5.558566
  1
5'2
  7
STANDARD
  0
LINE
  8
A-DIMS-2
 10
-108.000000
 20
-787.834960
 11
-108.000000
 21
-813.834960
  0
LINE
  8
A-DIMS-2
 10
-105.000000
 20
-812.334960
 11
-108.000000
 21
-810.834960
  0
LINE
  8
A-DIMS-2
 10
-111.000000
 20
-809.334960
 11
-108.000000
 21
-810.834960
  0
LINE
  8
A-DIMS-2
 10
-135.736930
 20
-810.834960
 11
-142.000000
 21
-810.834960
  0
LINE
  8
A-DIMS-2
 10
-114.263070
 20
-810.834960
 11
-108.000000
 21
-810.834960
  0
TEXT
  8
A-DIMS-2
 10
-132.969269
 20
-813.491383
 40
5.558566
  1
2'10
  7
STANDARD
  0
LINE
  8
A-DIMS-2
 10
-74.000000
 20
-787.834960
 11
-74.000000
 21
-813.834960
  0
LINE
  8
A-DIMS-2
 10
-71.000000
 20
-812.334960
 11
-74.000000
 21
-810.834960
  0
LINE
  8
A-DIMS-2
 10
-77.000000
 20
-809.334960
 11
-74.000000
 21
-810.834960
  0
LINE
  8
A-DIMS-2
 10
-101.736930
 20
-810.834960
 11
-108.000000
 21
-810.834960
  0
LINE
  8
A-DIMS-2
 10
-80.263070
 20
-810.834960
 11
-74.000000
 21
-810.834960
  0
TEXT
  8
A-DIMS-2
 10
-98.969269
 20
-813.491383
 40
5.558566
  1
2'10
  7
STANDARD
  0
LINE
  8
A-DIMS-2
 10
-40.000000
 20
-778.834960
 11
-40.000000
 21
-813.834960
  0
LINE
  8
A-DIMS-2
 10
-43.000000
 20
-809.334960
 11
-40.000000
 21
-810.834960
  0
LINE
  8
A-DIMS-2
 10
-67.736930
 20
-810.834960
 11
-74.000000
 21
-810.834960
  0
LINE
  8
A-DIMS-2
 10
-46.263070
 20
-810.834960
 11
-40.000000
 21
-810.834960
  0
TEXT
  8
A-DIMS-2
 10
-64.969269
 20
-813.491383
 40
5.558566
  1
2'10
  7
STANDARD
  0
LINE
  8
A-DIMS-2
 10
230.000000
 20
-196.834960
 11
230.000000
 21
-180.834960
  0
LINE
  8
A-DIMS-2
 10
227.000000
 20
-182.334960
 11
230.000000
 21
-183.834960
  0
LINE
  8
A-DIMS-2
 10
-274.000000
 20
-196.834960
 11
-274.000000
 21
-180.834960
  0
LINE
  8
A-DIMS-2
 10
-271.000000
 20
-185.334960
 11
-274.000000
 21
-183.834960
  0
LINE
  8
A-DIMS-2
 10
-13.653851
 20
-183.834960
 11
230.000000
 21
-183.834960
  0
LINE
  8
A-DIMS-2
 10
-30.346149
 20
-183.834960
 11
-274.000000
 21
-183.834960
  0
TEXT
  8
A-DIMS-2
 10
-27.578488
 20
-186.491383
 40
5.558566
  1
42'
  7
STANDARD
  0
LINE
  8
A-DIMS-2
 10
230.000000
 20
-214.834960
 11
230.000000
 21
-198.834960
  0
LINE
  8
A-DIMS-2
 10
227.000000
 20
-200.334960
 11
230.000000
 21
-201.834960
  0
LINE
  8
A-DIMS-2
 10
96.000000
 20
-214.834960
 11
96.000000
 21
-198.834960
  0
LINE
  8
A-DIMS-2
 10
93.000000
 20
-200.334960
 11
96.000000
 21
-201.834960
  0
LINE
  8
A-DIMS-2
 10
99.000000
 20
-203.334960
 11
96.000000
 21
-201.834960
  0
LINE
  8
A-DIMS-2
 10
173.736930
 20
-201.834960
 11
230.000000
 21
-201.834960
  0
LINE
  8
A-DIMS-2
 10
152.263070
 20
-201.834960
 11
96.000000
 21
-201.834960
  0
TEXT
  8
A-DIMS-2
 10
155.030731
 20
-204.491383
 40
5.558566
  1
11'2
  7
STANDARD
  0
LINE
  8
A-DIMS-2
 10
56.000000
 20
-214.834960
 11
56.000000
 21
-198.834960
  0
LINE
  8
A-DIMS-2
 10
53.000000
 20
-200.334960
 11
56.000000
 21
-201.834960
  0
LINE
  8
A-DIMS-2
 10
59.000000
 20
-203.334960
 11
56.000000
 21
-201.834960
  0
LINE
  8
A-DIMS-2
 10
84.346149
 20
-201.834960
 11
96.000000
 21
-201.834960
  0
LINE
  8
A-DIMS-2
 10
67.653851
 20
-201.834960
 11
56.000000
 21
-201.834960
  0
TEXT
  8
A-DIMS-2
 10
70.421512
 20
-204.491383
 40
5.558566
  1
3'4
  7
STANDARD
  0
LINE
  8
A-DIMS-2
 10
-100.000000
 20
-214.834960
 11
-100.000000
 21
-198.834960
  0
LINE
  8
A-DIMS-2
 10
-103.000000
 20
-200.334960
 11
-100.000000
 21
-201.834960
  0
LINE
  8
A-DIMS-2
 10
-97.000000
 20
-203.334960
 11
-100.000000
 21
-201.834960
  0
LINE
  8
A-DIMS-2
 10
-13.653851
 20
-201.834960
 11
56.000000
 21
-201.834960
  0
LINE
  8
A-DIMS-2
 10
-30.346149
 20
-201.834960
 11
-100.000000
 21
-201.834960
  0
TEXT
  8
A-DIMS-2
 10
-27.578488
 20
-204.491383
 40
5.558566
  1
13'
  7
STANDARD
  0
LINE
  8
A-DIMS-2
 10
-274.000000
 20
-214.834960
 11
-274.000000
 21
-198.834960
  0
LINE
  8
A-DIMS-2
 10
-271.000000
 20
-203.334960
 11
-274.000000
 21
-201.834960
  0
LINE
  8
A-DIMS-2
 10
-176.263070
 20
-201.834960
 11
-100.000000
 21
-201.834960
  0
LINE
  8
A-DIMS-2
 10
-197.736930
 20
-201.834960
 11
-274.000000
 21
-201.834960
  0
TEXT
  8
A-DIMS-2
 10
-194.969269
 20
-204.491383
 40
5.558566
  1
14'6
  7
STANDARD
  0
LINE
  8
A-DIMS-2
 10
56.000000
 20
-251.834960
 11
56.000000
 21
-216.834960
  0
LINE
  8
A-DIMS-2
 10
53.000000
 20
-218.334960
 11
56.000000
 21
-219.834960
  0
LINE
  8
A-DIMS-2
 10
30.000000
 20
-242.834960
 11
30.000000
 21
-216.834960
  0
LINE
  8
A-DIMS-2
 10
27.000000
 20
-218.334960
 11
30.000000
 21
-219.834960
  0
LINE
  8
A-DIMS-2
 10
33.000000
 20
-221.334960
 11
30.000000
 21
-219.834960
  0
LINE
  8
A-DIMS-2
 10
51.346149
 20
-219.834960
 11
56.000000
 21
-219.834960
  0
LINE
  8
A-DIMS-2
 10
34.653851
 20
-219.834960
 11
30.000000
 21
-219.834960
  0
TEXT
  8
A-DIMS-2
 10
37.421512
 20
-222.491383
 40
5.558566
  1
2'2
  7
STANDARD
  0
LINE
  8
A-DIMS-2
 10
-70.000000
 20
-242.834960
 11
-70.000000
 21
-216.834960
  0
LINE
  8
A-DIMS-2
 10
-73.000000
 20
-218.334960
 11
-70.000000
 21
-219.834960
  0
LINE
  8
A-DIMS-2
 10
-67.000000
 20
-221.334960
 11
-70.000000
 21
-219.834960
  0
LINE
  8
A-DIMS-2
 10
-11.653851
 20
-219.834960
 11
30.000000
 21
-219.834960
  0
LINE
  8
A-DIMS-2
 10
-28.346149
 20
-219.834960
 11
-70.000000
 21
-219.834960
  0
TEXT
  8
A-DIMS-2
 10
-25.578488
 20
-222.491383
 40
5.558566
  1
8'4
  7
STANDARD
  0
LINE
  8
A-DIMS-2
 10
-100.000000
 20
-251.834960
 11
-100.000000
 21
-216.834960
  0
LINE
  8
A-DIMS-2
 10
-103.000000
 20
-218.334960
 11
-100.000000
 21
-219.834960
  0
LINE
  8
A-DIMS-2
 10
-97.000000
 20
-221.334960
 11
-100.000000
 21
-219.834960
  0
LINE
  8
A-DIMS-2
 10
-76.653851
 20
-219.834960
 11
-70.000000
 21
-219.834960
  0
LINE
  8
A-DIMS-2
 10
-93.346149
 20
-219.834960
 11
-100.000000
 21
-219.834960
  0
TEXT
  8
A-DIMS-2
 10
-90.578488
 20
-222.491383
 40
5.558566
  1
2'6
  7
STANDARD
  0
LINE
  8
A-DIMS-2
 10
-158.000000
 20
-242.834960
 11
-158.000000
 21
-216.834960
  0
LINE
  8
A-DIMS-2
 10
-161.000000
 20
-218.334960
 11
-158.000000
 21
-219.834960
  0
LINE
  8
A-DIMS-2
 10
-155.000000
 20
-221.334960
 11
-158.000000
 21
-219.834960
  0
LINE
  8
A-DIMS-2
 10
-118.263070
 20
-219.834960
 11
-100.000000
 21
-219.834960
  0
LINE
  8
A-DIMS-2
 10
-139.736930
 20
-219.834960
 11
-158.000000
 21
-219.834960
  0
TEXT
  8
A-DIMS-2
 10
-136.969269
 20
-222.491383
 40
5.558566
  1
4'10
  7
STANDARD
  0
LINE
  8
A-DIMS-2
 10
-192.000000
 20
-242.834960
 11
-192.000000
 21
-216.834960
  0
LINE
  8
A-DIMS-2
 10
-195.000000
 20
-218.334960
 11
-192.000000
 21
-219.834960
  0
LINE
  8
A-DIMS-2
 10
-189.000000
 20
-221.334960
 11
-192.000000
 21
-219.834960
  0
LINE
  8
A-DIMS-2
 10
-164.263070
 20
-219.834960
 11
-158.000000
 21
-219.834960
  0
LINE
  8
A-DIMS-2
 10
-185.736930
 20
-219.834960
 11
-192.000000
 21
-219.834960
  0
TEXT
  8
A-DIMS-2
 10
-182.969269
 20
-222.491383
 40
5.558566
  1
2'10
  7
STANDARD
  0
LINE
  8
A-DIMS-2
 10
-226.000000
 20
-242.834960
 11
-226.000000
 21
-216.834960
  0
LINE
  8
A-DIMS-2
 10
-229.000000
 20
-218.334960
 11
-226.000000
 21
-219.834960
  0
LINE
  8
A-DIMS-2
 10
-223.000000
 20
-221.334960
 11
-226.000000
 21
-219.834960
  0
LINE
  8
A-DIMS-2
 10
-198.263070
 20
-219.834960
 11
-192.000000
 21
-219.834960
  0
LINE
  8
A-DIMS-2
 10
-219.736930
 20
-219.834960
 11
-226.000000
 21
-219.834960
  0
TEXT
  8
A-DIMS-2
 10
-216.969269
 20
-222.491383
 40
5.558566
  1
2'10
  7
STANDARD
  0
LINE
  8
A-DIMS-2
 10
-274.000000
 20
-251.834960
 11
-274.000000
 21
-216.834960
  0
LINE
  8
A-DIMS-2
 10
-271.000000
 20
-221.334960
 11
-274.000000
 21
-219.834960
  0
LINE
  8
A-DIMS-2
 10
-244.044632
 20
-219.834960
 11
-226.000000
 21
-219.834960
  0
LINE
  8
A-DIMS-2
 10
-255.955368
 20
-219.834960
 11
-274.000000
 21
-219.834960
  0
TEXT
  8
A-DIMS-2
 10
-253.187708
 20
-222.491383
 40
5.558566
  1
4'
  7
STANDARD
  0
LINE
  8
A-DIMS-2
 10
230.000000
 20
-251.834960
 11
230.000000
 21
-216.834960
  0
LINE
  8
A-DIMS-2
 10
227.000000
 20
-218.334960
 11
230.000000
 21
-219.834960
  0
LINE
  8
A-DIMS-2
 10
204.000000
 20
-242.834960
 11
204.000000
 21
-216.834960
  0
LINE
  8
A-DIMS-2
 10
201.000000
 20
-218.334960
 11
204.000000
 21
-219.834960
  0
LINE
  8
A-DIMS-2
 10
207.000000
 20
-221.334960
 11
204.000000
 21
-219.834960
  0
LINE
  8
A-DIMS-2
 10
225.346149
 20
-219.834960
 11
230.000000
 21
-219.834960
  0
LINE
  8
A-DIMS-2
 10
208.653851
 20
-219.834960
 11
204.000000
 21
-219.834960
  0
TEXT
  8
A-DIMS-2
 10
211.421512
 20
-222.491383
 40
5.558566
  1
2'2
  7
STANDARD
  0
LINE
  8
A-DIMS-2
 10
96.000000
 20
-251.834960
 11
96.000000
 21
-216.834960
  0
LINE
  8
A-DIMS-2
 10
99.000000
 20
-221.334960
 11
96.000000
 21
-219.834960
  0
LINE
  8
A-DIMS-2
 10
155.955368
 20
-219.834960
 11
204.000000
 21
-219.834960
  0
LINE
  8
A-DIMS-2
 10
144.044632
 20
-219.834960
 11
96.000000
 21
-219.834960
  0
TEXT
  8
A-DIMS-2
 10
146.812292
 20
-222.491383
 40
5.558566
  1
9'
  7
STANDARD
  0
LINE
  8
A-DIMS-2
 10
-332.676947
 20
-255.000000
 11
-348.676947
 21
-255.000000
  0
LINE
  8
A-DIMS-2
 10
-347.176947
 20
-258.000000
 11
-345.676947
 21
-255.000000
  0
LINE
  8
A-DIMS-2
 10
-332.676947
 20
-775.000000
 11
-348.676947
 21
-775.000000
  0
LINE
  8
A-DIMS-2
 10
-344.176947
 20
-772.000000
 11
-345.676947
 21
-775.000000
  0
LINE
  8
A-DIMS-2
 10
-345.676947
 20
-504.263070
 11
-345.676947
 21
-255.000000
  0
LINE
  8
A-DIMS-2
 10
-345.676947
 20
-525.736930
 11
-345.676947
 21
-775.000000
  0
TEXT
  8
A-DIMS-2
 10
-343.020524
 20
-522.969269
 40
5.558566
  1
43'4
 50
90.000000
  7
STANDARD
  0
LINE
  8
A-DIMS-2
 10
-314.676947
 20
-255.000000
 11
-330.676947
 21
-255.000000
  0
LINE
  8
A-DIMS-2
 10
-329.176947
 20
-258.000000
 11
-327.676947
 21
-255.000000
  0
LINE
  8
A-DIMS-2
 10
-314.676947
 20
-470.000000
 11
-330.676947
 21
-470.000000
  0
LINE
  8
A-DIMS-2
 10
-329.176947
 20
-473.000000
 11
-327.676947
 21
-470.000000
  0
LINE
  8
A-DIMS-2
 10
-326.176947
 20
-467.000000
 11
-327.676947
 21
-470.000000
  0
LINE
  8
A-DIMS-2
 10
-327.676947
 20
-349.372290
 11
-327.676947
 21
-255.000000
  0
LINE
  8
A-DIMS-2
 10
-327.676947
 20
-375.627710
 11
-327.676947
 21
-470.000000
  0
TEXT
  8
A-DIMS-2
 10
-325.020524
 20
-372.860050
 40
5.558566
  1
17'11
 50
90.000000
  7
STANDARD
  0
LINE
  8
A-DIMS-2
 10
-277.676947
 20
-609.000000
 11
-330.676947
 21
-609.000000
  0
LINE
  8
A-DIMS-2
 10
-329.176947
 20
-612.000000
 11
-327.676947
 21
-609.000000
  0
LINE
  8
A-DIMS-2
 10
-326.176947
 20
-606.000000
 11
-327.676947
 21
-609.000000
  0
LINE
  8
A-DIMS-2
 10
-327.676947
 20
-528.763070
 11
-327.676947
 21
-470.000000
  0
LINE
  8
A-DIMS-2
 10
-327.676947
 20
-550.236930
 11
-327.676947
 21
-609.000000
  0
TEXT
  8
A-DIMS-2
 10
-325.020524
 20
-547.469269
 40
5.558566
  1
11'7
 50
90.000000
  7
STANDARD
  0
LINE
  8
A-DIMS-2
 10
-207.676947
 20
-775.000000
 11
-330.676947
 21
-775.000000
  0
LINE
  8
A-DIMS-2
 10
-326.176947
 20
-772.000000
 11
-327.676947
 21
-775.000000
  0
LINE
  8
A-DIMS-2
 10
-327.676947
 20
-678.872290
 11
-327.676947
 21
-609.000000
  0
LINE
  8
A-DIMS-2
 10
-327.676947
 20
-705.127710
 11
-327.676947
 21
-775.000000
  0
TEXT
  8
A-DIMS-2
 10
-325.020524
 20
-702.360050
 40
5.558566
  1
13'10
 50
90.000000
  7
STANDARD
  0
LINE
  8
A-DIMS-2
 10
-277.676947
 20
-255.000000
 11
-312.676947
 21
-255.000000
  0
LINE
  8
A-DIMS-2
 10
-311.176947
 20
-258.000000
 11
-309.676947
 21
-255.000000
  0
LINE
  8
A-DIMS-2
 10
-286.676947
 20
-296.000000
 11
-312.676947
 21
-296.000000
  0
LINE
  8
A-DIMS-2
 10
-311.176947
 20
-299.000000
 11
-309.676947
 21
-296.000000
  0
LINE
  8
A-DIMS-2
 10
-308.176947
 20
-293.000000
 11
-309.676947
 21
-296.000000
  0
LINE
  8
A-DIMS-2
 10
-309.676947
 20
-267.153851
 11
-309.676947
 21
-255.000000
  0
LINE
  8
A-DIMS-2
 10
-309.676947
 20
-283.846149
 11
-309.676947
 21
-296.000000
  0
TEXT
  8
A-DIMS-2
 10
-307.020524
 20
-281.078488
 40
5.558566
  1
3'5
 50
90.000000
  7
STANDARD
  0
LINE
  8
A-DIMS-2
 10
-286.676947
 20
-432.000000
 11
-312.676947
 21
-432.000000
  0
LINE
  8
A-DIMS-2
 10
-311.176947
 20
-435.000000
 11
-309.676947
 21
-432.000000
  0
LINE
  8
A-DIMS-2
 10
-308.176947
 20
-429.000000
 11
-309.676947
 21
-432.000000
  0
LINE
  8
A-DIMS-2
 10
-309.676947
 20
-353.263070
 11
-309.676947
 21
-296.000000
  0
LINE
  8
A-DIMS-2
 10
-309.676947
 20
-374.736930
 11
-309.676947
 21
-432.000000
  0
TEXT
  8
A-DIMS-2
 10
-307.020524
 20
-371.969269
 40
5.558566
  1
11'4
 50
90.000000
  7
STANDARD
  0
LINE
  8
A-DIMS-2
 10
-277.676947
 20
-470.000000
 11
-312.676947
 21
-470.000000
  0
LINE
  8
A-DIMS-2
 10
-308.176947
 20
-467.000000
 11
-309.676947
 21
-470.000000
  0
LINE
  8
A-DIMS-2
 10
-309.676947
 20
-442.653851
 11
-309.676947
 21
-432.000000
  0
LINE
  8
A-DIMS-2
 10
-309.676947
 20
-459.346149
 11
-309.676947
 21
-470.000000
  0
TEXT
  8
A-DIMS-2
 10
-307.020524
 20
-456.578488
 40
5.558566
  1
3'2
 50
90.000000
  7
STANDARD
  0
LINE
  8
A-DIMS-2
 10
-95.000000
 20
-470.752275
 11
-98.000000
 21
-469.252275
  0
LINE
  8
A-DIMS-2
 10
-39.000000
 20
-467.752275
 11
-36.000000
 21
-469.252275
  0
LINE
  8
A-DIMS-2
 10
-75.346149
 20
-469.252275
 11
-98.000000
 21
-469.252275
  0
LINE
  8
A-DIMS-2
 10
-58.653851
 20
-469.252275
 11
-36.000000
 21
-469.252275
  0
TEXT
  8
A-DIMS-2
 10
-72.578488
 20
-471.908698
 40
5.558566
  1
5'2
  7
STANDARD
  0
LINE
  8
A-DIMS-2
 10
-122.093997
 20
-475.000000
 11
-120.593997
 21
-472.000000
  0
LINE
  8
A-DIMS-2
 10
-119.093997
 20
-517.045982
 11
-120.593997
 21
-520.045982
  0
LINE
  8
A-DIMS-2
 10
-120.593997
 20
-490.067623
 11
-120.593997
 21
-472.000000
  0
LINE
  8
A-DIMS-2
 10
-120.593997
 20
-501.978360
 11
-120.593997
 21
-520.045982
  0
TEXT
  8
A-DIMS-2
 10
-117.937574
 20
-499.210699
 40
5.558566
  1
4'
 50
90.000000
  7
STANDARD
  0
LINE
  8
A-DIMS-2
 10
17.000000
 20
-536.846990
 11
14.000000
 21
-535.346990
  0
LINE
  8
A-DIMS-2
 10
51.000000
 20
-533.846990
 11
54.000000
 21
-535.346990
  0
LINE
  8
A-DIMS-2
 10
25.653851
 20
-535.346990
 11
14.000000
 21
-535.346990
  0
LINE
  8
A-DIMS-2
 10
42.346149
 20
-535.346990
 11
54.000000
 21
-535.346990
  0
TEXT
  8
A-DIMS-2
 10
28.421512
 20
-538.003413
 40
5.558566
  1
3'4
  7
STANDARD
  0
LINE
  8
A-DIMS-2
 10
-125.000000
 20
-548.709616
 11
-122.000000
 21
-550.209616
  0
LINE
  8
A-DIMS-2
 10
-167.000000
 20
-551.709616
 11
-170.000000
 21
-550.209616
  0
LINE
  8
A-DIMS-2
 10
-140.044632
 20
-550.209616
 11
-122.000000
 21
-550.209616
  0
LINE
  8
A-DIMS-2
 10
-151.955368
 20
-550.209616
 11
-170.000000
 21
-550.209616
  0
TEXT
  8
A-DIMS-2
 10
-149.187708
 20
-552.866040
 40
5.558566
  1
4'
  7
STANDARD
  0
ENDSEC
  0
EOF
