  0
SECTION
  2
HEADER
  9
$ACADVER
  1
AC1006
  9
$EXTMIN
 10
-713.618873
 20
-939.547054
  9
$EXTMAX
 10
622.387086
 20
-15.138890
  9
$ANGDIR
 70
   0
  9
$LUNITS
 70
   2
  0
ENDSEC
  0
SECTION
  2
TABLES
  0
TABLE
  2
LTYPE
 70
   3
  0
LTYPE
  2
CONTINUOUS
 70
64
  3
SOLID LINE
 72
65
 73
0
 40
0.
  0
LTYPE
  2
DASHED
 70
64
  3
DASHED LINE
 72
65
 73
2
 40
8.
 49
5.
 49
-3.
  0
LTYPE
  2
DOTTED
 70
64
  3
DOTTED LINE
 72
65
 73
2
 40
4.
 49
2.
 49
-2.
  0
ENDTAB
  0
TABLE
  2
LAYER
 70
   15
  0
LAYER
  2
A-WALL-1
 70
64
 62
   7
  6
CONTINUOUS
  0
LAYER
  2
A-CASE-1
 70
64
 62
   7
  6
CONTINUOUS
  0
LAYER
  2
A-DIMS-1
 70
64
 62
   7
  6
CONTINUOUS
  0
LAYER
  2
A-POWR-1
 70
64
 62
   7
  6
CONTINUOUS
  0
LAYER
  2
A-NOTE-1
 70
64
 62
   7
  6
CONTINUOUS
  0
LAYER
  2
A-TEXT-1
 70
64
 62
   7
  6
CONTINUOUS
  0
LAYER
  2
A-FURN-1
 70
64
 62
   7
  6
CONTINUOUS
  0
LAYER
  2
A-GLAZ-1
 70
64
 62
   7
  6
CONTINUOUS
  0
LAYER
  2
A-STAR-1
 70
64
 62
   7
  6
CONTINUOUS
  0
LAYER
  2
A-ROOF-1
 70
64
 62
   7
  6
CONTINUOUS
  0
LAYER
  2
A-C000-1
 70
64
 62
   7
  6
CONTINUOUS
  0
ENDTAB
  0
ENDSEC
  0
SECTION
  2
BLOCKS
  0
BLOCK
  8
A-CASE-1
  2
FIXT-Toilet
 70
64
 10
0.0
 20
0.0
  0
ARC
  8
A-CASE-1
 10
9.046126
 20
27.780609
 40
1.431891
 50
0.000000
 51
90.000000
  0
LINE
  8
A-CASE-1
 10
9.046126
 20
29.212500
 11
-9.046126
 21
29.212500
  0
ARC
  8
A-CASE-1
 10
-9.046126
 20
27.780609
 40
1.431891
 50
90.000000
 51
180.000000
  0
LINE
  8
A-CASE-1
 10
-10.478017
 20
27.780609
 11
-10.478017
 21
21.731952
  0
ARC
  8
A-CASE-1
 10
-9.046126
 20
21.731952
 40
1.431891
 50
180.000000
 51
270.000000
  0
LINE
  8
A-CASE-1
 10
-9.046126
 20
20.300061
 11
9.046126
 21
20.300061
  0
ARC
  8
A-CASE-1
 10
9.046126
 20
21.731952
 40
1.431891
 50
270.000000
 51
0.000000
  0
LINE
  8
A-CASE-1
 10
10.478017
 20
21.731952
 11
10.478017
 21
27.780609
  0
ARC
  8
A-CASE-1
 10
0.029649
 20
13.174761
 40
6.001594
 50
38.796550
 51
141.203450
  0
ARC
  8
A-CASE-1
 10
0.029649
 20
7.965448
 40
6.001594
 50
218.796550
 51
321.203450
  0
ARC
  8
A-CASE-1
 10
3.269587
 20
10.570105
 40
10.158689
 50
141.203449
 51
218.796551
  0
ARC
  8
A-CASE-1
 10
-3.210289
 20
10.570105
 40
10.158689
 50
321.203449
 51
38.796551
  0
ENDBLK
  0
BLOCK
  8
A-CASE-1
  2
FIXT-OvalFree
 70
64
 10
0.0
 20
0.0
  0
ARC
  8
A-CASE-1
 10
11.460326
 20
0.470522
 40
3.539272
 50
270.000000
 51
14.999997
  0
ARC
  8
A-CASE-1
 10
-11.460326
 20
0.470522
 40
3.539272
 50
165.000003
 51
270.000000
  0
LINE
  8
A-CASE-1
 10
11.460326
 20
-3.068750
 11
-11.460326
 21
-3.068750
  0
ARC
  8
A-CASE-1
 10
-8.247561
 20
12.460728
 40
3.539272
 50
90.000000
 51
165.000003
  0
LINE
  8
A-CASE-1
 10
-14.879001
 20
1.386553
 11
-11.666235
 21
13.376759
  0
ARC
  8
A-CASE-1
 10
8.247561
 20
12.460728
 40
3.539272
 50
14.999997
 51
90.000000
  0
LINE
  8
A-CASE-1
 10
-8.247561
 20
16.000000
 11
8.247561
 21
16.000000
  0
LINE
  8
A-CASE-1
 10
11.666235
 20
13.376759
 11
14.879001
 21
1.386553
  0
ARC
  8
A-CASE-1
 10
-3.168259
 20
6.212500
 40
5.846813
 50
127.551279
 51
232.448716
  0
ARC
  8
A-CASE-1
 10
3.138114
 20
6.212500
 40
5.846813
 50
307.551284
 51
52.448721
  0
ARC
  8
A-CASE-1
 10
-0.015072
 20
10.314206
 40
11.020456
 50
232.448718
 51
307.551282
  0
ARC
  8
A-CASE-1
 10
-0.015072
 20
2.110794
 40
11.020456
 50
52.448718
 51
127.551282
  0
CIRCLE
  8
A-CASE-1
 10
-0.015072
 20
8.659375
 40
0.646875
  0
CIRCLE
  8
A-CASE-1
 10
-0.015072
 20
8.659375
 40
1.040625
  0
ARC
  8
A-CASE-1
 10
2.271533
 20
14.545980
 40
0.835270
 50
0.000000
 51
90.000000
  0
LINE
  8
A-CASE-1
 10
2.271533
 20
15.381250
 11
-2.414177
 21
15.381250
  0
ARC
  8
A-CASE-1
 10
-2.414177
 20
14.545980
 40
0.835270
 50
90.000000
 51
180.000000
  0
LINE
  8
A-CASE-1
 10
-3.249447
 20
14.545980
 11
-3.249447
 21
14.585270
  0
ARC
  8
A-CASE-1
 10
-2.414177
 20
14.585270
 40
0.835270
 50
180.000000
 51
270.000000
  0
LINE
  8
A-CASE-1
 10
-2.414177
 20
13.750000
 11
2.271533
 21
13.750000
  0
ARC
  8
A-CASE-1
 10
2.271533
 20
14.585270
 40
0.835270
 50
270.000000
 51
0.000000
  0
LINE
  8
A-CASE-1
 10
3.106803
 20
14.585270
 11
3.106803
 21
14.545980
  0
ENDBLK
  0
BLOCK
  8
A-CASE-1
  2
FIXT-fire3618
 70
64
 10
0.0
 20
0.0
  0
LINE
  8
A-CASE-1
 10
29.948162
 20
-6.079029
 11
29.948162
 21
-24.979031
  0
LINE
  8
A-CASE-1
 10
29.948162
 20
-24.979031
 11
-29.948162
 21
-24.979031
  0
LINE
  8
A-CASE-1
 10
-29.948162
 20
-24.979031
 11
-29.948162
 21
-6.079029
  0
LINE
  8
A-CASE-1
 10
6.591125
 20
11.525184
 11
-6.587155
 21
11.525184
  0
LINE
  8
A-CASE-1
 10
-6.587155
 20
11.525184
 11
-6.587155
 21
-1.653096
  0
LINE
  8
A-CASE-1
 10
-6.587155
 20
-1.653096
 11
6.591125
 21
-1.653096
  0
LINE
  8
A-CASE-1
 10
6.591125
 20
-1.653096
 11
6.591125
 21
11.525184
  0
LINE
  8
A-CASE-1
 10
-17.736944
 20
-5.384176
 11
17.843761
 21
-5.384176
  0
CIRCLE
  8
A-CASE-1
 10
0.001985
 20
5.075015
 40
5.945351
  0
LINE
  8
A-CASE-1
 10
18.029947
 20
-6.079029
 11
13.185582
 21
12.000382
  0
LINE
  8
A-CASE-1
 10
13.185582
 20
12.000382
 11
-13.078766
 21
12.000382
  0
LINE
  8
A-CASE-1
 10
-13.078766
 20
12.000382
 11
-17.923130
 21
-6.079029
  0
LINE
  8
A-CASE-1
 10
-17.923130
 20
-6.079029
 11
18.029947
 21
-6.079029
  0
ENDBLK
  0
BLOCK
  8
A-FURN-1
  2
FIXT-shelf4
 70
64
 10
0.0
 20
0.0
  0
LINE
  8
A-FURN-1
 10
23.873684
 20
12.000000
 11
23.873684
 21
0.063158
  0
LINE
  8
A-FURN-1
 10
23.873684
 20
0.063158
 11
-23.873684
 21
0.063158
  0
LINE
  8
A-FURN-1
 10
-23.873684
 20
0.063158
 11
-23.873684
 21
12.000000
  0
LINE
  8
A-FURN-1
 10
-23.873684
 20
12.000000
 11
23.873684
 21
12.000000
  0
ENDBLK
  0
BLOCK
  8
A-FURN-1
  2
FIXT-book1230
 70
64
 10
0.0
 20
0.0
  0
LINE
  8
A-FURN-1
 10
14.997981
 20
6.000000
 11
-14.997981
 21
6.000000
  0
LINE
  8
A-FURN-1
 10
-14.997981
 20
6.000000
 11
-14.997981
 21
-5.975568
  0
LINE
  8
A-FURN-1
 10
-14.997981
 20
-5.975568
 11
14.997981
 21
-5.975568
  0
LINE
  8
A-FURN-1
 10
14.997981
 20
-5.975568
 11
14.997981
 21
6.000000
  0
ENDBLK
  0
BLOCK
  8
A-POWR-1
  2
FIXT-GFI_Out
 70
64
 10
0.0
 20
0.0
  0
CIRCLE
  8
A-POWR-1
 10
-0.006993
 20
-5.734540
 40
3.254864
  0
LINE
  8
A-POWR-1
 10
-1.973961
 20
-8.380580
 11
-1.973961
 21
-0.000000
  0
LINE
  8
A-POWR-1
 10
2.006808
 20
-8.286915
 11
2.006808
 21
-0.000000
  0
TEXT
  8
A-POWR-1
 10
-2.379277
 20
-15.525119
 40
2.277283
  1
GFI
  7
STANDARD
  0
ENDBLK
  0
BLOCK
  8
A-POWR-1
  2
FIXT-WP_Out
 70
64
 10
0.0
 20
0.0
  0
CIRCLE
  8
A-POWR-1
 10
-0.006993
 20
-5.734540
 40
3.254864
  0
LINE
  8
A-POWR-1
 10
-1.973961
 20
-8.380580
 11
-1.973961
 21
-0.000000
  0
LINE
  8
A-POWR-1
 10
2.006808
 20
-8.286915
 11
2.006808
 21
-0.000000
  0
TEXT
  8
A-POWR-1
 10
-2.422809
 20
-15.525119
 40
2.277283
  1
WP
  7
STANDARD
  0
ENDBLK
  0
BLOCK
  8
A-POWR-1
  2
FIXT-3_Way
 70
64
 10
0.0
 20
0.0
  0
LINE
  8
A-POWR-1
 10
1.506088
 20
-2.396511
 11
-2.053707
 21
-2.396511
  0
ARC
  8
A-POWR-1
 10
-2.053707
 20
-4.016987
 40
1.620476
 50
90.000000
 51
181.041633
  0
ARC
  8
A-POWR-1
 10
-1.993710
 20
-4.015897
 40
1.680484
 50
181.041622
 51
270.000000
  0
LINE
  8
A-POWR-1
 10
-1.993710
 20
-5.696380
 11
-0.263288
 21
-5.696380
  0
ARC
  8
A-POWR-1
 10
-0.173292
 20
-7.420123
 40
1.636124
 50
270.000000
 51
1.534338
  0
ARC
  8
A-POWR-1
 10
-0.263288
 20
-7.422534
 40
1.726153
 50
1.534347
 51
90.000000
  0
LINE
  8
A-POWR-1
 10
-0.173292
 20
-9.056247
 11
-3.662938
 21
-9.056247
  0
LINE
  8
A-POWR-1
 10
-1.156680
 20
-0.026605
 11
-1.156680
 21
-11.036168
  0
TEXT
  8
A-POWR-1
 10
0.392856
 20
-14.424207
 40
2.732740
  1
3
  7
STANDARD
  0
ENDBLK
  0
BLOCK
  8
A-POWR-1
  2
FIXT-4_Way
 70
64
 10
0.0
 20
0.0
  0
LINE
  8
A-POWR-1
 10
1.506088
 20
-2.396511
 11
-2.053707
 21
-2.396511
  0
ARC
  8
A-POWR-1
 10
-2.053707
 20
-4.016987
 40
1.620476
 50
90.000000
 51
181.041633
  0
ARC
  8
A-POWR-1
 10
-1.993710
 20
-4.015897
 40
1.680484
 50
181.041622
 51
270.000000
  0
LINE
  8
A-POWR-1
 10
-1.993710
 20
-5.696380
 11
-0.263288
 21
-5.696380
  0
ARC
  8
A-POWR-1
 10
-0.173292
 20
-7.420123
 40
1.636124
 50
270.000000
 51
1.534338
  0
ARC
  8
A-POWR-1
 10
-0.263288
 20
-7.422534
 40
1.726153
 50
1.534347
 51
90.000000
  0
LINE
  8
A-POWR-1
 10
-0.173292
 20
-9.056247
 11
-3.662938
 21
-9.056247
  0
LINE
  8
A-POWR-1
 10
-1.156680
 20
-0.026605
 11
-1.156680
 21
-11.036168
  0
TEXT
  8
A-POWR-1
 10
0.392856
 20
-14.424207
 40
2.732740
  1
4
  7
STANDARD
  0
ENDBLK
  0
BLOCK
  8
A-POWR-1
  2
FIXT-5_Way
 70
64
 10
0.0
 20
0.0
  0
LINE
  8
A-POWR-1
 10
1.506088
 20
-2.396511
 11
-2.053707
 21
-2.396511
  0
ARC
  8
A-POWR-1
 10
-2.053707
 20
-4.016987
 40
1.620476
 50
90.000000
 51
181.041633
  0
ARC
  8
A-POWR-1
 10
-1.993710
 20
-4.015897
 40
1.680484
 50
181.041622
 51
270.000000
  0
LINE
  8
A-POWR-1
 10
-1.993710
 20
-5.696380
 11
-0.263288
 21
-5.696380
  0
ARC
  8
A-POWR-1
 10
-0.173292
 20
-7.420123
 40
1.636124
 50
270.000000
 51
1.534338
  0
ARC
  8
A-POWR-1
 10
-0.263288
 20
-7.422534
 40
1.726153
 50
1.534347
 51
90.000000
  0
LINE
  8
A-POWR-1
 10
-0.173292
 20
-9.056247
 11
-3.662938
 21
-9.056247
  0
LINE
  8
A-POWR-1
 10
-1.156680
 20
-0.026605
 11
-1.156680
 21
-11.036168
  0
TEXT
  8
A-POWR-1
 10
0.392856
 20
-14.424207
 40
2.732740
  1
5
  7
STANDARD
  0
ENDBLK
  0
ENDSEC
  0
SECTION
  2
ENTITIES
  0
LINE
  8
A-WALL-1
 10
-270.000000
 20
-280.000000
 11
-270.000000
 21
-259.000000
  0
LINE
  8
A-WALL-1
 10
-274.000000
 20
-255.000000
 11
-274.000000
 21
-280.000000
  0
LINE
  8
A-WALL-1
 10
-270.000000
 20
-416.000000
 11
-270.000000
 21
-312.000000
  0
LINE
  8
A-WALL-1
 10
-274.000000
 20
-312.000000
 11
-274.000000
 21
-416.000000
  0
LINE
  8
A-WALL-1
 10
-270.000000
 20
-468.000000
 11
-270.000000
 21
-448.000000
  0
LINE
  8
A-WALL-1
 10
-274.000000
 20
-448.000000
 11
-274.000000
 21
-470.000000
  0
LINE
  8
A-GLAZ-1
 10
-274.000000
 20
-280.000000
 11
-270.000000
 21
-280.000000
  0
LINE
  8
A-GLAZ-1
 10
-270.000000
 20
-312.000000
 11
-274.000000
 21
-312.000000
  0
LINE
  8
A-GLAZ-1
 10
-270.000000
 20
-312.000000
 11
-270.000000
 21
-280.000000
  0
LINE
  8
A-GLAZ-1
 10
-274.000000
 20
-280.000000
 11
-274.000000
 21
-312.000000
  0
LINE
  8
A-GLAZ-1
 10
-272.000000
 20
-280.000000
 11
-272.000000
 21
-312.000000
  0
TEXT
  8
A-DIMS-1
 10
-278.448691
 20
-305.402974
 40
5.465479
  1
2862
 50
90.000000
  7
STANDARD
  0
LINE
  8
A-GLAZ-1
 10
-274.000000
 20
-416.000000
 11
-270.000000
 21
-416.000000
  0
LINE
  8
A-GLAZ-1
 10
-270.000000
 20
-448.000000
 11
-274.000000
 21
-448.000000
  0
LINE
  8
A-GLAZ-1
 10
-270.000000
 20
-448.000000
 11
-270.000000
 21
-416.000000
  0
LINE
  8
A-GLAZ-1
 10
-274.000000
 20
-416.000000
 11
-274.000000
 21
-448.000000
  0
LINE
  8
A-GLAZ-1
 10
-272.000000
 20
-416.000000
 11
-272.000000
 21
-448.000000
  0
TEXT
  8
A-DIMS-1
 10
-278.448691
 20
-441.402974
 40
5.465479
  1
2862
 50
90.000000
  7
STANDARD
  0
LINE
  8
A-WALL-1
 10
-268.000000
 20
-521.000000
 11
-268.000000
 21
-472.000000
  0
LINE
  8
A-WALL-1
 10
-274.000000
 20
-470.000000
 11
-274.000000
 21
-521.000000
  0
LINE
  8
A-WALL-1
 10
-268.000000
 20
-603.000000
 11
-268.000000
 21
-557.000000
  0
LINE
  8
A-WALL-1
 10
-274.000000
 20
-557.000000
 11
-274.000000
 21
-605.000000
  0
LINE
  8
A-GLAZ-1
 10
-274.000000
 20
-521.000000
 11
-268.000000
 21
-521.000000
  0
LINE
  8
A-GLAZ-1
 10
-268.000000
 20
-557.000000
 11
-274.000000
 21
-557.000000
  0
LINE
  8
A-GLAZ-1
 10
-268.000000
 20
-557.000000
 11
-268.000000
 21
-521.000000
  0
LINE
  8
A-GLAZ-1
 10
-274.000000
 20
-521.000000
 11
-274.000000
 21
-557.000000
  0
LINE
  8
A-GLAZ-1
 10
-271.000000
 20
-521.000000
 11
-271.000000
 21
-557.000000
  0
TEXT
  8
A-DIMS-1
 10
-278.448691
 20
-550.753718
 40
5.465479
  1
30610
 50
90.000000
  7
STANDARD
  0
LINE
  8
A-WALL-1
 10
-174.000000
 20
-639.172791
 11
-210.172806
 21
-603.000000
  0
LINE
  8
A-WALL-1
 10
-209.829651
 20
-609.000000
 11
-178.000000
 21
-640.829651
  0
LINE
  8
A-WALL-1
 10
78.000000
 20
-839.000000
 11
102.000000
 21
-839.000000
  0
LINE
  8
A-WALL-1
 10
98.000000
 20
-835.000000
 11
78.000000
 21
-835.000000
  0
LINE
  8
A-WALL-1
 10
-42.000000
 20
-839.000000
 11
-18.000000
 21
-839.000000
  0
LINE
  8
A-WALL-1
 10
-18.000000
 20
-835.000000
 11
-38.000000
 21
-835.000000
  0
LINE
  8
A-GLAZ-1
 10
78.000000
 20
-839.000000
 11
78.000000
 21
-835.000000
  0
LINE
  8
A-GLAZ-1
 10
-18.000000
 20
-839.000000
 11
-18.000000
 21
-835.000000
  0
LINE
  8
A-GLAZ-1
  6
DASHED
 10
78.000000
 20
-835.000000
 11
-18.000000
 21
-835.000000
  0
LINE
  8
A-GLAZ-1
  6
DASHED
 10
78.000000
 20
-758.920000
 11
-18.000000
 21
-758.920000
  0
LINE
  8
A-GLAZ-1
  6
DASHED
 10
78.000000
 20
-835.000000
 11
78.000000
 21
-758.920000
  0
LINE
  8
A-GLAZ-1
  6
DASHED
 10
-18.000000
 20
-835.000000
 11
-18.000000
 21
-758.920000
  0
LINE
  8
A-GLAZ-1
 10
78.000000
 20
-839.000000
 11
-18.000000
 21
-839.000000
  0
TEXT
  8
A-DIMS-1
 10
20.597026
 20
-848.672567
 40
5.465479
  1
8070
  7
STANDARD
  0
LINE
  8
A-WALL-1
 10
98.000000
 20
-807.000000
 11
98.000000
 21
-835.000000
  0
LINE
  8
A-WALL-1
 10
102.000000
 20
-839.000000
 11
102.000000
 21
-811.000000
  0
LINE
  8
A-WALL-1
 10
212.000000
 20
-811.000000
 11
230.000000
 21
-811.000000
  0
LINE
  8
A-WALL-1
 10
226.000000
 20
-807.000000
 11
212.000000
 21
-807.000000
  0
LINE
  8
A-WALL-1
 10
102.000000
 20
-811.000000
 11
116.000000
 21
-811.000000
  0
LINE
  8
A-WALL-1
 10
116.000000
 20
-807.000000
 11
98.000000
 21
-807.000000
  0
LINE
  8
A-GLAZ-1
 10
212.000000
 20
-811.000000
 11
212.000000
 21
-807.000000
  0
LINE
  8
A-GLAZ-1
 10
116.000000
 20
-811.000000
 11
116.000000
 21
-807.000000
  0
LINE
  8
A-GLAZ-1
  6
DASHED
 10
212.000000
 20
-807.000000
 11
116.000000
 21
-807.000000
  0
LINE
  8
A-GLAZ-1
  6
DASHED
 10
212.000000
 20
-730.920000
 11
116.000000
 21
-730.920000
  0
LINE
  8
A-GLAZ-1
  6
DASHED
 10
212.000000
 20
-807.000000
 11
212.000000
 21
-730.920000
  0
LINE
  8
A-GLAZ-1
  6
DASHED
 10
116.000000
 20
-807.000000
 11
116.000000
 21
-730.920000
  0
LINE
  8
A-GLAZ-1
 10
212.000000
 20
-811.000000
 11
116.000000
 21
-811.000000
  0
TEXT
  8
A-DIMS-1
 10
154.597026
 20
-820.672567
 40
5.465479
  1
8070
  7
STANDARD
  0
LINE
  8
A-WALL-1
 10
226.000000
 20
-259.000000
 11
226.000000
 21
-415.000000
  0
LINE
  8
A-WALL-1
 10
230.000000
 20
-436.000000
 11
230.000000
 21
-255.000000
  0
LINE
  8
A-WALL-1
 10
226.000000
 20
-419.000000
 11
226.000000
 21
-437.656860
  0
LINE
  8
A-WALL-1
 10
226.000000
 20
-544.343140
 11
226.000000
 21
-563.000000
  0
LINE
  8
A-WALL-1
 10
230.000000
 20
-571.000000
 11
230.000000
 21
-546.000000
  0
LINE
  8
A-WALL-1
 10
226.000000
 20
-567.000000
 11
226.000000
 21
-571.000000
  0
LINE
  8
A-WALL-1
 10
230.000000
 20
-811.000000
 11
230.000000
 21
-607.000000
  0
LINE
  8
A-WALL-1
 10
226.000000
 20
-607.000000
 11
226.000000
 21
-807.000000
  0
LINE
  8
A-WALL-1
 10
230.000000
 20
-436.000000
 11
233.459262
 21
-439.459262
  0
LINE
  8
A-WALL-1
 10
250.429825
 20
-456.429825
 11
254.000000
 21
-460.000000
  0
LINE
  8
A-WALL-1
 10
226.000000
 20
-437.656854
 11
230.630835
 21
-442.287689
  0
LINE
  8
A-WALL-1
 10
247.601398
 20
-459.258252
 11
250.000000
 21
-461.656854
  0
LINE
  8
A-GLAZ-1
 10
250.429825
 20
-456.429825
 11
247.601398
 21
-459.258252
  0
LINE
  8
A-GLAZ-1
 10
230.630835
 20
-442.287689
 11
233.459262
 21
-439.459262
  0
LINE
  8
A-GLAZ-1
 10
230.630835
 20
-442.287689
 11
247.601398
 21
-459.258252
  0
LINE
  8
A-GLAZ-1
 10
250.429825
 20
-456.429825
 11
233.459262
 21
-439.459262
  0
LINE
  8
A-GLAZ-1
 10
249.015611
 20
-457.844039
 11
232.045049
 21
-440.873476
  0
LINE
  8
A-WALL-1
 10
230.000000
 20
-546.000000
 11
233.459262
 21
-542.540738
  0
LINE
  8
A-WALL-1
 10
250.429825
 20
-525.570175
 11
254.000000
 21
-522.000000
  0
LINE
  8
A-WALL-1
 10
226.000000
 20
-544.343146
 11
230.630835
 21
-539.712311
  0
LINE
  8
A-WALL-1
 10
247.601398
 20
-522.741748
 11
250.000000
 21
-520.343146
  0
LINE
  8
A-GLAZ-1
 10
233.459262
 20
-542.540738
 11
230.630835
 21
-539.712311
  0
LINE
  8
A-GLAZ-1
 10
247.601398
 20
-522.741748
 11
250.429825
 21
-525.570175
  0
LINE
  8
A-GLAZ-1
 10
247.601398
 20
-522.741748
 11
230.630835
 21
-539.712311
  0
LINE
  8
A-GLAZ-1
 10
233.459262
 20
-542.540738
 11
250.429825
 21
-525.570175
  0
LINE
  8
A-GLAZ-1
 10
232.045049
 20
-541.126524
 11
249.015611
 21
-524.155961
  0
LINE
  8
A-WALL-1
 10
254.000000
 20
-460.000000
 11
254.000000
 21
-464.000000
  0
LINE
  8
A-WALL-1
 10
254.000000
 20
-518.000000
 11
254.000000
 21
-522.000000
  0
LINE
  8
A-WALL-1
 10
250.000000
 20
-461.656854
 11
250.000000
 21
-464.000000
  0
LINE
  8
A-WALL-1
 10
250.000000
 20
-518.000000
 11
250.000000
 21
-520.343146
  0
LINE
  8
A-GLAZ-1
 10
254.000000
 20
-518.000000
 11
250.000000
 21
-518.000000
  0
LINE
  8
A-GLAZ-1
 10
250.000000
 20
-464.000000
 11
254.000000
 21
-464.000000
  0
LINE
  8
A-GLAZ-1
 10
250.000000
 20
-464.000000
 11
250.000000
 21
-518.000000
  0
LINE
  8
A-GLAZ-1
 10
254.000000
 20
-518.000000
 11
254.000000
 21
-464.000000
  0
LINE
  8
A-GLAZ-1
 10
252.000000
 20
-518.000000
 11
252.000000
 21
-464.000000
  0
LINE
  8
A-DIMS-1
 10
238.920000
 20
-436.000000
 11
232.920000
 21
-436.000000
  0
LINE
  8
A-DIMS-1
 10
234.420000
 20
-439.000000
 11
235.920000
 21
-436.000000
  0
LINE
  8
A-DIMS-1
 10
238.920000
 20
-546.000000
 11
232.920000
 21
-546.000000
  0
LINE
  8
A-DIMS-1
 10
237.420000
 20
-543.000000
 11
235.920000
 21
-546.000000
  0
LINE
  8
A-DIMS-1
 10
235.920000
 20
-482.793619
 11
235.920000
 21
-436.000000
  0
LINE
  8
A-DIMS-1
 10
235.920000
 20
-499.206381
 11
235.920000
 21
-546.000000
  0
TEXT
  8
A-DIMS-1
 10
238.531938
 20
-496.485068
 40
5.465479
  1
9'2
 50
90.000000
  7
STANDARD
  0
LINE
  8
A-DIMS-1
 10
233.000000
 20
-419.500000
 11
230.000000
 21
-418.000000
  0
LINE
  8
A-DIMS-1
 10
254.000000
 20
-415.000000
 11
254.000000
 21
-431.000000
  0
LINE
  8
A-DIMS-1
 10
251.000000
 20
-416.500000
 11
254.000000
 21
-418.000000
  0
LINE
  8
A-DIMS-1
 10
236.144363
 20
-418.000000
 11
230.000000
 21
-418.000000
  0
LINE
  8
A-DIMS-1
 10
247.855637
 20
-418.000000
 11
254.000000
 21
-418.000000
  0
TEXT
  8
A-DIMS-1
 10
238.865675
 20
-420.611938
 40
5.465479
  1
2'
  7
STANDARD
  0
LINE
  8
A-DIMS-1
 10
247.000000
 20
-460.000000
 11
241.000000
 21
-460.000000
  0
LINE
  8
A-DIMS-1
 10
242.500000
 20
-463.000000
 11
244.000000
 21
-460.000000
  0
LINE
  8
A-DIMS-1
 10
247.000000
 20
-522.000000
 11
241.000000
 21
-522.000000
  0
LINE
  8
A-DIMS-1
 10
245.500000
 20
-519.000000
 11
244.000000
 21
-522.000000
  0
LINE
  8
A-DIMS-1
 10
244.000000
 20
-482.793619
 11
244.000000
 21
-460.000000
  0
LINE
  8
A-DIMS-1
 10
244.000000
 20
-499.206381
 11
244.000000
 21
-522.000000
  0
TEXT
  8
A-DIMS-1
 10
246.611938
 20
-496.485068
 40
5.465479
  1
5'2
 50
90.000000
  7
STANDARD
  0
TEXT
  8
A-DIMS-1
 10
238.441336
 20
-438.149937
 40
5.465479
  1
2062
 50
-44.900000
  7
STANDARD
  0
TEXT
  8
A-DIMS-1
 10
242.135174
 20
-547.543901
 40
5.465479
  1
2062
 50
44.900000
  7
STANDARD
  0
TEXT
  8
A-DIMS-1
 10
263.672567
 20
-500.402974
 40
5.465479
  1
4662
 50
90.000000
  7
STANDARD
  0
LINE
  8
A-GLAZ-1
 10
230.000000
 20
-571.000000
 11
226.000000
 21
-571.000000
  0
LINE
  8
A-GLAZ-1
 10
230.000000
 20
-607.000000
 11
226.000000
 21
-607.000000
  0
LINE
  8
A-GLAZ-1
 10
226.000000
 20
-571.000000
 11
190.000000
 21
-571.000000
  0
LINE
  8
A-GLAZ-1
 10
190.000000
 20
-572.750000
 11
226.000000
 21
-572.750000
  0
LINE
  8
A-GLAZ-1
 10
226.000000
 20
-572.750000
 11
226.000000
 21
-571.000000
  0
ARC
  8
A-GLAZ-1
 10
226.000000
 20
-571.000000
 40
36.000000
 50
180.000000
 51
270.000000
  0
LINE
  8
A-GLAZ-1
 10
230.000000
 20
-571.000000
 11
230.000000
 21
-607.000000
  0
TEXT
  8
A-DIMS-1
 10
239.672567
 20
-598.402974
 40
5.465479
  1
3068
 50
90.000000
  7
STANDARD
  0
LINE
  8
A-WALL-1
 10
-245.000000
 20
-255.000000
 11
-274.000000
 21
-255.000000
  0
LINE
  8
A-WALL-1
 10
-270.000000
 20
-259.000000
 11
-243.343140
 21
-259.000000
  0
LINE
  8
A-WALL-1
 10
-114.000000
 20
-255.000000
 11
-143.000000
 21
-255.000000
  0
LINE
  8
A-WALL-1
 10
-144.656860
 20
-259.000000
 11
-114.000000
 21
-259.000000
  0
LINE
  8
A-WALL-1
 10
-245.000000
 20
-255.000000
 11
-240.747845
 21
-250.747845
  0
LINE
  8
A-WALL-1
 10
-222.363068
 20
-232.363068
 11
-218.000000
 21
-228.000000
  0
LINE
  8
A-WALL-1
 10
-243.343146
 20
-259.000000
 11
-237.919417
 21
-253.576272
  0
LINE
  8
A-WALL-1
 10
-219.534641
 20
-235.191495
 11
-216.343146
 21
-232.000000
  0
LINE
  8
A-GLAZ-1
 10
-222.363068
 20
-232.363068
 11
-219.534641
 21
-235.191495
  0
LINE
  8
A-GLAZ-1
 10
-237.919417
 20
-253.576272
 11
-240.747845
 21
-250.747845
  0
LINE
  8
A-GLAZ-1
 10
-237.919417
 20
-253.576272
 11
-219.534641
 21
-235.191495
  0
LINE
  8
A-GLAZ-1
 10
-222.363068
 20
-232.363068
 11
-240.747845
 21
-250.747845
  0
LINE
  8
A-GLAZ-1
 10
-220.948855
 20
-233.777282
 11
-239.333631
 21
-252.162058
  0
LINE
  8
A-WALL-1
 10
-143.000000
 20
-255.000000
 11
-147.252155
 21
-250.747845
  0
LINE
  8
A-WALL-1
 10
-165.636932
 20
-232.363068
 11
-170.000000
 21
-228.000000
  0
LINE
  8
A-WALL-1
 10
-144.656854
 20
-259.000000
 11
-150.080583
 21
-253.576272
  0
LINE
  8
A-WALL-1
 10
-168.465359
 20
-235.191495
 11
-171.656854
 21
-232.000000
  0
LINE
  8
A-GLAZ-1
 10
-147.252155
 20
-250.747845
 11
-150.080583
 21
-253.576272
  0
LINE
  8
A-GLAZ-1
 10
-168.465359
 20
-235.191495
 11
-165.636932
 21
-232.363068
  0
LINE
  8
A-GLAZ-1
 10
-168.465359
 20
-235.191495
 11
-150.080583
 21
-253.576272
  0
LINE
  8
A-GLAZ-1
 10
-147.252155
 20
-250.747845
 11
-165.636932
 21
-232.363068
  0
LINE
  8
A-GLAZ-1
 10
-148.666369
 20
-252.162058
 11
-167.051145
 21
-233.777282
  0
LINE
  8
A-WALL-1
 10
-218.000000
 20
-228.000000
 11
-211.000000
 21
-228.000000
  0
LINE
  8
A-WALL-1
 10
-177.000000
 20
-228.000000
 11
-170.000000
 21
-228.000000
  0
LINE
  8
A-WALL-1
 10
-216.343146
 20
-232.000000
 11
-211.000000
 21
-232.000000
  0
LINE
  8
A-WALL-1
 10
-177.000000
 20
-232.000000
 11
-171.656854
 21
-232.000000
  0
LINE
  8
A-GLAZ-1
 10
-177.000000
 20
-228.000000
 11
-177.000000
 21
-232.000000
  0
LINE
  8
A-GLAZ-1
 10
-211.000000
 20
-232.000000
 11
-211.000000
 21
-228.000000
  0
LINE
  8
A-GLAZ-1
 10
-211.000000
 20
-232.000000
 11
-177.000000
 21
-232.000000
  0
LINE
  8
A-GLAZ-1
 10
-177.000000
 20
-228.000000
 11
-211.000000
 21
-228.000000
  0
LINE
  8
A-GLAZ-1
 10
-177.000000
 20
-230.000000
 11
-211.000000
 21
-230.000000
  0
LINE
  8
A-WALL-1
 10
-245.000000
 20
-259.000000
 11
-143.000000
 21
-259.000000
  0
LINE
  8
A-DIMS-1
 10
-245.000000
 20
-246.080000
 11
-245.000000
 21
-252.080000
  0
LINE
  8
A-DIMS-1
 10
-242.000000
 20
-250.580000
 11
-245.000000
 21
-249.080000
  0
LINE
  8
A-DIMS-1
 10
-143.000000
 20
-246.080000
 11
-143.000000
 21
-252.080000
  0
LINE
  8
A-DIMS-1
 10
-146.000000
 20
-247.580000
 11
-143.000000
 21
-249.080000
  0
LINE
  8
A-DIMS-1
 10
-202.206381
 20
-249.080000
 11
-245.000000
 21
-249.080000
  0
LINE
  8
A-DIMS-1
 10
-185.793619
 20
-249.080000
 11
-143.000000
 21
-249.080000
  0
TEXT
  8
A-DIMS-1
 10
-199.485068
 20
-251.691938
 40
5.465479
  1
8'6
  7
STANDARD
  0
LINE
  8
A-DIMS-1
 10
-261.500000
 20
-252.000000
 11
-263.000000
 21
-255.000000
  0
LINE
  8
A-DIMS-1
 10
-266.000000
 20
-228.000000
 11
-250.000000
 21
-228.000000
  0
LINE
  8
A-DIMS-1
 10
-264.500000
 20
-231.000000
 11
-263.000000
 21
-228.000000
  0
LINE
  8
A-DIMS-1
 10
-263.000000
 20
-249.706381
 11
-263.000000
 21
-255.000000
  0
LINE
  8
A-DIMS-1
 10
-263.000000
 20
-233.293619
 11
-263.000000
 21
-228.000000
  0
TEXT
  8
A-DIMS-1
 10
-260.388062
 20
-246.985068
 40
5.465479
  1
2'3
 50
90.000000
  7
STANDARD
  0
LINE
  8
A-DIMS-1
 10
-218.000000
 20
-235.000000
 11
-218.000000
 21
-241.000000
  0
LINE
  8
A-DIMS-1
 10
-215.000000
 20
-239.500000
 11
-218.000000
 21
-238.000000
  0
LINE
  8
A-DIMS-1
 10
-170.000000
 20
-235.000000
 11
-170.000000
 21
-241.000000
  0
LINE
  8
A-DIMS-1
 10
-173.000000
 20
-236.500000
 11
-170.000000
 21
-238.000000
  0
LINE
  8
A-DIMS-1
 10
-199.855637
 20
-238.000000
 11
-218.000000
 21
-238.000000
  0
LINE
  8
A-DIMS-1
 10
-188.144363
 20
-238.000000
 11
-170.000000
 21
-238.000000
  0
TEXT
  8
A-DIMS-1
 10
-197.134325
 20
-240.611938
 40
5.465479
  1
4'
  7
STANDARD
  0
TEXT
  8
A-DIMS-1
 10
-241.350063
 20
-245.058664
 40
5.465479
  1
2252
 50
45.000000
  7
STANDARD
  0
TEXT
  8
A-DIMS-1
 10
-159.947751
 20
-231.760850
 40
5.465479
  1
2252
 50
314.900000
  7
STANDARD
  0
TEXT
  8
A-DIMS-1
 10
-205.753718
 20
-223.551309
 40
5.465479
  1
21052
  7
STANDARD
  0
LINE
  8
A-WALL-1
 10
-110.000000
 20
-105.000000
 11
-110.000000
 21
-99.000000
  0
LINE
  8
A-WALL-1
 10
-114.000000
 20
-95.000000
 11
-114.000000
 21
-105.000000
  0
LINE
  8
A-WALL-1
 10
-114.000000
 20
-141.000000
 11
-114.000000
 21
-255.000000
  0
LINE
  8
A-WALL-1
 10
-110.000000
 20
-300.000000
 11
-110.000000
 21
-141.000000
  0
LINE
  8
A-WALL-1
 10
-114.000000
 20
-259.000000
 11
-114.000000
 21
-300.000000
  0
LINE
  8
A-WALL-1
 10
-110.000000
 20
-409.000000
 11
-110.000000
 21
-336.000000
  0
LINE
  8
A-WALL-1
 10
-114.000000
 20
-336.000000
 11
-114.000000
 21
-409.000000
  0
LINE
  8
A-GLAZ-1
 10
-114.000000
 20
-105.000000
 11
-110.000000
 21
-105.000000
  0
LINE
  8
A-GLAZ-1
 10
-110.000000
 20
-141.000000
 11
-114.000000
 21
-141.000000
  0
LINE
  8
A-GLAZ-1
 10
-110.000000
 20
-141.000000
 11
-110.000000
 21
-105.000000
  0
LINE
  8
A-GLAZ-1
 10
-114.000000
 20
-105.000000
 11
-114.000000
 21
-141.000000
  0
LINE
  8
A-GLAZ-1
 10
-112.000000
 20
-105.000000
 11
-112.000000
 21
-141.000000
  0
TEXT
  8
A-DIMS-1
 10
-118.448691
 20
-132.402974
 40
5.465479
  1
3062
 50
90.000000
  7
STANDARD
  0
LINE
  8
A-GLAZ-1
 10
-110.000000
 20
-300.000000
 11
-114.000000
 21
-300.000000
  0
LINE
  8
A-GLAZ-1
 10
-110.000000
 20
-336.000000
 11
-114.000000
 21
-336.000000
  0
TEXT
  8
A-DIMS-1
 10
-109.388062
 20
-327.402974
 40
5.465479
  1
3078
 50
90.000000
  7
STANDARD
  0
LINE
  8
A-WALL-1
  6
DOTTED
 10
70.000000
 20
-259.000000
 11
204.000000
 21
-259.000000
  0
LINE
  8
A-WALL-1
  6
DOTTED
 10
202.000000
 20
-257.000000
 11
72.000000
 21
-257.000000
  0
LINE
  8
A-WALL-1
 10
202.000000
 20
-231.000000
 11
202.000000
 21
-259.000000
  0
LINE
  8
A-WALL-1
 10
206.000000
 20
-255.000000
 11
206.000000
 21
-231.000000
  0
LINE
  8
A-WALL-1
 10
202.000000
 20
-175.000000
 11
202.000000
 21
-199.000000
  0
LINE
  8
A-WALL-1
 10
206.000000
 20
-199.000000
 11
206.000000
 21
-171.000000
  0
LINE
  8
A-GLAZ-1
 10
206.000000
 20
-231.000000
 11
202.000000
 21
-231.000000
  0
LINE
  8
A-GLAZ-1
 10
202.000000
 20
-199.000000
 11
206.000000
 21
-199.000000
  0
LINE
  8
A-GLAZ-1
 10
202.000000
 20
-199.000000
 11
202.000000
 21
-231.000000
  0
LINE
  8
A-GLAZ-1
 10
206.000000
 20
-231.000000
 11
206.000000
 21
-199.000000
  0
LINE
  8
A-GLAZ-1
 10
204.000000
 20
-231.000000
 11
204.000000
 21
-199.000000
  0
TEXT
  8
A-DIMS-1
 10
215.672567
 20
-224.402974
 40
5.465479
  1
2852
 50
90.000000
  7
STANDARD
  0
LINE
  8
A-WALL-1
 10
187.000000
 20
-175.000000
 11
202.000000
 21
-175.000000
  0
LINE
  8
A-WALL-1
 10
206.000000
 20
-171.000000
 11
187.000000
 21
-171.000000
  0
LINE
  8
A-WALL-1
 10
155.000000
 20
-175.000000
 11
157.000000
 21
-175.000000
  0
LINE
  8
A-WALL-1
 10
157.000000
 20
-171.000000
 11
155.000000
 21
-171.000000
  0
LINE
  8
A-WALL-1
 10
70.000000
 20
-175.000000
 11
93.000000
 21
-175.000000
  0
LINE
  8
A-WALL-1
 10
93.000000
 20
-171.000000
 11
74.000000
 21
-171.000000
  0
LINE
  8
A-GLAZ-1
 10
187.000000
 20
-171.000000
 11
187.000000
 21
-175.000000
  0
LINE
  8
A-GLAZ-1
 10
157.000000
 20
-175.000000
 11
157.000000
 21
-171.000000
  0
LINE
  8
A-GLAZ-1
 10
157.000000
 20
-175.000000
 11
187.000000
 21
-175.000000
  0
LINE
  8
A-GLAZ-1
 10
187.000000
 20
-171.000000
 11
157.000000
 21
-171.000000
  0
LINE
  8
A-GLAZ-1
 10
187.000000
 20
-173.000000
 11
157.000000
 21
-173.000000
  0
TEXT
  8
A-DIMS-1
 10
162.597026
 20
-166.551309
 40
5.465479
  1
2666
  7
STANDARD
  0
LINE
  8
A-GLAZ-1
 10
155.000000
 20
-175.000000
 11
155.000000
 21
-171.000000
  0
LINE
  8
A-GLAZ-1
 10
93.000000
 20
-175.000000
 11
93.000000
 21
-171.000000
  0
LINE
  8
A-GLAZ-1
 10
155.000000
 20
-173.000000
 11
124.000000
 21
-173.000000
  0
LINE
  8
A-GLAZ-1
 10
124.000000
 20
-173.000000
 11
124.000000
 21
-172.000000
  0
LINE
  8
A-GLAZ-1
 10
124.000000
 20
-172.000000
 11
155.000000
 21
-172.000000
  0
LINE
  8
A-GLAZ-1
 10
155.000000
 20
-172.000000
 11
155.000000
 21
-173.000000
  0
LINE
  8
A-GLAZ-1
 10
139.500000
 20
-175.000000
 11
108.500000
 21
-175.000000
  0
LINE
  8
A-GLAZ-1
 10
108.500000
 20
-175.000000
 11
108.500000
 21
-174.000000
  0
LINE
  8
A-GLAZ-1
 10
108.500000
 20
-174.000000
 11
139.500000
 21
-174.000000
  0
LINE
  8
A-GLAZ-1
 10
139.500000
 20
-174.000000
 11
139.500000
 21
-175.000000
  0
LINE
  8
A-GLAZ-1
 10
155.000000
 20
-171.000000
 11
93.000000
 21
-171.000000
  0
TEXT
  8
A-DIMS-1
 10
114.597026
 20
-166.551309
 40
5.465479
  1
5268
  7
STANDARD
  0
LINE
  8
A-WALL-1
  6
DOTTED
 10
70.000000
 20
-173.000000
 11
70.000000
 21
-259.000000
  0
LINE
  8
A-WALL-1
  6
DOTTED
 10
72.000000
 20
-257.000000
 11
72.000000
 21
-175.000000
  0
LINE
  8
A-WALL-1
 10
58.000000
 20
-99.000000
 11
70.000000
 21
-99.000000
  0
LINE
  8
A-WALL-1
 10
74.000000
 20
-95.000000
 11
58.000000
 21
-95.000000
  0
LINE
  8
A-WALL-1
 10
-62.000000
 20
-99.000000
 11
22.000000
 21
-99.000000
  0
LINE
  8
A-WALL-1
 10
22.000000
 20
-95.000000
 11
-62.000000
 21
-95.000000
  0
LINE
  8
A-WALL-1
 10
-110.000000
 20
-99.000000
 11
-98.000000
 21
-99.000000
  0
LINE
  8
A-WALL-1
 10
-98.000000
 20
-95.000000
 11
-114.000000
 21
-95.000000
  0
LINE
  8
A-GLAZ-1
 10
58.000000
 20
-95.000000
 11
58.000000
 21
-99.000000
  0
LINE
  8
A-GLAZ-1
 10
22.000000
 20
-99.000000
 11
22.000000
 21
-95.000000
  0
LINE
  8
A-GLAZ-1
 10
22.000000
 20
-99.000000
 11
58.000000
 21
-99.000000
  0
LINE
  8
A-GLAZ-1
 10
58.000000
 20
-95.000000
 11
22.000000
 21
-95.000000
  0
LINE
  8
A-GLAZ-1
 10
58.000000
 20
-97.000000
 11
22.000000
 21
-97.000000
  0
TEXT
  8
A-DIMS-1
 10
30.597026
 20
-90.551309
 40
5.465479
  1
3062
  7
STANDARD
  0
LINE
  8
A-GLAZ-1
 10
-62.000000
 20
-95.000000
 11
-62.000000
 21
-99.000000
  0
LINE
  8
A-GLAZ-1
 10
-98.000000
 20
-99.000000
 11
-98.000000
 21
-95.000000
  0
LINE
  8
A-GLAZ-1
 10
-98.000000
 20
-99.000000
 11
-62.000000
 21
-99.000000
  0
LINE
  8
A-GLAZ-1
 10
-62.000000
 20
-95.000000
 11
-98.000000
 21
-95.000000
  0
LINE
  8
A-GLAZ-1
 10
-62.000000
 20
-97.000000
 11
-98.000000
 21
-97.000000
  0
TEXT
  8
A-DIMS-1
 10
-89.402974
 20
-90.551309
 40
5.465479
  1
3062
  7
STANDARD
  0
LINE
  8
A-WALL-1
 10
-172.429367
 20
-468.000000
 11
-270.000000
 21
-468.000000
  0
LINE
  8
A-WALL-1
 10
-268.000000
 20
-472.000000
 11
-173.600937
 21
-472.000000
  0
LINE
  8
A-WALL-1
 10
-163.115662
 20
-458.686279
 11
-172.429367
 21
-468.000000
  0
LINE
  8
A-WALL-1
 10
-169.600937
 20
-470.828430
 11
-160.287231
 21
-461.514709
  0
LINE
  8
A-WALL-1
 10
-113.429367
 20
-409.000000
 11
-120.689247
 21
-416.259888
  0
LINE
  8
A-WALL-1
 10
-117.860825
 20
-419.088318
 11
-111.772514
 21
-413.000000
  0
LINE
  8
A-GLAZ-1
 10
-163.115657
 20
-458.686292
 11
-160.287230
 21
-461.514719
  0
LINE
  8
A-GLAZ-1
 10
-120.689250
 20
-416.259885
 11
-117.860823
 21
-419.088312
  0
TEXT
  8
A-DIMS-1
 10
-145.290228
 20
-447.383128
 40
5.465479
  1
5078
 50
45.000000
  7
STANDARD
  0
LINE
  8
A-WALL-1
 10
105.000000
 20
-419.000000
 11
226.000000
 21
-419.000000
  0
LINE
  8
A-WALL-1
 10
226.000000
 20
-415.000000
 11
105.000000
 21
-415.000000
  0
LINE
  8
A-WALL-1
 10
69.000000
 20
-415.000000
 11
65.000000
 21
-415.000000
  0
LINE
  8
A-WALL-1
 10
42.000000
 20
-419.000000
 11
69.000000
 21
-419.000000
  0
LINE
  8
A-WALL-1
 10
61.000000
 20
-415.000000
 11
42.000000
 21
-415.000000
  0
LINE
  8
A-GLAZ-1
 10
105.000000
 20
-419.000000
 11
105.000000
 21
-418.000000
  0
LINE
  8
A-GLAZ-1
 10
105.000000
 20
-416.000000
 11
105.000000
 21
-415.000000
  0
LINE
  8
A-GLAZ-1
 10
69.000000
 20
-419.000000
 11
69.000000
 21
-415.000000
  0
LINE
  8
A-GLAZ-1
 10
123.000000
 20
-416.312500
 11
123.000000
 21
-417.687500
  0
LINE
  8
A-GLAZ-1
 10
87.000000
 20
-416.312500
 11
87.000000
 21
-417.687500
  0
LINE
  8
A-GLAZ-1
 10
123.000000
 20
-416.312500
 11
87.000000
 21
-416.312500
  0
LINE
  8
A-GLAZ-1
 10
123.000000
 20
-417.687500
 11
87.000000
 21
-417.687500
  0
TEXT
  8
A-DIMS-1
 10
77.597026
 20
-410.551309
 40
5.465479
  1
3068
  7
STANDARD
  0
LINE
  8
A-WALL-1
 10
38.000000
 20
-391.000000
 11
38.000000
 21
-405.871368
  0
LINE
  8
A-WALL-1
 10
42.000000
 20
-415.000000
 11
42.000000
 21
-391.000000
  0
LINE
  8
A-WALL-1
 10
38.000000
 20
-409.871368
 11
38.000000
 21
-468.000000
  0
LINE
  8
A-WALL-1
 10
42.000000
 20
-473.000000
 11
42.000000
 21
-419.000000
  0
LINE
  8
A-WALL-1
 10
38.000000
 20
-472.000000
 11
38.000000
 21
-473.000000
  0
LINE
  8
A-WALL-1
 10
38.000000
 20
-521.000000
 11
38.000000
 21
-522.000000
  0
LINE
  8
A-WALL-1
 10
42.000000
 20
-563.000000
 11
42.000000
 21
-521.000000
  0
LINE
  8
A-WALL-1
 10
38.000000
 20
-526.000000
 11
38.000000
 21
-565.000000
  0
LINE
  8
A-GLAZ-1
 10
42.000000
 20
-473.000000
 11
38.000000
 21
-473.000000
  0
LINE
  8
A-GLAZ-1
 10
42.000000
 20
-521.000000
 11
38.000000
 21
-521.000000
  0
TEXT
  8
A-DIMS-1
 10
42.611938
 20
-506.402974
 40
5.465479
  1
4078
 50
90.000000
  7
STANDARD
  0
LINE
  8
A-WALL-1
  6
DOTTED
 10
-204.172806
 20
-609.000000
 11
-170.600937
 21
-609.000000
  0
LINE
  8
A-WALL-1
  6
DOTTED
 10
-172.600937
 20
-603.000000
 11
-210.001221
 21
-603.000000
  0
LINE
  8
A-WALL-1
 10
-8.203320
 20
-387.000000
 11
-16.031746
 21
-387.000000
  0
LINE
  8
A-WALL-1
 10
-14.374892
 20
-391.000000
 11
-8.203320
 21
-391.000000
  0
LINE
  8
A-WALL-1
 10
33.796680
 20
-391.000000
 11
38.000000
 21
-391.000000
  0
LINE
  8
A-WALL-1
 10
65.000000
 20
-387.000000
 11
33.796680
 21
-387.000000
  0
LINE
  8
A-WALL-1
 10
42.000000
 20
-391.000000
 11
61.000000
 21
-391.000000
  0
LINE
  8
A-GLAZ-1
 10
-8.203320
 20
-387.000000
 11
-8.203320
 21
-391.000000
  0
LINE
  8
A-GLAZ-1
 10
33.796680
 20
-387.000000
 11
33.796680
 21
-391.000000
  0
LINE
  8
A-GLAZ-1
 10
-8.203320
 20
-389.000000
 11
-0.778699
 21
-381.575379
  0
LINE
  8
A-GLAZ-1
 10
-0.778699
 20
-381.575379
 11
0.193573
 21
-382.547651
  0
LINE
  8
A-GLAZ-1
 10
0.193573
 20
-382.547651
 11
-7.231048
 21
-389.972272
  0
LINE
  8
A-GLAZ-1
 10
-7.231048
 20
-389.972272
 11
-8.203320
 21
-389.000000
  0
LINE
  8
A-GLAZ-1
 10
0.193573
 20
-382.547651
 11
7.618195
 21
-389.972272
  0
LINE
  8
A-GLAZ-1
 10
7.618195
 20
-389.972272
 11
8.590466
 21
-389.000000
  0
LINE
  8
A-GLAZ-1
 10
8.590466
 20
-389.000000
 11
1.165845
 21
-381.575379
  0
LINE
  8
A-GLAZ-1
 10
1.165845
 20
-381.575379
 11
0.193573
 21
-382.547651
  0
LINE
  8
A-GLAZ-1
 10
33.796680
 20
-389.000000
 11
26.372059
 21
-381.575379
  0
LINE
  8
A-GLAZ-1
 10
26.372059
 20
-381.575379
 11
25.399787
 21
-382.547651
  0
LINE
  8
A-GLAZ-1
 10
25.399787
 20
-382.547651
 11
32.824408
 21
-389.972272
  0
LINE
  8
A-GLAZ-1
 10
32.824408
 20
-389.972272
 11
33.796680
 21
-389.000000
  0
LINE
  8
A-GLAZ-1
 10
25.399787
 20
-382.547651
 11
17.975166
 21
-389.972272
  0
LINE
  8
A-GLAZ-1
 10
17.975166
 20
-389.972272
 11
17.002894
 21
-389.000000
  0
LINE
  8
A-GLAZ-1
 10
17.002894
 20
-389.000000
 11
24.427515
 21
-381.575379
  0
LINE
  8
A-GLAZ-1
 10
24.427515
 20
-381.575379
 11
25.399787
 21
-382.547651
  0
TEXT
  8
A-DIMS-1
 10
3.393706
 20
-391.611938
 40
5.465479
  1
3668
  7
STANDARD
  0
LINE
  8
A-WALL-1
 10
65.000000
 20
-415.000000
 11
65.000000
 21
-387.000000
  0
LINE
  8
A-WALL-1
 10
61.000000
 20
-391.000000
 11
61.000000
 21
-415.000000
  0
LINE
  8
A-WALL-1
 10
-32.074688
 20
-472.000000
 11
38.000000
 21
-472.000000
  0
LINE
  8
A-WALL-1
 10
38.000000
 20
-468.000000
 11
-32.074688
 21
-468.000000
  0
LINE
  8
A-WALL-1
 10
-36.074688
 20
-520.037354
 11
-36.074688
 21
-522.000000
  0
LINE
  8
A-WALL-1
 10
-32.074688
 20
-522.000000
 11
-32.074688
 21
-520.037354
  0
LINE
  8
A-WALL-1
 10
-32.074688
 20
-472.037354
 11
-32.074688
 21
-472.000000
  0
LINE
  8
A-WALL-1
 10
-36.074688
 20
-458.037354
 11
-36.074688
 21
-472.037354
  0
LINE
  8
A-WALL-1
 10
-32.074688
 20
-468.000000
 11
-32.074688
 21
-458.037354
  0
LINE
  8
A-WALL-1
 10
-36.074688
 20
-413.000000
 11
-36.074688
 21
-422.037354
  0
LINE
  8
A-WALL-1
 10
-36.074688
 20
-407.042938
 11
-36.074688
 21
-409.000000
  0
LINE
  8
A-WALL-1
 10
-32.074688
 20
-422.037354
 11
-32.074688
 21
-409.871368
  0
LINE
  8
A-GLAZ-1
 10
-36.074688
 20
-520.037344
 11
-32.074688
 21
-520.037344
  0
LINE
  8
A-GLAZ-1
 10
-36.074688
 20
-472.037344
 11
-32.074688
 21
-472.037344
  0
TEXT
  8
A-DIMS-1
 10
-31.462751
 20
-505.440319
 40
5.465479
  1
4078
 50
90.000000
  7
STANDARD
  0
LINE
  8
A-GLAZ-1
 10
-36.074688
 20
-458.037344
 11
-32.074688
 21
-458.037344
  0
LINE
  8
A-GLAZ-1
 10
-36.074688
 20
-422.037344
 11
-32.074688
 21
-422.037344
  0
LINE
  8
A-GLAZ-1
 10
-36.074688
 20
-458.037344
 11
-72.074688
 21
-458.037344
  0
LINE
  8
A-GLAZ-1
 10
-72.074688
 20
-456.662344
 11
-36.074688
 21
-456.662344
  0
LINE
  8
A-GLAZ-1
 10
-36.074688
 20
-456.662344
 11
-36.074688
 21
-458.037344
  0
ARC
  8
A-GLAZ-1
 10
-36.074688
 20
-458.037344
 40
36.000000
 50
90.000000
 51
180.000000
  0
TEXT
  8
A-DIMS-1
 10
-31.462751
 20
-449.440319
 40
5.465479
  1
3068
 50
90.000000
  7
STANDARD
  0
LINE
  8
A-WALL-1
 10
-29.246262
 20
-405.871368
 11
-14.374892
 21
-391.000000
  0
LINE
  8
A-WALL-1
 10
-16.031746
 20
-387.000000
 11
-36.074688
 21
-407.042938
  0
LINE
  8
A-WALL-1
 10
-210.172806
 20
-603.000000
 11
-268.000000
 21
-603.000000
  0
LINE
  8
A-WALL-1
 10
-272.000000
 20
-609.000000
 11
-209.829651
 21
-609.000000
  0
LINE
  8
A-WALL-1
 10
-38.000000
 20
-529.500000
 11
-38.000000
 21
-526.000000
  0
LINE
  8
A-WALL-1
 10
-42.000000
 20
-522.000000
 11
-42.000000
 21
-529.500000
  0
LINE
  8
A-WALL-1
 10
-38.000000
 20
-563.000000
 11
-38.000000
 21
-559.500000
  0
LINE
  8
A-WALL-1
 10
-38.000000
 20
-571.000000
 11
-38.000000
 21
-567.000000
  0
LINE
  8
A-WALL-1
 10
-42.000000
 20
-559.500000
 11
-42.000000
 21
-571.000000
  0
LINE
  8
A-WALL-1
 10
-42.000000
 20
-603.000000
 11
-42.000000
 21
-719.000000
  0
LINE
  8
A-WALL-1
 10
-42.000000
 20
-723.000000
 11
-42.000000
 21
-771.000000
  0
LINE
  8
A-WALL-1
 10
-38.000000
 20
-835.000000
 11
-38.000000
 21
-603.000000
  0
LINE
  8
A-WALL-1
 10
-42.000000
 20
-775.000000
 11
-42.000000
 21
-839.000000
  0
LINE
  8
A-GLAZ-1
 10
-38.000000
 20
-529.500000
 11
-42.000000
 21
-529.500000
  0
LINE
  8
A-GLAZ-1
 10
-38.000000
 20
-559.500000
 11
-42.000000
 21
-559.500000
  0
LINE
  8
A-GLAZ-1
 10
-42.000000
 20
-559.500000
 11
-72.000000
 21
-559.500000
  0
LINE
  8
A-GLAZ-1
 10
-72.000000
 20
-558.125000
 11
-42.000000
 21
-558.125000
  0
LINE
  8
A-GLAZ-1
 10
-42.000000
 20
-558.125000
 11
-42.000000
 21
-559.500000
  0
ARC
  8
A-GLAZ-1
 10
-42.000000
 20
-559.500000
 40
30.000000
 50
90.000000
 51
180.000000
  0
TEXT
  8
A-DIMS-1
 10
-37.388062
 20
-553.902974
 40
5.465479
  1
2668
 50
90.000000
  7
STANDARD
  0
LINE
  8
A-GLAZ-1
 10
-38.000000
 20
-571.000000
 11
-42.000000
 21
-571.000000
  0
LINE
  8
A-GLAZ-1
 10
-38.000000
 20
-603.000000
 11
-42.000000
 21
-603.000000
  0
LINE
  8
A-GLAZ-1
 10
-42.000000
 20
-571.000000
 11
-74.000000
 21
-571.000000
  0
LINE
  8
A-GLAZ-1
 10
-74.000000
 20
-572.375000
 11
-42.000000
 21
-572.375000
  0
LINE
  8
A-GLAZ-1
 10
-42.000000
 20
-572.375000
 11
-42.000000
 21
-571.000000
  0
ARC
  8
A-GLAZ-1
 10
-42.000000
 20
-571.000000
 40
32.000000
 50
180.000000
 51
270.000000
  0
TEXT
  8
A-DIMS-1
 10
-37.388062
 20
-596.402974
 40
5.465479
  1
2868
 50
90.000000
  7
STANDARD
  0
LINE
  8
A-WALL-1
 10
-274.000000
 20
-605.000000
 11
-285.994934
 21
-605.000000
  0
LINE
  8
A-WALL-1
 10
-284.338074
 20
-609.000000
 11
-272.000000
 21
-609.000000
  0
LINE
  8
A-WALL-1
 10
42.000000
 20
-602.000000
 11
42.000000
 21
-567.000000
  0
LINE
  8
A-WALL-1
 10
38.000000
 20
-565.000000
 11
38.000000
 21
-598.000000
  0
LINE
  8
A-WALL-1
 10
-68.000000
 20
-723.000000
 11
-42.000000
 21
-723.000000
  0
LINE
  8
A-WALL-1
 10
-42.000000
 20
-719.000000
 11
-68.000000
 21
-719.000000
  0
LINE
  8
A-WALL-1
 10
-174.000000
 20
-723.000000
 11
-148.000000
 21
-723.000000
  0
LINE
  8
A-WALL-1
 10
-148.000000
 20
-719.000000
 11
-174.000000
 21
-719.000000
  0
LINE
  8
A-GLAZ-1
 10
-88.000000
 20
-723.000000
 11
-88.000000
 21
-719.000000
  0
LINE
  8
A-GLAZ-1
 10
-68.000000
 20
-719.000000
 11
-68.000000
 21
-723.000000
  0
LINE
  8
A-GLAZ-1
 10
-68.000000
 20
-719.000000
 11
-88.000000
 21
-719.000000
  0
LINE
  8
A-GLAZ-1
 10
-88.000000
 20
-723.000000
 11
-68.000000
 21
-723.000000
  0
LINE
  8
A-GLAZ-1
 10
-88.000000
 20
-721.000000
 11
-68.000000
 21
-721.000000
  0
TEXT
  8
A-DIMS-1
 10
-87.402974
 20
-732.672567
 40
5.465479
  1
1868
  7
STANDARD
  0
LINE
  8
A-GLAZ-1
 10
-90.000000
 20
-723.000000
 11
-90.000000
 21
-719.000000
  0
LINE
  8
A-GLAZ-1
 10
-126.000000
 20
-723.000000
 11
-126.000000
 21
-719.000000
  0
LINE
  8
A-GLAZ-1
 10
-90.000000
 20
-723.000000
 11
-88.000000
 21
-723.000000
  0
LINE
  8
A-GLAZ-1
 10
-90.000000
 20
-719.000000
 11
-88.000000
 21
-719.000000
  0
LINE
  8
A-GLAZ-1
 10
-90.000000
 20
-719.000000
 11
-90.000000
 21
-683.000000
  0
LINE
  8
A-GLAZ-1
 10
-91.750000
 20
-683.000000
 11
-91.750000
 21
-719.000000
  0
LINE
  8
A-GLAZ-1
 10
-91.750000
 20
-719.000000
 11
-90.000000
 21
-719.000000
  0
ARC
  8
A-GLAZ-1
 10
-90.000000
 20
-719.000000
 40
36.000000
 50
90.000000
 51
180.000000
  0
LINE
  8
A-GLAZ-1
 10
-90.000000
 20
-723.000000
 11
-126.000000
 21
-723.000000
  0
TEXT
  8
A-DIMS-1
 10
-117.402974
 20
-732.672567
 40
5.465479
  1
3068
  7
STANDARD
  0
LINE
  8
A-GLAZ-1
 10
-148.000000
 20
-723.000000
 11
-148.000000
 21
-719.000000
  0
LINE
  8
A-GLAZ-1
 10
-128.000000
 20
-719.000000
 11
-128.000000
 21
-723.000000
  0
LINE
  8
A-GLAZ-1
 10
-128.000000
 20
-723.000000
 11
-126.000000
 21
-723.000000
  0
LINE
  8
A-GLAZ-1
 10
-128.000000
 20
-719.000000
 11
-126.000000
 21
-719.000000
  0
LINE
  8
A-GLAZ-1
 10
-128.000000
 20
-719.000000
 11
-148.000000
 21
-719.000000
  0
LINE
  8
A-GLAZ-1
 10
-148.000000
 20
-723.000000
 11
-128.000000
 21
-723.000000
  0
LINE
  8
A-GLAZ-1
 10
-148.000000
 20
-721.000000
 11
-128.000000
 21
-721.000000
  0
TEXT
  8
A-DIMS-1
 10
-147.402974
 20
-732.672567
 40
5.465479
  1
1868
  7
STANDARD
  0
LINE
  8
A-WALL-1
 10
-57.000000
 20
-775.000000
 11
-42.000000
 21
-775.000000
  0
LINE
  8
A-WALL-1
 10
-42.000000
 20
-771.000000
 11
-57.000000
 21
-771.000000
  0
LINE
  8
A-WALL-1
 10
-174.000000
 20
-775.000000
 11
-159.000000
 21
-775.000000
  0
LINE
  8
A-WALL-1
 10
-159.000000
 20
-771.000000
 11
-174.000000
 21
-771.000000
  0
LINE
  8
A-GLAZ-1
 10
-57.000000
 20
-775.000000
 11
-57.000000
 21
-771.000000
  0
LINE
  8
A-GLAZ-1
 10
-159.000000
 20
-775.000000
 11
-159.000000
 21
-771.000000
  0
LINE
  8
A-GLAZ-1
 10
-57.000000
 20
-775.000000
 11
-159.000000
 21
-775.000000
  0
TEXT
  8
A-DIMS-1
 10
-117.402974
 20
-784.672567
 40
5.465479
  1
8678
  7
STANDARD
  0
LINE
  8
A-WALL-1
 10
-174.000000
 20
-799.000000
 11
-174.000000
 21
-775.000000
  0
LINE
  8
A-WALL-1
 10
-174.000000
 20
-771.000000
 11
-174.000000
 21
-723.000000
  0
LINE
  8
A-WALL-1
 10
-178.000000
 20
-709.000000
 11
-178.000000
 21
-795.000000
  0
LINE
  8
A-WALL-1
 10
-174.000000
 20
-719.000000
 11
-174.000000
 21
-709.000000
  0
LINE
  8
A-WALL-1
 10
-178.000000
 20
-640.829651
 11
-178.000000
 21
-649.000000
  0
LINE
  8
A-WALL-1
 10
-174.000000
 20
-649.000000
 11
-174.000000
 21
-639.172791
  0
LINE
  8
A-GLAZ-1
 10
-178.000000
 20
-709.000000
 11
-174.000000
 21
-709.000000
  0
LINE
  8
A-GLAZ-1
 10
-178.000000
 20
-649.000000
 11
-174.000000
 21
-649.000000
  0
LINE
  8
A-GLAZ-1
 10
-178.000000
 20
-649.000000
 11
-208.000000
 21
-649.000000
  0
LINE
  8
A-GLAZ-1
 10
-208.000000
 20
-650.375000
 11
-178.000000
 21
-650.375000
  0
LINE
  8
A-GLAZ-1
 10
-178.000000
 20
-650.375000
 11
-178.000000
 21
-649.000000
  0
ARC
  8
A-GLAZ-1
 10
-178.000000
 20
-649.000000
 40
30.000000
 50
180.000000
 51
270.000000
  0
LINE
  8
A-GLAZ-1
 10
-178.000000
 20
-709.000000
 11
-208.000000
 21
-709.000000
  0
LINE
  8
A-GLAZ-1
 10
-208.000000
 20
-707.625000
 11
-178.000000
 21
-707.625000
  0
LINE
  8
A-GLAZ-1
 10
-178.000000
 20
-707.625000
 11
-178.000000
 21
-709.000000
  0
ARC
  8
A-GLAZ-1
 10
-178.000000
 20
-709.000000
 40
30.000000
 50
90.000000
 51
180.000000
  0
TEXT
  8
A-DIMS-1
 10
-173.388062
 20
-688.402974
 40
5.465479
  1
5068
 50
90.000000
  7
STANDARD
  0
LINE
  8
A-WALL-1
 10
-199.000000
 20
-799.000000
 11
-174.000000
 21
-799.000000
  0
LINE
  8
A-WALL-1
 10
-178.000000
 20
-795.000000
 11
-199.000000
 21
-795.000000
  0
LINE
  8
A-WALL-1
 10
-230.000000
 20
-799.000000
 11
-227.000000
 21
-799.000000
  0
LINE
  8
A-WALL-1
 10
-227.000000
 20
-795.000000
 11
-230.000000
 21
-795.000000
  0
LINE
  8
A-WALL-1
 10
-269.000000
 20
-799.000000
 11
-266.000000
 21
-799.000000
  0
LINE
  8
A-WALL-1
 10
-266.000000
 20
-795.000000
 11
-269.000000
 21
-795.000000
  0
LINE
  8
A-WALL-1
 10
-322.000000
 20
-799.000000
 11
-297.000000
 21
-799.000000
  0
LINE
  8
A-WALL-1
 10
-297.000000
 20
-795.000000
 11
-318.000000
 21
-795.000000
  0
LINE
  8
A-GLAZ-1
 10
-227.000000
 20
-799.000000
 11
-227.000000
 21
-795.000000
  0
LINE
  8
A-GLAZ-1
 10
-199.000000
 20
-795.000000
 11
-199.000000
 21
-799.000000
  0
LINE
  8
A-GLAZ-1
 10
-199.000000
 20
-795.000000
 11
-227.000000
 21
-795.000000
  0
LINE
  8
A-GLAZ-1
 10
-227.000000
 20
-799.000000
 11
-199.000000
 21
-799.000000
  0
LINE
  8
A-GLAZ-1
 10
-227.000000
 20
-797.000000
 11
-199.000000
 21
-797.000000
  0
TEXT
  8
A-DIMS-1
 10
-222.402974
 20
-808.672567
 40
5.465479
  1
2462
  7
STANDARD
  0
LINE
  8
A-GLAZ-1
 10
-266.000000
 20
-799.000000
 11
-266.000000
 21
-795.000000
  0
LINE
  8
A-GLAZ-1
 10
-230.000000
 20
-795.000000
 11
-230.000000
 21
-799.000000
  0
LINE
  8
A-GLAZ-1
 10
-230.000000
 20
-795.000000
 11
-266.000000
 21
-795.000000
  0
LINE
  8
A-GLAZ-1
 10
-266.000000
 20
-799.000000
 11
-230.000000
 21
-799.000000
  0
LINE
  8
A-GLAZ-1
 10
-266.000000
 20
-797.000000
 11
-230.000000
 21
-797.000000
  0
TEXT
  8
A-DIMS-1
 10
-257.402974
 20
-808.672567
 40
5.465479
  1
3078
  7
STANDARD
  0
LINE
  8
A-GLAZ-1
 10
-297.000000
 20
-799.000000
 11
-297.000000
 21
-795.000000
  0
LINE
  8
A-GLAZ-1
 10
-269.000000
 20
-795.000000
 11
-269.000000
 21
-799.000000
  0
LINE
  8
A-GLAZ-1
 10
-269.000000
 20
-795.000000
 11
-297.000000
 21
-795.000000
  0
LINE
  8
A-GLAZ-1
 10
-297.000000
 20
-799.000000
 11
-269.000000
 21
-799.000000
  0
LINE
  8
A-GLAZ-1
 10
-297.000000
 20
-797.000000
 11
-269.000000
 21
-797.000000
  0
TEXT
  8
A-DIMS-1
 10
-292.402974
 20
-808.672567
 40
5.465479
  1
2462
  7
STANDARD
  0
LINE
  8
A-WALL-1
 10
-322.000000
 20
-787.000000
 11
-322.000000
 21
-799.000000
  0
LINE
  8
A-WALL-1
 10
-318.000000
 20
-795.000000
 11
-318.000000
 21
-787.000000
  0
LINE
  8
A-WALL-1
 10
-322.000000
 20
-641.005066
 11
-322.000000
 21
-755.000000
  0
LINE
  8
A-WALL-1
 10
-318.000000
 20
-755.000000
 11
-318.000000
 21
-642.661926
  0
LINE
  8
A-GLAZ-1
 10
-322.000000
 20
-755.000000
 11
-318.000000
 21
-755.000000
  0
LINE
  8
A-GLAZ-1
 10
-318.000000
 20
-787.000000
 11
-322.000000
 21
-787.000000
  0
LINE
  8
A-GLAZ-1
 10
-318.000000
 20
-787.000000
 11
-318.000000
 21
-755.000000
  0
LINE
  8
A-GLAZ-1
 10
-322.000000
 20
-755.000000
 11
-322.000000
 21
-787.000000
  0
LINE
  8
A-GLAZ-1
 10
-320.000000
 20
-755.000000
 11
-320.000000
 21
-787.000000
  0
TEXT
  8
A-DIMS-1
 10
-326.448691
 20
-780.402974
 40
5.465479
  1
2862
 50
90.000000
  7
STANDARD
  0
LINE
  8
A-WALL-1
 10
-315.269196
 20
-634.274231
 11
-322.000000
 21
-641.005066
  0
LINE
  8
A-WALL-1
 10
-318.000000
 20
-642.661926
 11
-312.440765
 21
-637.102661
  0
LINE
  8
A-WALL-1
 10
-285.994934
 20
-605.000000
 11
-292.641785
 21
-611.646851
  0
LINE
  8
A-WALL-1
 10
-289.813354
 20
-614.475281
 11
-284.338074
 21
-609.000000
  0
LINE
  8
A-GLAZ-1
 10
-292.641770
 20
-611.646836
 11
-289.813343
 21
-614.475263
  0
LINE
  8
A-GLAZ-1
 10
-312.440760
 20
-637.102680
 11
-315.269187
 21
-634.274253
  0
LINE
  8
A-GLAZ-1
 10
-312.440760
 20
-637.102680
 11
-289.813343
 21
-614.475263
  0
LINE
  8
A-GLAZ-1
 10
-292.641770
 20
-611.646836
 11
-315.269187
 21
-634.274253
  0
LINE
  8
A-GLAZ-1
 10
-291.227557
 20
-613.061050
 11
-313.854974
 21
-635.688467
  0
TEXT
  8
A-DIMS-1
 10
-313.750086
 20
-626.463752
 40
5.465479
  1
2862
 50
45.000000
  7
STANDARD
  0
LINE
  8
A-WALL-1
 10
230.000000
 20
-255.000000
 11
206.000000
 21
-255.000000
  0
LINE
  8
A-WALL-1
 10
202.000000
 20
-259.000000
 11
226.000000
 21
-259.000000
  0
LINE
  8
A-WALL-1
 10
74.000000
 20
-105.000000
 11
74.000000
 21
-95.000000
  0
LINE
  8
A-WALL-1
 10
70.000000
 20
-99.000000
 11
70.000000
 21
-105.000000
  0
LINE
  8
A-WALL-1
 10
74.000000
 20
-171.000000
 11
74.000000
 21
-141.000000
  0
LINE
  8
A-WALL-1
 10
70.000000
 20
-141.000000
 11
70.000000
 21
-175.000000
  0
LINE
  8
A-GLAZ-1
 10
74.000000
 20
-105.000000
 11
70.000000
 21
-105.000000
  0
LINE
  8
A-GLAZ-1
 10
74.000000
 20
-141.000000
 11
70.000000
 21
-141.000000
  0
LINE
  8
A-GLAZ-1
 10
70.000000
 20
-105.000000
 11
34.000000
 21
-105.000000
  0
LINE
  8
A-GLAZ-1
 10
34.000000
 20
-106.750000
 11
70.000000
 21
-106.750000
  0
LINE
  8
A-GLAZ-1
 10
70.000000
 20
-106.750000
 11
70.000000
 21
-105.000000
  0
ARC
  8
A-GLAZ-1
 10
70.000000
 20
-105.000000
 40
36.000000
 50
180.000000
 51
270.000000
  0
LINE
  8
A-GLAZ-1
 10
74.000000
 20
-105.000000
 11
74.000000
 21
-141.000000
  0
TEXT
  8
A-DIMS-1
 10
83.672567
 20
-132.402974
 40
5.465479
  1
3068
 50
90.000000
  7
STANDARD
  0
LINE
  8
A-WALL-1
 10
-14.000000
 20
-563.000000
 11
-38.000000
 21
-563.000000
  0
LINE
  8
A-WALL-1
 10
4.000000
 20
-563.000000
 11
-10.000000
 21
-563.000000
  0
LINE
  8
A-WALL-1
 10
-38.000000
 20
-567.000000
 11
0.000000
 21
-567.000000
  0
LINE
  8
A-WALL-1
 10
72.707108
 20
-256.804657
 11
71.292892
 21
-255.390442
  0
LINE
  8
A-WALL-1
 10
-12.707107
 20
-339.390442
 11
-11.292893
 21
-340.804657
  0
LINE
  8
A-WALL-1
 10
-11.292893
 20
-340.804657
 11
72.707108
 21
-256.804657
  0
LINE
  8
A-WALL-1
 10
71.292892
 20
-255.390442
 11
-12.707107
 21
-339.390442
  0
LINE
  8
A-WALL-1
 10
-173.600937
 20
-514.000000
 11
-169.600937
 21
-514.000000
  0
LINE
  8
A-WALL-1
 10
-169.600937
 20
-474.000000
 11
-169.600937
 21
-470.828430
  0
LINE
  8
A-WALL-1
 10
-173.600937
 20
-472.000000
 11
-173.600937
 21
-474.000000
  0
LINE
  8
A-WALL-1
 10
-169.600937
 20
-514.000000
 11
-169.600937
 21
-510.000000
  0
LINE
  8
A-WALL-1
 10
-173.600937
 20
-510.000000
 11
-173.600937
 21
-514.000000
  0
LINE
  8
A-GLAZ-1
 10
-169.600938
 20
-474.000000
 11
-173.600938
 21
-474.000000
  0
LINE
  8
A-GLAZ-1
 10
-169.600938
 20
-510.000000
 11
-173.600938
 21
-510.000000
  0
LINE
  8
A-GLAZ-1
 10
-169.600938
 20
-474.000000
 11
-133.600938
 21
-474.000000
  0
LINE
  8
A-GLAZ-1
 10
-133.600938
 20
-475.375000
 11
-169.600938
 21
-475.375000
  0
LINE
  8
A-GLAZ-1
 10
-169.600938
 20
-475.375000
 11
-169.600938
 21
-474.000000
  0
ARC
  8
A-GLAZ-1
 10
-169.600938
 20
-474.000000
 40
36.000000
 50
270.000000
 51
0.000000
  0
TEXT
  8
A-DIMS-1
 10
-168.989001
 20
-501.402974
 40
5.465479
  1
3068
 50
90.000000
  7
STANDARD
  0
LINE
  8
A-WALL-1
 10
34.000000
 20
-526.000000
 11
38.000000
 21
-526.000000
  0
LINE
  8
A-WALL-1
 10
38.000000
 20
-522.000000
 11
34.000000
 21
-522.000000
  0
LINE
  8
A-WALL-1
 10
-10.000000
 20
-526.000000
 11
6.000000
 21
-526.000000
  0
LINE
  8
A-WALL-1
 10
6.000000
 20
-522.000000
 11
-32.074688
 21
-522.000000
  0
LINE
  8
A-WALL-1
 10
-38.000000
 20
-526.000000
 11
-14.000000
 21
-526.000000
  0
LINE
  8
A-WALL-1
 10
-36.074688
 20
-522.000000
 11
-42.000000
 21
-522.000000
  0
LINE
  8
A-GLAZ-1
 10
34.000000
 20
-526.000000
 11
34.000000
 21
-522.000000
  0
LINE
  8
A-GLAZ-1
 10
6.000000
 20
-526.000000
 11
6.000000
 21
-522.000000
  0
LINE
  8
A-GLAZ-1
 10
6.000000
 20
-522.000000
 11
6.000000
 21
-494.000000
  0
LINE
  8
A-GLAZ-1
 10
7.375000
 20
-494.000000
 11
7.375000
 21
-522.000000
  0
LINE
  8
A-GLAZ-1
 10
7.375000
 20
-522.000000
 11
6.000000
 21
-522.000000
  0
ARC
  8
A-GLAZ-1
 10
6.000000
 20
-522.000000
 40
28.000000
 50
0.000000
 51
90.000000
  0
TEXT
  8
A-DIMS-1
 10
10.597026
 20
-526.611938
 40
5.465479
  1
2468
  7
STANDARD
  0
LINE
  8
A-WALL-1
 10
-103.600937
 20
-409.000000
 11
-110.000000
 21
-409.000000
  0
LINE
  8
A-WALL-1
 10
-111.772514
 20
-413.000000
 11
-103.600937
 21
-413.000000
  0
LINE
  8
A-WALL-1
 10
-36.074688
 20
-409.000000
 11
-43.600937
 21
-409.000000
  0
LINE
  8
A-WALL-1
 10
-43.600937
 20
-413.000000
 11
-36.074688
 21
-413.000000
  0
LINE
  8
A-GLAZ-1
 10
-103.600938
 20
-409.000000
 11
-103.600938
 21
-413.000000
  0
LINE
  8
A-GLAZ-1
 10
-43.600938
 20
-409.000000
 11
-43.600938
 21
-413.000000
  0
TEXT
  8
A-DIMS-1
 10
-83.003913
 20
-413.611938
 40
5.465479
  1
5078
  7
STANDARD
  0
LINE
  8
A-WALL-1
 10
0.000000
 20
-567.000000
 11
0.000000
 21
-602.000000
  0
LINE
  8
A-WALL-1
 10
4.000000
 20
-598.000000
 11
4.000000
 21
-563.000000
  0
LINE
  8
A-WALL-1
  6
DOTTED
 10
-170.600937
 20
-609.000000
 11
-170.600937
 21
-514.000000
  0
LINE
  8
A-WALL-1
  6
DOTTED
 10
-172.600937
 20
-514.000000
 11
-172.600937
 21
-603.000000
  0
LINE
  8
A-WALL-1
  6
DOTTED
 10
-12.000000
 20
-341.097534
 11
-12.000000
 21
-339.097534
  0
LINE
  8
A-WALL-1
  6
DOTTED
 10
-110.000000
 20
-341.097534
 11
-12.000000
 21
-341.097534
  0
LINE
  8
A-WALL-1
  6
DOTTED
 10
-12.000000
 20
-339.097534
 11
-110.000000
 21
-339.097534
  0
LINE
  8
A-WALL-1
  6
DOTTED
 10
2.000000
 20
-607.000000
 11
2.000000
 21
-605.000000
  0
LINE
  8
A-WALL-1
  6
DOTTED
 10
2.000000
 20
-605.000000
 11
-38.000000
 21
-605.000000
  0
LINE
  8
A-WALL-1
  6
DOTTED
 10
-38.000000
 20
-607.000000
 11
2.000000
 21
-607.000000
  0
LINE
  8
A-WALL-1
 10
38.000000
 20
-405.871368
 11
-29.246262
 21
-405.871368
  0
LINE
  8
A-WALL-1
 10
-32.074688
 20
-409.871368
 11
38.000000
 21
-409.871368
  0
LINE
  8
A-WALL-1
  6
DOTTED
 10
1.000000
 20
-606.000000
 11
3.000000
 21
-606.000000
  0
LINE
  8
A-WALL-1
  6
DOTTED
 10
3.000000
 20
-606.000000
 11
3.000000
 21
-602.000000
  0
LINE
  8
A-WALL-1
  6
DOTTED
 10
1.000000
 20
-600.000000
 11
1.000000
 21
-606.000000
  0
LINE
  8
A-WALL-1
 10
38.000000
 20
-598.000000
 11
4.000000
 21
-598.000000
  0
LINE
  8
A-WALL-1
 10
0.000000
 20
-602.000000
 11
42.000000
 21
-602.000000
  0
LINE
  8
A-WALL-1
 10
226.000000
 20
-563.000000
 11
42.000000
 21
-563.000000
  0
LINE
  8
A-WALL-1
 10
42.000000
 20
-567.000000
 11
226.000000
 21
-567.000000
  0
LINE
  8
A-WALL-1
 10
-10.000000
 20
-563.000000
 11
-10.000000
 21
-526.000000
  0
LINE
  8
A-WALL-1
 10
-14.000000
 20
-526.000000
 11
-14.000000
 21
-563.000000
  0
LINE
  8
A-STAR-1
 10
-38.000000
 20
-606.000000
 11
-38.000000
 21
-616.000000
  0
LINE
  8
A-STAR-1
 10
-38.000000
 20
-616.000000
 11
1.000000
 21
-616.000000
  0
LINE
  8
A-STAR-1
 10
1.000000
 20
-616.000000
 11
1.000000
 21
-606.000000
  0
LINE
  8
A-STAR-1
 10
-38.000000
 20
-606.000000
 11
1.000000
 21
-606.000000
  0
LINE
  8
A-STAR-1
 10
-217.000000
 20
-603.000000
 11
-208.000000
 21
-603.000000
  0
LINE
  8
A-STAR-1
 10
-208.000000
 20
-603.000000
 11
-208.000000
 21
-561.000000
  0
LINE
  8
A-STAR-1
 10
-208.000000
 20
-561.000000
 11
-217.000000
 21
-561.000000
  0
LINE
  8
A-STAR-1
 10
-226.000000
 20
-603.000000
 11
-217.000000
 21
-603.000000
  0
LINE
  8
A-STAR-1
 10
-217.000000
 20
-603.000000
 11
-217.000000
 21
-561.000000
  0
LINE
  8
A-STAR-1
 10
-217.000000
 20
-561.000000
 11
-226.000000
 21
-561.000000
  0
LINE
  8
A-STAR-1
 10
-226.000000
 20
-603.000000
 11
-226.000000
 21
-561.000000
  0
TEXT
  8
A-POWR-1
 10
-222.004971
 20
-581.162893
 40
4.554566
  1
UP
  7
STANDARD
  0
LINE
  8
A-STAR-1
 10
-227.000000
 20
-584.000000
 11
-216.000000
 21
-584.000000
  0
LINE
  8
A-STAR-1
 10
-226.000000
 20
-560.500000
 11
-226.000000
 21
-603.500000
  0
LINE
  8
A-STAR-1
 10
-226.000000
 20
-603.500000
 11
-268.000000
 21
-603.500000
  0
LINE
  8
A-STAR-1
 10
-268.000000
 20
-603.500000
 11
-268.000000
 21
-560.500000
  0
LINE
  8
A-STAR-1
 10
-268.000000
 20
-560.500000
 11
-226.000000
 21
-560.500000
  0
LINE
  8
A-STAR-1
 10
-268.000000
 20
-551.200000
 11
-268.000000
 21
-560.500000
  0
LINE
  8
A-STAR-1
 10
-268.000000
 20
-560.500000
 11
-226.000000
 21
-560.500000
  0
LINE
  8
A-STAR-1
 10
-226.000000
 20
-560.500000
 11
-226.000000
 21
-551.200000
  0
LINE
  8
A-STAR-1
 10
-268.000000
 20
-541.900000
 11
-268.000000
 21
-551.200000
  0
LINE
  8
A-STAR-1
 10
-268.000000
 20
-551.200000
 11
-226.000000
 21
-551.200000
  0
LINE
  8
A-STAR-1
 10
-226.000000
 20
-551.200000
 11
-226.000000
 21
-541.900000
  0
LINE
  8
A-STAR-1
 10
-268.000000
 20
-532.600000
 11
-268.000000
 21
-541.900000
  0
LINE
  8
A-STAR-1
 10
-268.000000
 20
-541.900000
 11
-226.000000
 21
-541.900000
  0
LINE
  8
A-STAR-1
 10
-226.000000
 20
-541.900000
 11
-226.000000
 21
-532.600000
  0
LINE
  8
A-STAR-1
 10
-268.000000
 20
-523.300000
 11
-268.000000
 21
-532.600000
  0
LINE
  8
A-STAR-1
 10
-268.000000
 20
-532.600000
 11
-226.000000
 21
-532.600000
  0
LINE
  8
A-STAR-1
 10
-226.000000
 20
-532.600000
 11
-226.000000
 21
-523.300000
  0
LINE
  8
A-STAR-1
 10
-268.000000
 20
-514.000000
 11
-268.000000
 21
-523.300000
  0
LINE
  8
A-STAR-1
 10
-268.000000
 20
-523.300000
 11
-226.000000
 21
-523.300000
  0
LINE
  8
A-STAR-1
 10
-226.000000
 20
-523.300000
 11
-226.000000
 21
-514.000000
  0
LINE
  8
A-STAR-1
 10
-268.000000
 20
-514.000000
 11
-226.000000
 21
-514.000000
  0
LINE
  8
A-STAR-1
 10
-225.500000
 20
-514.000000
 11
-268.000000
 21
-514.000000
  0
LINE
  8
A-STAR-1
 10
-268.000000
 20
-514.000000
 11
-268.000000
 21
-472.000000
  0
LINE
  8
A-STAR-1
 10
-268.000000
 20
-472.000000
 11
-225.500000
 21
-472.000000
  0
LINE
  8
A-STAR-1
 10
-225.500000
 20
-472.000000
 11
-225.500000
 21
-514.000000
  0
LINE
  8
A-STAR-1
 10
-216.500000
 20
-472.000000
 11
-225.500000
 21
-472.000000
  0
LINE
  8
A-STAR-1
 10
-225.500000
 20
-472.000000
 11
-225.500000
 21
-514.000000
  0
LINE
  8
A-STAR-1
 10
-225.500000
 20
-514.000000
 11
-216.500000
 21
-514.000000
  0
LINE
  8
A-STAR-1
 10
-207.500000
 20
-472.000000
 11
-216.500000
 21
-472.000000
  0
LINE
  8
A-STAR-1
 10
-216.500000
 20
-472.000000
 11
-216.500000
 21
-514.000000
  0
LINE
  8
A-STAR-1
 10
-216.500000
 20
-514.000000
 11
-207.500000
 21
-514.000000
  0
LINE
  8
A-STAR-1
 10
-198.500000
 20
-472.000000
 11
-207.500000
 21
-472.000000
  0
LINE
  8
A-STAR-1
 10
-207.500000
 20
-472.000000
 11
-207.500000
 21
-514.000000
  0
LINE
  8
A-STAR-1
 10
-207.500000
 20
-514.000000
 11
-198.500000
 21
-514.000000
  0
LINE
  8
A-STAR-1
 10
-189.500000
 20
-472.000000
 11
-198.500000
 21
-472.000000
  0
LINE
  8
A-STAR-1
 10
-198.500000
 20
-472.000000
 11
-198.500000
 21
-514.000000
  0
LINE
  8
A-STAR-1
 10
-198.500000
 20
-514.000000
 11
-189.500000
 21
-514.000000
  0
LINE
  8
A-STAR-1
 10
-180.500000
 20
-472.000000
 11
-189.500000
 21
-472.000000
  0
LINE
  8
A-STAR-1
 10
-189.500000
 20
-472.000000
 11
-189.500000
 21
-514.000000
  0
LINE
  8
A-STAR-1
 10
-189.500000
 20
-514.000000
 11
-180.500000
 21
-514.000000
  0
LINE
  8
A-STAR-1
 10
-171.500000
 20
-472.000000
 11
-180.500000
 21
-472.000000
  0
LINE
  8
A-STAR-1
 10
-180.500000
 20
-472.000000
 11
-180.500000
 21
-514.000000
  0
LINE
  8
A-STAR-1
 10
-180.500000
 20
-514.000000
 11
-171.500000
 21
-514.000000
  0
LINE
  8
A-STAR-1
 10
-171.500000
 20
-472.000000
 11
-171.500000
 21
-514.000000
  0
INSERT
  8
A-CASE-1
  2
FIXT-Toilet
 10
20.750017
 20
-568.019364
 41
1.000000
 42
1.071429
 43
 1.0
 50
-180.000000
  0
INSERT
  8
A-CASE-1
  2
FIXT-OvalFree
 10
6.399609
 20
-544.628700
 41
1.000000
 42
0.842105
 43
 1.0
 50
-270.000000
  0
INSERT
  8
A-CASE-1
  2
FIXT-fire3618
 10
-274.017510
 20
-363.107800
 41
1.000000
 42
0.857143
 43
 1.0
 50
-270.000000
  0
INSERT
  8
A-CASE-1
  2
FIXT-fire3618
 10
-20.108852
 20
-94.979571
 41
1.000000
 42
1.000000
 43
 1.0
 50
0.000000
  0
LINE
  8
A-CASE-1
 10
10.790252
 20
-99.000000
 11
10.790252
 21
-121.000000
  0
LINE
  8
A-CASE-1
 10
-51.209748
 20
-121.000000
 11
-51.209748
 21
-99.000000
  0
LINE
  8
A-CASE-1
 10
10.790252
 20
-121.000000
 11
-51.209748
 21
-121.000000
  0
LINE
  8
A-CASE-1
 10
-15.209748
 20
-116.000000
 11
-20.209748
 21
-121.000000
  0
LINE
  8
A-CASE-1
 10
-25.209748
 20
-116.000000
 11
-20.209748
 21
-121.000000
  0
INSERT
  8
A-FURN-1
  2
FIXT-shelf4
 10
46.850500
 20
-261.120554
 41
0.854167
 42
1.000000
 43
 1.0
 50
-135.000000
  0
INSERT
  8
A-FURN-1
  2
FIXT-shelf4
 10
-7.596722
 20
-315.567776
 41
0.854167
 42
1.000000
 43
 1.0
 50
-135.000000
  0
INSERT
  8
A-FURN-1
  2
FIXT-shelf4
 10
13.955148
 20
-282.672424
 41
0.750000
 42
1.666667
 43
 1.0
 50
-135.000000
  0
INSERT
  8
A-FURN-1
  2
FIXT-book1230
 10
35.482489
 20
-304.220246
 41
1.133333
 42
0.500000
 43
 1.0
 50
45.000000
  0
INSERT
  8
A-FURN-1
  2
FIXT-book1230
 10
59.170566
 20
-280.532169
 41
1.100000
 42
0.500000
 43
 1.0
 50
45.000000
  0
INSERT
  8
A-FURN-1
  2
FIXT-book1230
 10
11.440859
 20
-328.261877
 41
1.133333
 42
0.500000
 43
 1.0
 50
45.000000
  0
TEXT
  8
A-NOTE-1
 10
-34.482395
 20
-583.705842
 40
5.566691
  1
LANDING
  7
STANDARD
  0
TEXT
  8
A-NOTE-1
 10
-26.852550
 20
-590.682430
 40
3.830841
  1
3'2 x 3'2
  7
STANDARD
  0
TEXT
  8
A-NOTE-1
 10
-3.694208
 20
-397.291743
 40
4.554566
  1
CLOSET
  7
STANDARD
  0
TEXT
  8
A-NOTE-1
 10
-0.545711
 20
-403.410518
 40
3.351986
  1
3'10 x 1'3
  7
STANDARD
  0
TEXT
  8
A-NOTE-1
 10
-241.437980
 20
-370.491129
 40
9.615194
  1
LIVING ROOM
  7
STANDARD
  0
TEXT
  8
A-NOTE-1
 10
-216.814203
 20
-383.456872
 40
7.182828
  1
13' x 17'5
  7
STANDARD
  0
TEXT
  8
A-NOTE-1
 10
63.975893
 20
-711.028173
 40
9.615194
  1
GARAGE
  7
STANDARD
  0
TEXT
  8
A-NOTE-1
 10
72.055872
 20
-723.993915
 40
7.182828
  1
22' x 22'4
  7
STANDARD
  0
TEXT
  8
A-NOTE-1
 10
-89.904701
 20
-889.018993
 40
9.615194
  1
LIVING AREA
  7
STANDARD
  0
TEXT
  8
A-NOTE-1
 10
-69.507436
 20
-901.984735
 40
7.182828
  1
1761 sq ft
  7
STANDARD
  0
TEXT
  8
A-NOTE-1
 10
85.641201
 20
-503.018993
 40
9.615194
  1
DINING ROOM
  7
STANDARD
  0
TEXT
  8
A-NOTE-1
 10
111.961779
 20
-515.984735
 40
7.182828
  1
15'4 x 12'
  7
STANDARD
  0
TEXT
  8
A-NOTE-1
 10
44.039305
 20
-402.176537
 40
3.542440
  1
CHASE
  7
STANDARD
  0
TEXT
  8
A-NOTE-1
 10
47.863384
 20
-406.838932
 40
2.394276
  1
1'7 x 2'
  7
STANDARD
  0
TEXT
  8
A-NOTE-1
 10
99.948406
 20
-336.864223
 40
9.615194
  1
KITCHEN
  7
STANDARD
  0
TEXT
  8
A-NOTE-1
 10
111.815215
 20
-349.829966
 40
7.182828
  1
28' x 13'
  7
STANDARD
  0
TEXT
  8
A-NOTE-1
 10
-78.458781
 20
-245.364458
 40
9.615194
  1
FAMILY ROOM
  7
STANDARD
  0
TEXT
  8
A-NOTE-1
 10
-48.987673
 20
-258.330200
 40
7.182828
  1
15' x 20'
  7
STANDARD
  0
TEXT
  8
A-NOTE-1
 10
-133.805915
 20
-751.002437
 40
9.615194
  1
PORCH
  7
STANDARD
  0
TEXT
  8
A-NOTE-1
 10
-124.515277
 20
-763.968179
 40
7.182828
  1
11' x 4'
  7
STANDARD
  0
TEXT
  8
A-NOTE-1
 10
12.050616
 20
-543.954836
 40
5.566691
  1
BATH
  7
STANDARD
  0
TEXT
  8
A-NOTE-1
 10
15.785185
 20
-550.931424
 40
3.830841
  1
4' x 6'
  7
STANDARD
  0
TEXT
  8
A-NOTE-1
 10
-222.426777
 20
-536.872779
 40
5.566691
  1
OPEN ABOVE
  7
STANDARD
  0
TEXT
  8
A-NOTE-1
 10
-211.014420
 20
-543.849367
 40
3.830841
  1
7'11 x 10'11
  7
STANDARD
  0
TEXT
  8
A-NOTE-1
 10
95.716301
 20
-227.518993
 40
9.615194
  1
BREAKFAST
  7
STANDARD
  0
TEXT
  8
A-NOTE-1
 10
109.584919
 20
-240.484735
 40
7.182828
  1
10'10 x 6'10
  7
STANDARD
  0
TEXT
  8
A-NOTE-1
 10
-26.158190
 20
-437.613437
 40
7.084880
  1
ELEVATOR
  7
STANDARD
  0
TEXT
  8
A-NOTE-1
 10
-15.871200
 20
-447.536796
 40
5.267407
  1
5'10 x 4'10
  7
STANDARD
  0
TEXT
  8
A-NOTE-1
 10
-129.618964
 20
-583.877473
 40
9.615194
  1
FOYER
  7
STANDARD
  0
TEXT
  8
A-NOTE-1
 10
-130.628315
 20
-596.843216
 40
7.182828
  1
10'8 x 25'6
  7
STANDARD
  0
TEXT
  8
A-NOTE-1
 10
-24.646000
 20
-496.298960
 40
7.084880
  1
HALL
  7
STANDARD
  0
TEXT
  8
A-NOTE-1
 10
-27.556163
 20
-506.222318
 40
5.267407
  1
5'10 x 4'2
  7
STANDARD
  0
TEXT
  8
A-NOTE-1
 10
-271.707178
 20
-717.426207
 40
9.615194
  1
STUDY
  7
STANDARD
  0
TEXT
  8
A-NOTE-1
 10
-272.928630
 20
-730.391950
 40
7.182828
  1
11'8 x 15'6
  7
STANDARD
  0
TEXT
  8
A-NOTE-1
 10
-35.692041
 20
-545.713789
 40
3.542440
  1
CLOSET
  7
STANDARD
  0
TEXT
  8
A-NOTE-1
 10
-30.332762
 20
-550.376184
 40
2.394276
  1
2' x 3'1
  7
STANDARD
  0
TEXT
  8
A-TEXT-1
 10
-393.523301
 20
-50.365737
 40
7.084880
  1
Strang/Smith 12/2/2000
  7
STANDARD
  0
LINE
  8
A-DIMS-1
 10
-170.037000
 20
-799.000000
 11
-134.037000
 21
-799.000000
  0
LINE
  8
A-DIMS-1
 10
-135.537000
 20
-796.000000
 11
-137.037000
 21
-799.000000
  0
LINE
  8
A-DIMS-1
 10
-138.537000
 20
-778.000000
 11
-137.037000
 21
-775.000000
  0
LINE
  8
A-DIMS-1
 10
-137.037000
 20
-792.855637
 11
-137.037000
 21
-799.000000
  0
LINE
  8
A-DIMS-1
 10
-137.037000
 20
-781.144363
 11
-137.037000
 21
-775.000000
  0
TEXT
  8
A-DIMS-1
 10
-134.425062
 20
-790.134325
 40
5.465479
  1
2'
 50
90.000000
  7
STANDARD
  0
LINE
  8
A-DIMS-1
 10
304.963000
 20
-839.000000
 11
320.963000
 21
-839.000000
  0
LINE
  8
A-DIMS-1
 10
319.463000
 20
-836.000000
 11
317.963000
 21
-839.000000
  0
LINE
  8
A-DIMS-1
 10
304.963000
 20
-95.000000
 11
320.963000
 21
-95.000000
  0
LINE
  8
A-DIMS-1
 10
316.463000
 20
-98.000000
 11
317.963000
 21
-95.000000
  0
LINE
  8
A-DIMS-1
 10
317.963000
 20
-475.206381
 11
317.963000
 21
-839.000000
  0
LINE
  8
A-DIMS-1
 10
317.963000
 20
-458.793619
 11
317.963000
 21
-95.000000
  0
TEXT
  8
A-DIMS-1
 10
320.574938
 20
-472.485068
 40
5.465479
  1
62'
 50
90.000000
  7
STANDARD
  0
LINE
  8
A-DIMS-1
 10
105.963000
 20
-839.000000
 11
302.963000
 21
-839.000000
  0
LINE
  8
A-DIMS-1
 10
301.463000
 20
-836.000000
 11
299.963000
 21
-839.000000
  0
LINE
  8
A-DIMS-1
 10
286.963000
 20
-811.000000
 11
302.963000
 21
-811.000000
  0
LINE
  8
A-DIMS-1
 10
301.463000
 20
-808.000000
 11
299.963000
 21
-811.000000
  0
LINE
  8
A-DIMS-1
 10
298.463000
 20
-814.000000
 11
299.963000
 21
-811.000000
  0
LINE
  8
A-DIMS-1
 10
299.963000
 20
-833.206381
 11
299.963000
 21
-839.000000
  0
LINE
  8
A-DIMS-1
 10
299.963000
 20
-816.793619
 11
299.963000
 21
-811.000000
  0
TEXT
  8
A-DIMS-1
 10
302.574938
 20
-830.485068
 40
5.465479
  1
2'4
 50
90.000000
  7
STANDARD
  0
LINE
  8
A-DIMS-1
 10
286.963000
 20
-565.000000
 11
302.963000
 21
-565.000000
  0
LINE
  8
A-DIMS-1
 10
301.463000
 20
-562.000000
 11
299.963000
 21
-565.000000
  0
LINE
  8
A-DIMS-1
 10
298.463000
 20
-568.000000
 11
299.963000
 21
-565.000000
  0
LINE
  8
A-DIMS-1
 10
299.963000
 20
-698.557124
 11
299.963000
 21
-811.000000
  0
LINE
  8
A-DIMS-1
 10
299.963000
 20
-677.442876
 11
299.963000
 21
-565.000000
  0
TEXT
  8
A-DIMS-1
 10
302.574938
 20
-695.835812
 40
5.465479
  1
20'6
 50
90.000000
  7
STANDARD
  0
LINE
  8
A-DIMS-1
 10
286.963000
 20
-417.000000
 11
302.963000
 21
-417.000000
  0
LINE
  8
A-DIMS-1
 10
301.463000
 20
-414.000000
 11
299.963000
 21
-417.000000
  0
LINE
  8
A-DIMS-1
 10
298.463000
 20
-420.000000
 11
299.963000
 21
-417.000000
  0
LINE
  8
A-DIMS-1
 10
299.963000
 20
-501.557124
 11
299.963000
 21
-565.000000
  0
LINE
  8
A-DIMS-1
 10
299.963000
 20
-480.442876
 11
299.963000
 21
-417.000000
  0
TEXT
  8
A-DIMS-1
 10
302.574938
 20
-498.835812
 40
5.465479
  1
12'4
 50
90.000000
  7
STANDARD
  0
LINE
  8
A-DIMS-1
 10
286.963000
 20
-255.000000
 11
302.963000
 21
-255.000000
  0
LINE
  8
A-DIMS-1
 10
301.463000
 20
-252.000000
 11
299.963000
 21
-255.000000
  0
LINE
  8
A-DIMS-1
 10
298.463000
 20
-258.000000
 11
299.963000
 21
-255.000000
  0
LINE
  8
A-DIMS-1
 10
299.963000
 20
-346.557124
 11
299.963000
 21
-417.000000
  0
LINE
  8
A-DIMS-1
 10
299.963000
 20
-325.442876
 11
299.963000
 21
-255.000000
  0
TEXT
  8
A-DIMS-1
 10
302.574938
 20
-343.835812
 40
5.465479
  1
13'6
 50
90.000000
  7
STANDARD
  0
LINE
  8
A-DIMS-1
 10
286.963000
 20
-171.000000
 11
302.963000
 21
-171.000000
  0
LINE
  8
A-DIMS-1
 10
301.463000
 20
-168.000000
 11
299.963000
 21
-171.000000
  0
LINE
  8
A-DIMS-1
 10
298.463000
 20
-174.000000
 11
299.963000
 21
-171.000000
  0
LINE
  8
A-DIMS-1
 10
299.963000
 20
-218.855637
 11
299.963000
 21
-255.000000
  0
LINE
  8
A-DIMS-1
 10
299.963000
 20
-207.144363
 11
299.963000
 21
-171.000000
  0
TEXT
  8
A-DIMS-1
 10
302.574938
 20
-216.134325
 40
5.465479
  1
7'
 50
90.000000
  7
STANDARD
  0
LINE
  8
A-DIMS-1
 10
286.963000
 20
-95.000000
 11
302.963000
 21
-95.000000
  0
LINE
  8
A-DIMS-1
 10
298.463000
 20
-98.000000
 11
299.963000
 21
-95.000000
  0
LINE
  8
A-DIMS-1
 10
299.963000
 20
-141.206381
 11
299.963000
 21
-171.000000
  0
LINE
  8
A-DIMS-1
 10
299.963000
 20
-124.793619
 11
299.963000
 21
-95.000000
  0
TEXT
  8
A-DIMS-1
 10
302.574938
 20
-138.485068
 40
5.465479
  1
6'4
 50
90.000000
  7
STANDARD
  0
LINE
  8
A-DIMS-1
 10
233.963000
 20
-255.000000
 11
284.963000
 21
-255.000000
  0
LINE
  8
A-DIMS-1
 10
283.463000
 20
-252.000000
 11
281.963000
 21
-255.000000
  0
LINE
  8
A-DIMS-1
 10
218.963000
 20
-215.000000
 11
284.963000
 21
-215.000000
  0
LINE
  8
A-DIMS-1
 10
283.463000
 20
-212.000000
 11
281.963000
 21
-215.000000
  0
LINE
  8
A-DIMS-1
 10
280.463000
 20
-218.000000
 11
281.963000
 21
-215.000000
  0
LINE
  8
A-DIMS-1
 10
281.963000
 20
-243.206381
 11
281.963000
 21
-255.000000
  0
LINE
  8
A-DIMS-1
 10
281.963000
 20
-226.793619
 11
281.963000
 21
-215.000000
  0
TEXT
  8
A-DIMS-1
 10
284.574938
 20
-240.485068
 40
5.465479
  1
3'4
 50
90.000000
  7
STANDARD
  0
LINE
  8
A-DIMS-1
 10
209.963000
 20
-171.000000
 11
284.963000
 21
-171.000000
  0
LINE
  8
A-DIMS-1
 10
283.463000
 20
-168.000000
 11
281.963000
 21
-171.000000
  0
LINE
  8
A-DIMS-1
 10
280.463000
 20
-174.000000
 11
281.963000
 21
-171.000000
  0
LINE
  8
A-DIMS-1
 10
281.963000
 20
-201.206381
 11
281.963000
 21
-215.000000
  0
LINE
  8
A-DIMS-1
 10
281.963000
 20
-184.793619
 11
281.963000
 21
-171.000000
  0
TEXT
  8
A-DIMS-1
 10
284.574938
 20
-198.485068
 40
5.465479
  1
3'8
 50
90.000000
  7
STANDARD
  0
LINE
  8
A-DIMS-1
 10
86.963000
 20
-123.000000
 11
284.963000
 21
-123.000000
  0
LINE
  8
A-DIMS-1
 10
283.463000
 20
-120.000000
 11
281.963000
 21
-123.000000
  0
LINE
  8
A-DIMS-1
 10
280.463000
 20
-126.000000
 11
281.963000
 21
-123.000000
  0
LINE
  8
A-DIMS-1
 10
281.963000
 20
-152.855637
 11
281.963000
 21
-171.000000
  0
LINE
  8
A-DIMS-1
 10
281.963000
 20
-141.144363
 11
281.963000
 21
-123.000000
  0
TEXT
  8
A-DIMS-1
 10
284.574938
 20
-150.134325
 40
5.465479
  1
4'
 50
90.000000
  7
STANDARD
  0
LINE
  8
A-DIMS-1
 10
77.963000
 20
-95.000000
 11
284.963000
 21
-95.000000
  0
LINE
  8
A-DIMS-1
 10
280.463000
 20
-98.000000
 11
281.963000
 21
-95.000000
  0
LINE
  8
A-DIMS-1
 10
281.963000
 20
-117.206381
 11
281.963000
 21
-123.000000
  0
LINE
  8
A-DIMS-1
 10
281.963000
 20
-100.793619
 11
281.963000
 21
-95.000000
  0
TEXT
  8
A-DIMS-1
 10
284.574938
 20
-114.485068
 40
5.465479
  1
2'4
 50
90.000000
  7
STANDARD
  0
LINE
  8
A-DIMS-1
 10
233.963000
 20
-811.000000
 11
284.963000
 21
-811.000000
  0
LINE
  8
A-DIMS-1
 10
283.463000
 20
-808.000000
 11
281.963000
 21
-811.000000
  0
LINE
  8
A-DIMS-1
 10
242.963000
 20
-589.000000
 11
284.963000
 21
-589.000000
  0
LINE
  8
A-DIMS-1
 10
283.463000
 20
-586.000000
 11
281.963000
 21
-589.000000
  0
LINE
  8
A-DIMS-1
 10
280.463000
 20
-592.000000
 11
281.963000
 21
-589.000000
  0
LINE
  8
A-DIMS-1
 10
281.963000
 20
-710.557124
 11
281.963000
 21
-811.000000
  0
LINE
  8
A-DIMS-1
 10
281.963000
 20
-689.442876
 11
281.963000
 21
-589.000000
  0
TEXT
  8
A-DIMS-1
 10
284.574938
 20
-707.835812
 40
5.465479
  1
18'6
 50
90.000000
  7
STANDARD
  0
LINE
  8
A-DIMS-1
 10
233.963000
 20
-565.000000
 11
284.963000
 21
-565.000000
  0
LINE
  8
A-DIMS-1
 10
283.463000
 20
-562.000000
 11
281.963000
 21
-565.000000
  0
LINE
  8
A-DIMS-1
 10
280.463000
 20
-568.000000
 11
281.963000
 21
-565.000000
  0
LINE
  8
A-DIMS-1
 10
281.963000
 20
-582.855637
 11
281.963000
 21
-589.000000
  0
LINE
  8
A-DIMS-1
 10
281.963000
 20
-571.144363
 11
281.963000
 21
-565.000000
  0
TEXT
  8
A-DIMS-1
 10
284.574938
 20
-580.134325
 40
5.465479
  1
2'
 50
90.000000
  7
STANDARD
  0
LINE
  8
A-DIMS-1
 10
266.963000
 20
-491.000000
 11
284.963000
 21
-491.000000
  0
LINE
  8
A-DIMS-1
 10
283.463000
 20
-488.000000
 11
281.963000
 21
-491.000000
  0
LINE
  8
A-DIMS-1
 10
280.463000
 20
-494.000000
 11
281.963000
 21
-491.000000
  0
LINE
  8
A-DIMS-1
 10
281.963000
 20
-536.206381
 11
281.963000
 21
-565.000000
  0
LINE
  8
A-DIMS-1
 10
281.963000
 20
-519.793619
 11
281.963000
 21
-491.000000
  0
TEXT
  8
A-DIMS-1
 10
284.574938
 20
-533.485068
 40
5.465479
  1
6'2
 50
90.000000
  7
STANDARD
  0
LINE
  8
A-DIMS-1
 10
233.963000
 20
-417.000000
 11
284.963000
 21
-417.000000
  0
LINE
  8
A-DIMS-1
 10
280.463000
 20
-420.000000
 11
281.963000
 21
-417.000000
  0
LINE
  8
A-DIMS-1
 10
281.963000
 20
-462.206381
 11
281.963000
 21
-491.000000
  0
LINE
  8
A-DIMS-1
 10
281.963000
 20
-445.793619
 11
281.963000
 21
-417.000000
  0
TEXT
  8
A-DIMS-1
 10
284.574938
 20
-459.485068
 40
5.465479
  1
6'2
 50
90.000000
  7
STANDARD
  0
LINE
  8
A-DIMS-1
 10
-322.000000
 20
-897.642194
 11
-322.000000
 21
-913.642194
  0
LINE
  8
A-DIMS-1
 10
-319.000000
 20
-912.142194
 11
-322.000000
 21
-910.642194
  0
LINE
  8
A-DIMS-1
 10
230.000000
 20
-897.642194
 11
230.000000
 21
-913.642194
  0
LINE
  8
A-DIMS-1
 10
227.000000
 20
-909.142194
 11
230.000000
 21
-910.642194
  0
LINE
  8
A-DIMS-1
 10
-54.206381
 20
-910.642194
 11
-322.000000
 21
-910.642194
  0
LINE
  8
A-DIMS-1
 10
-37.793619
 20
-910.642194
 11
230.000000
 21
-910.642194
  0
TEXT
  8
A-DIMS-1
 10
-51.485068
 20
-913.254131
 40
5.465479
  1
46'
  7
STANDARD
  0
LINE
  8
A-DIMS-1
 10
-322.000000
 20
-879.642194
 11
-322.000000
 21
-895.642194
  0
LINE
  8
A-DIMS-1
 10
-319.000000
 20
-894.142194
 11
-322.000000
 21
-892.642194
  0
LINE
  8
A-DIMS-1
 10
-174.000000
 20
-879.642194
 11
-174.000000
 21
-895.642194
  0
LINE
  8
A-DIMS-1
 10
-171.000000
 20
-894.142194
 11
-174.000000
 21
-892.642194
  0
LINE
  8
A-DIMS-1
 10
-177.000000
 20
-891.142194
 11
-174.000000
 21
-892.642194
  0
LINE
  8
A-DIMS-1
 10
-258.557124
 20
-892.642194
 11
-322.000000
 21
-892.642194
  0
LINE
  8
A-DIMS-1
 10
-237.442876
 20
-892.642194
 11
-174.000000
 21
-892.642194
  0
TEXT
  8
A-DIMS-1
 10
-255.835812
 20
-895.254131
 40
5.465479
  1
12'4
  7
STANDARD
  0
LINE
  8
A-DIMS-1
 10
-42.000000
 20
-879.642194
 11
-42.000000
 21
-895.642194
  0
LINE
  8
A-DIMS-1
 10
-39.000000
 20
-894.142194
 11
-42.000000
 21
-892.642194
  0
LINE
  8
A-DIMS-1
 10
-45.000000
 20
-891.142194
 11
-42.000000
 21
-892.642194
  0
LINE
  8
A-DIMS-1
 10
-116.206381
 20
-892.642194
 11
-174.000000
 21
-892.642194
  0
LINE
  8
A-DIMS-1
 10
-99.793619
 20
-892.642194
 11
-42.000000
 21
-892.642194
  0
TEXT
  8
A-DIMS-1
 10
-113.485068
 20
-895.254131
 40
5.465479
  1
11'
  7
STANDARD
  0
LINE
  8
A-DIMS-1
 10
102.000000
 20
-879.642194
 11
102.000000
 21
-895.642194
  0
LINE
  8
A-DIMS-1
 10
105.000000
 20
-894.142194
 11
102.000000
 21
-892.642194
  0
LINE
  8
A-DIMS-1
 10
99.000000
 20
-891.142194
 11
102.000000
 21
-892.642194
  0
LINE
  8
A-DIMS-1
 10
21.793619
 20
-892.642194
 11
-42.000000
 21
-892.642194
  0
LINE
  8
A-DIMS-1
 10
38.206381
 20
-892.642194
 11
102.000000
 21
-892.642194
  0
TEXT
  8
A-DIMS-1
 10
24.514932
 20
-895.254131
 40
5.465479
  1
12'
  7
STANDARD
  0
LINE
  8
A-DIMS-1
 10
230.000000
 20
-879.642194
 11
230.000000
 21
-895.642194
  0
LINE
  8
A-DIMS-1
 10
227.000000
 20
-891.142194
 11
230.000000
 21
-892.642194
  0
LINE
  8
A-DIMS-1
 10
155.442876
 20
-892.642194
 11
102.000000
 21
-892.642194
  0
LINE
  8
A-DIMS-1
 10
176.557124
 20
-892.642194
 11
230.000000
 21
-892.642194
  0
TEXT
  8
A-DIMS-1
 10
158.164188
 20
-895.254131
 40
5.465479
  1
10'8
  7
STANDARD
  0
LINE
  8
A-DIMS-1
 10
-322.000000
 20
-802.642194
 11
-322.000000
 21
-877.642194
  0
LINE
  8
A-DIMS-1
 10
-319.000000
 20
-876.142194
 11
-322.000000
 21
-874.642194
  0
LINE
  8
A-DIMS-1
 10
-283.000000
 20
-811.642194
 11
-283.000000
 21
-877.642194
  0
LINE
  8
A-DIMS-1
 10
-280.000000
 20
-876.142194
 11
-283.000000
 21
-874.642194
  0
LINE
  8
A-DIMS-1
 10
-286.000000
 20
-873.142194
 11
-283.000000
 21
-874.642194
  0
LINE
  8
A-DIMS-1
 10
-310.706381
 20
-874.642194
 11
-322.000000
 21
-874.642194
  0
LINE
  8
A-DIMS-1
 10
-294.293619
 20
-874.642194
 11
-283.000000
 21
-874.642194
  0
TEXT
  8
A-DIMS-1
 10
-307.985068
 20
-877.254131
 40
5.465479
  1
3'3
  7
STANDARD
  0
LINE
  8
A-DIMS-1
 10
-248.000000
 20
-811.642194
 11
-248.000000
 21
-877.642194
  0
LINE
  8
A-DIMS-1
 10
-245.000000
 20
-876.142194
 11
-248.000000
 21
-874.642194
  0
LINE
  8
A-DIMS-1
 10
-251.000000
 20
-873.142194
 11
-248.000000
 21
-874.642194
  0
LINE
  8
A-DIMS-1
 10
-276.057124
 20
-874.642194
 11
-283.000000
 21
-874.642194
  0
LINE
  8
A-DIMS-1
 10
-254.942876
 20
-874.642194
 11
-248.000000
 21
-874.642194
  0
TEXT
  8
A-DIMS-1
 10
-273.335812
 20
-877.254131
 40
5.465479
  1
2'11
  7
STANDARD
  0
LINE
  8
A-DIMS-1
 10
-213.000000
 20
-811.642194
 11
-213.000000
 21
-877.642194
  0
LINE
  8
A-DIMS-1
 10
-210.000000
 20
-876.142194
 11
-213.000000
 21
-874.642194
  0
LINE
  8
A-DIMS-1
 10
-216.000000
 20
-873.142194
 11
-213.000000
 21
-874.642194
  0
LINE
  8
A-DIMS-1
 10
-241.057124
 20
-874.642194
 11
-248.000000
 21
-874.642194
  0
LINE
  8
A-DIMS-1
 10
-219.942876
 20
-874.642194
 11
-213.000000
 21
-874.642194
  0
TEXT
  8
A-DIMS-1
 10
-238.335812
 20
-877.254131
 40
5.465479
  1
2'11
  7
STANDARD
  0
LINE
  8
A-DIMS-1
 10
-174.000000
 20
-802.642194
 11
-174.000000
 21
-877.642194
  0
LINE
  8
A-DIMS-1
 10
-171.000000
 20
-876.142194
 11
-174.000000
 21
-874.642194
  0
LINE
  8
A-DIMS-1
 10
-177.000000
 20
-873.142194
 11
-174.000000
 21
-874.642194
  0
LINE
  8
A-DIMS-1
 10
-201.706381
 20
-874.642194
 11
-213.000000
 21
-874.642194
  0
LINE
  8
A-DIMS-1
 10
-185.293619
 20
-874.642194
 11
-174.000000
 21
-874.642194
  0
TEXT
  8
A-DIMS-1
 10
-198.985068
 20
-877.254131
 40
5.465479
  1
3'3
  7
STANDARD
  0
LINE
  8
A-DIMS-1
 10
-108.000000
 20
-787.642194
 11
-108.000000
 21
-877.642194
  0
LINE
  8
A-DIMS-1
 10
-105.000000
 20
-876.142194
 11
-108.000000
 21
-874.642194
  0
LINE
  8
A-DIMS-1
 10
-111.000000
 20
-873.142194
 11
-108.000000
 21
-874.642194
  0
LINE
  8
A-DIMS-1
 10
-149.206381
 20
-874.642194
 11
-174.000000
 21
-874.642194
  0
LINE
  8
A-DIMS-1
 10
-132.793619
 20
-874.642194
 11
-108.000000
 21
-874.642194
  0
TEXT
  8
A-DIMS-1
 10
-146.485068
 20
-877.254131
 40
5.465479
  1
5'6
  7
STANDARD
  0
LINE
  8
A-DIMS-1
 10
-42.000000
 20
-842.642194
 11
-42.000000
 21
-877.642194
  0
LINE
  8
A-DIMS-1
 10
-39.000000
 20
-876.142194
 11
-42.000000
 21
-874.642194
  0
LINE
  8
A-DIMS-1
 10
-45.000000
 20
-873.142194
 11
-42.000000
 21
-874.642194
  0
LINE
  8
A-DIMS-1
 10
-83.206381
 20
-874.642194
 11
-108.000000
 21
-874.642194
  0
LINE
  8
A-DIMS-1
 10
-66.793619
 20
-874.642194
 11
-42.000000
 21
-874.642194
  0
TEXT
  8
A-DIMS-1
 10
-80.485068
 20
-877.254131
 40
5.465479
  1
5'6
  7
STANDARD
  0
LINE
  8
A-DIMS-1
 10
30.000000
 20
-851.642194
 11
30.000000
 21
-877.642194
  0
LINE
  8
A-DIMS-1
 10
33.000000
 20
-876.142194
 11
30.000000
 21
-874.642194
  0
LINE
  8
A-DIMS-1
 10
27.000000
 20
-873.142194
 11
30.000000
 21
-874.642194
  0
LINE
  8
A-DIMS-1
 10
-11.855637
 20
-874.642194
 11
-42.000000
 21
-874.642194
  0
LINE
  8
A-DIMS-1
 10
-0.144363
 20
-874.642194
 11
30.000000
 21
-874.642194
  0
TEXT
  8
A-DIMS-1
 10
-9.134325
 20
-877.254131
 40
5.465479
  1
6'
  7
STANDARD
  0
LINE
  8
A-DIMS-1
 10
102.000000
 20
-842.642194
 11
102.000000
 21
-877.642194
  0
LINE
  8
A-DIMS-1
 10
105.000000
 20
-876.142194
 11
102.000000
 21
-874.642194
  0
LINE
  8
A-DIMS-1
 10
99.000000
 20
-873.142194
 11
102.000000
 21
-874.642194
  0
LINE
  8
A-DIMS-1
 10
60.144363
 20
-874.642194
 11
30.000000
 21
-874.642194
  0
LINE
  8
A-DIMS-1
 10
71.855637
 20
-874.642194
 11
102.000000
 21
-874.642194
  0
TEXT
  8
A-DIMS-1
 10
62.865675
 20
-877.254131
 40
5.465479
  1
6'
  7
STANDARD
  0
LINE
  8
A-DIMS-1
 10
164.000000
 20
-821.642194
 11
164.000000
 21
-877.642194
  0
LINE
  8
A-DIMS-1
 10
167.000000
 20
-876.142194
 11
164.000000
 21
-874.642194
  0
LINE
  8
A-DIMS-1
 10
161.000000
 20
-873.142194
 11
164.000000
 21
-874.642194
  0
LINE
  8
A-DIMS-1
 10
124.793619
 20
-874.642194
 11
102.000000
 21
-874.642194
  0
LINE
  8
A-DIMS-1
 10
141.206381
 20
-874.642194
 11
164.000000
 21
-874.642194
  0
TEXT
  8
A-DIMS-1
 10
127.514932
 20
-877.254131
 40
5.465479
  1
5'2
  7
STANDARD
  0
LINE
  8
A-DIMS-1
 10
230.000000
 20
-812.642194
 11
230.000000
 21
-877.642194
  0
LINE
  8
A-DIMS-1
 10
227.000000
 20
-873.142194
 11
230.000000
 21
-874.642194
  0
LINE
  8
A-DIMS-1
 10
188.793619
 20
-874.642194
 11
164.000000
 21
-874.642194
  0
LINE
  8
A-DIMS-1
 10
205.206381
 20
-874.642194
 11
230.000000
 21
-874.642194
  0
TEXT
  8
A-DIMS-1
 10
191.514932
 20
-877.254131
 40
5.465479
  1
5'6
  7
STANDARD
  0
LINE
  8
A-DIMS-1
 10
-277.000000
 20
-566.142194
 11
-274.000000
 21
-567.642194
  0
LINE
  8
A-DIMS-1
 10
-285.979008
 20
-599.642194
 11
-285.979008
 21
-564.642194
  0
LINE
  8
A-DIMS-1
 10
-282.979008
 20
-569.142194
 11
-285.979008
 21
-567.642194
  0
LINE
  8
A-DIMS-1
 10
-274.133867
 20
-567.642194
 11
-274.000000
 21
-567.642194
  0
LINE
  8
A-DIMS-1
 10
-285.845141
 20
-567.642194
 11
-285.979008
 21
-567.642194
  0
TEXT
  8
A-DIMS-1
 10
-283.123829
 20
-570.254131
 40
5.465479
  1
1'
  7
STANDARD
  0
LINE
  8
A-DIMS-1
 10
230.000000
 20
-17.642194
 11
230.000000
 21
-1.642194
  0
LINE
  8
A-DIMS-1
 10
227.000000
 20
-3.142194
 11
230.000000
 21
-4.642194
  0
LINE
  8
A-DIMS-1
 10
-274.000000
 20
-17.642194
 11
-274.000000
 21
-1.642194
  0
LINE
  8
A-DIMS-1
 10
-271.000000
 20
-6.142194
 11
-274.000000
 21
-4.642194
  0
LINE
  8
A-DIMS-1
 10
-13.793619
 20
-4.642194
 11
230.000000
 21
-4.642194
  0
LINE
  8
A-DIMS-1
 10
-30.206381
 20
-4.642194
 11
-274.000000
 21
-4.642194
  0
TEXT
  8
A-DIMS-1
 10
-27.485068
 20
-7.254131
 40
5.465479
  1
42'
  7
STANDARD
  0
LINE
  8
A-DIMS-1
 10
230.000000
 20
-251.642194
 11
230.000000
 21
-19.642194
  0
LINE
  8
A-DIMS-1
 10
227.000000
 20
-21.142194
 11
230.000000
 21
-22.642194
  0
LINE
  8
A-DIMS-1
 10
206.000000
 20
-35.642194
 11
206.000000
 21
-19.642194
  0
LINE
  8
A-DIMS-1
 10
203.000000
 20
-21.142194
 11
206.000000
 21
-22.642194
  0
LINE
  8
A-DIMS-1
 10
209.000000
 20
-24.142194
 11
206.000000
 21
-22.642194
  0
LINE
  8
A-DIMS-1
 10
223.855637
 20
-22.642194
 11
230.000000
 21
-22.642194
  0
LINE
  8
A-DIMS-1
 10
212.144363
 20
-22.642194
 11
206.000000
 21
-22.642194
  0
TEXT
  8
A-DIMS-1
 10
214.865675
 20
-25.254131
 40
5.465479
  1
2'
  7
STANDARD
  0
LINE
  8
A-DIMS-1
 10
74.000000
 20
-35.642194
 11
74.000000
 21
-19.642194
  0
LINE
  8
A-DIMS-1
 10
71.000000
 20
-21.142194
 11
74.000000
 21
-22.642194
  0
LINE
  8
A-DIMS-1
 10
77.000000
 20
-24.142194
 11
74.000000
 21
-22.642194
  0
LINE
  8
A-DIMS-1
 10
148.206381
 20
-22.642194
 11
206.000000
 21
-22.642194
  0
LINE
  8
A-DIMS-1
 10
131.793619
 20
-22.642194
 11
74.000000
 21
-22.642194
  0
TEXT
  8
A-DIMS-1
 10
134.514932
 20
-25.254131
 40
5.465479
  1
11'
  7
STANDARD
  0
LINE
  8
A-DIMS-1
 10
-114.000000
 20
-35.642194
 11
-114.000000
 21
-19.642194
  0
LINE
  8
A-DIMS-1
 10
-117.000000
 20
-21.142194
 11
-114.000000
 21
-22.642194
  0
LINE
  8
A-DIMS-1
 10
-111.000000
 20
-24.142194
 11
-114.000000
 21
-22.642194
  0
LINE
  8
A-DIMS-1
 10
-9.442876
 20
-22.642194
 11
74.000000
 21
-22.642194
  0
LINE
  8
A-DIMS-1
 10
-30.557124
 20
-22.642194
 11
-114.000000
 21
-22.642194
  0
TEXT
  8
A-DIMS-1
 10
-27.835812
 20
-25.254131
 40
5.465479
  1
15'8
  7
STANDARD
  0
LINE
  8
A-DIMS-1
 10
-274.000000
 20
-35.642194
 11
-274.000000
 21
-19.642194
  0
LINE
  8
A-DIMS-1
 10
-271.000000
 20
-24.142194
 11
-274.000000
 21
-22.642194
  0
LINE
  8
A-DIMS-1
 10
-183.442876
 20
-22.642194
 11
-114.000000
 21
-22.642194
  0
LINE
  8
A-DIMS-1
 10
-204.557124
 20
-22.642194
 11
-274.000000
 21
-22.642194
  0
TEXT
  8
A-DIMS-1
 10
-201.835812
 20
-25.254131
 40
5.465479
  1
13'4
  7
STANDARD
  0
LINE
  8
A-DIMS-1
 10
206.000000
 20
-167.642194
 11
206.000000
 21
-37.642194
  0
LINE
  8
A-DIMS-1
 10
203.000000
 20
-39.142194
 11
206.000000
 21
-40.642194
  0
LINE
  8
A-DIMS-1
 10
172.000000
 20
-158.642194
 11
172.000000
 21
-37.642194
  0
LINE
  8
A-DIMS-1
 10
169.000000
 20
-39.142194
 11
172.000000
 21
-40.642194
  0
LINE
  8
A-DIMS-1
 10
175.000000
 20
-42.142194
 11
172.000000
 21
-40.642194
  0
LINE
  8
A-DIMS-1
 10
199.557124
 20
-40.642194
 11
206.000000
 21
-40.642194
  0
LINE
  8
A-DIMS-1
 10
178.442876
 20
-40.642194
 11
172.000000
 21
-40.642194
  0
TEXT
  8
A-DIMS-1
 10
181.164188
 20
-43.254131
 40
5.465479
  1
2'10
  7
STANDARD
  0
LINE
  8
A-DIMS-1
 10
124.000000
 20
-158.642194
 11
124.000000
 21
-37.642194
  0
LINE
  8
A-DIMS-1
 10
121.000000
 20
-39.142194
 11
124.000000
 21
-40.642194
  0
LINE
  8
A-DIMS-1
 10
127.000000
 20
-42.142194
 11
124.000000
 21
-40.642194
  0
LINE
  8
A-DIMS-1
 10
153.855637
 20
-40.642194
 11
172.000000
 21
-40.642194
  0
LINE
  8
A-DIMS-1
 10
142.144363
 20
-40.642194
 11
124.000000
 21
-40.642194
  0
TEXT
  8
A-DIMS-1
 10
144.865675
 20
-43.254131
 40
5.465479
  1
4'
  7
STANDARD
  0
LINE
  8
A-DIMS-1
 10
74.000000
 20
-91.642194
 11
74.000000
 21
-37.642194
  0
LINE
  8
A-DIMS-1
 10
71.000000
 20
-39.142194
 11
74.000000
 21
-40.642194
  0
LINE
  8
A-DIMS-1
 10
77.000000
 20
-42.142194
 11
74.000000
 21
-40.642194
  0
LINE
  8
A-DIMS-1
 10
107.206381
 20
-40.642194
 11
124.000000
 21
-40.642194
  0
LINE
  8
A-DIMS-1
 10
90.793619
 20
-40.642194
 11
74.000000
 21
-40.642194
  0
TEXT
  8
A-DIMS-1
 10
93.514932
 20
-43.254131
 40
5.465479
  1
4'2
  7
STANDARD
  0
LINE
  8
A-DIMS-1
 10
40.000000
 20
-82.642194
 11
40.000000
 21
-37.642194
  0
LINE
  8
A-DIMS-1
 10
37.000000
 20
-39.142194
 11
40.000000
 21
-40.642194
  0
LINE
  8
A-DIMS-1
 10
43.000000
 20
-42.142194
 11
40.000000
 21
-40.642194
  0
LINE
  8
A-DIMS-1
 10
67.557124
 20
-40.642194
 11
74.000000
 21
-40.642194
  0
LINE
  8
A-DIMS-1
 10
46.442876
 20
-40.642194
 11
40.000000
 21
-40.642194
  0
TEXT
  8
A-DIMS-1
 10
49.164188
 20
-43.254131
 40
5.465479
  1
2'10
  7
STANDARD
  0
LINE
  8
A-DIMS-1
 10
-80.000000
 20
-82.642194
 11
-80.000000
 21
-37.642194
  0
LINE
  8
A-DIMS-1
 10
-83.000000
 20
-39.142194
 11
-80.000000
 21
-40.642194
  0
LINE
  8
A-DIMS-1
 10
-77.000000
 20
-42.142194
 11
-80.000000
 21
-40.642194
  0
LINE
  8
A-DIMS-1
 10
-11.793619
 20
-40.642194
 11
40.000000
 21
-40.642194
  0
LINE
  8
A-DIMS-1
 10
-28.206381
 20
-40.642194
 11
-80.000000
 21
-40.642194
  0
TEXT
  8
A-DIMS-1
 10
-25.485068
 20
-43.254131
 40
5.465479
  1
10'
  7
STANDARD
  0
LINE
  8
A-DIMS-1
 10
-114.000000
 20
-91.642194
 11
-114.000000
 21
-37.642194
  0
LINE
  8
A-DIMS-1
 10
-117.000000
 20
-39.142194
 11
-114.000000
 21
-40.642194
  0
LINE
  8
A-DIMS-1
 10
-111.000000
 20
-42.142194
 11
-114.000000
 21
-40.642194
  0
LINE
  8
A-DIMS-1
 10
-86.442876
 20
-40.642194
 11
-80.000000
 21
-40.642194
  0
LINE
  8
A-DIMS-1
 10
-107.557124
 20
-40.642194
 11
-114.000000
 21
-40.642194
  0
TEXT
  8
A-DIMS-1
 10
-104.835812
 20
-43.254131
 40
5.465479
  1
2'10
  7
STANDARD
  0
LINE
  8
A-DIMS-1
 10
-194.000000
 20
-215.642194
 11
-194.000000
 21
-37.642194
  0
LINE
  8
A-DIMS-1
 10
-197.000000
 20
-39.142194
 11
-194.000000
 21
-40.642194
  0
LINE
  8
A-DIMS-1
 10
-191.000000
 20
-42.142194
 11
-194.000000
 21
-40.642194
  0
LINE
  8
A-DIMS-1
 10
-145.793619
 20
-40.642194
 11
-114.000000
 21
-40.642194
  0
LINE
  8
A-DIMS-1
 10
-162.206381
 20
-40.642194
 11
-194.000000
 21
-40.642194
  0
TEXT
  8
A-DIMS-1
 10
-159.485068
 20
-43.254131
 40
5.465479
  1
6'8
  7
STANDARD
  0
LINE
  8
A-DIMS-1
 10
-274.000000
 20
-251.642194
 11
-274.000000
 21
-37.642194
  0
LINE
  8
A-DIMS-1
 10
-271.000000
 20
-42.142194
 11
-274.000000
 21
-40.642194
  0
LINE
  8
A-DIMS-1
 10
-225.793619
 20
-40.642194
 11
-194.000000
 21
-40.642194
  0
LINE
  8
A-DIMS-1
 10
-242.206381
 20
-40.642194
 11
-274.000000
 21
-40.642194
  0
TEXT
  8
A-DIMS-1
 10
-239.485068
 20
-43.254131
 40
5.465479
  1
6'8
  7
STANDARD
  0
LINE
  8
A-DIMS-1
 10
-78.537000
 20
-778.000000
 11
-77.037000
 21
-775.000000
  0
LINE
  8
A-DIMS-1
 10
-45.037000
 20
-839.000000
 11
-80.037000
 21
-839.000000
  0
LINE
  8
A-DIMS-1
 10
-75.537000
 20
-836.000000
 11
-77.037000
 21
-839.000000
  0
LINE
  8
A-DIMS-1
 10
-77.037000
 20
-798.793619
 11
-77.037000
 21
-775.000000
  0
LINE
  8
A-DIMS-1
 10
-77.037000
 20
-815.206381
 11
-77.037000
 21
-839.000000
  0
TEXT
  8
A-DIMS-1
 10
-74.425062
 20
-812.485068
 40
5.465479
  1
5'4
 50
90.000000
  7
STANDARD
  0
LINE
  8
A-DIMS-1
 10
-154.037000
 20
-95.000000
 11
-170.037000
 21
-95.000000
  0
LINE
  8
A-DIMS-1
 10
-168.537000
 20
-98.000000
 11
-167.037000
 21
-95.000000
  0
LINE
  8
A-DIMS-1
 10
-165.537000
 20
-252.000000
 11
-167.037000
 21
-255.000000
  0
LINE
  8
A-DIMS-1
 10
-167.037000
 20
-164.442876
 11
-167.037000
 21
-95.000000
  0
LINE
  8
A-DIMS-1
 10
-167.037000
 20
-185.557124
 11
-167.037000
 21
-255.000000
  0
TEXT
  8
A-DIMS-1
 10
-164.425062
 20
-182.835812
 40
5.465479
  1
13'4
 50
90.000000
  7
STANDARD
  0
LINE
  8
A-DIMS-1
 10
-117.037000
 20
-95.000000
 11
-152.037000
 21
-95.000000
  0
LINE
  8
A-DIMS-1
 10
-150.537000
 20
-98.000000
 11
-149.037000
 21
-95.000000
  0
LINE
  8
A-DIMS-1
 10
-126.037000
 20
-123.000000
 11
-152.037000
 21
-123.000000
  0
LINE
  8
A-DIMS-1
 10
-150.537000
 20
-126.000000
 11
-149.037000
 21
-123.000000
  0
LINE
  8
A-DIMS-1
 10
-147.537000
 20
-120.000000
 11
-149.037000
 21
-123.000000
  0
LINE
  8
A-DIMS-1
 10
-149.037000
 20
-100.793619
 11
-149.037000
 21
-95.000000
  0
LINE
  8
A-DIMS-1
 10
-149.037000
 20
-117.206381
 11
-149.037000
 21
-123.000000
  0
TEXT
  8
A-DIMS-1
 10
-146.425062
 20
-114.485068
 40
5.465479
  1
2'4
 50
90.000000
  7
STANDARD
  0
LINE
  8
A-DIMS-1
 10
-147.537000
 20
-252.000000
 11
-149.037000
 21
-255.000000
  0
LINE
  8
A-DIMS-1
 10
-149.037000
 20
-180.793619
 11
-149.037000
 21
-123.000000
  0
LINE
  8
A-DIMS-1
 10
-149.037000
 20
-197.206381
 11
-149.037000
 21
-255.000000
  0
TEXT
  8
A-DIMS-1
 10
-146.425062
 20
-194.485068
 40
5.465479
  1
11'
 50
90.000000
  7
STANDARD
  0
LINE
  8
A-DIMS-1
 10
-172.037000
 20
-95.000000
 11
-396.037000
 21
-95.000000
  0
LINE
  8
A-DIMS-1
 10
-394.537000
 20
-98.000000
 11
-393.037000
 21
-95.000000
  0
LINE
  8
A-DIMS-1
 10
-82.037000
 20
-839.000000
 11
-396.037000
 21
-839.000000
  0
LINE
  8
A-DIMS-1
 10
-391.537000
 20
-836.000000
 11
-393.037000
 21
-839.000000
  0
LINE
  8
A-DIMS-1
 10
-393.037000
 20
-458.793619
 11
-393.037000
 21
-95.000000
  0
LINE
  8
A-DIMS-1
 10
-393.037000
 20
-475.206381
 11
-393.037000
 21
-839.000000
  0
TEXT
  8
A-DIMS-1
 10
-390.425062
 20
-472.485068
 40
5.465479
  1
62'
 50
90.000000
  7
STANDARD
  0
LINE
  8
A-DIMS-1
 10
-362.037000
 20
-255.000000
 11
-378.037000
 21
-255.000000
  0
LINE
  8
A-DIMS-1
 10
-376.537000
 20
-258.000000
 11
-375.037000
 21
-255.000000
  0
LINE
  8
A-DIMS-1
 10
-362.037000
 20
-469.999997
 11
-378.037000
 21
-469.999997
  0
LINE
  8
A-DIMS-1
 10
-376.537000
 20
-472.999997
 11
-375.037000
 21
-469.999997
  0
LINE
  8
A-DIMS-1
 10
-373.537000
 20
-466.999997
 11
-375.037000
 21
-469.999997
  0
LINE
  8
A-DIMS-1
 10
-375.037000
 20
-349.592131
 11
-375.037000
 21
-255.000000
  0
LINE
  8
A-DIMS-1
 10
-375.037000
 20
-375.407867
 11
-375.037000
 21
-469.999997
  0
TEXT
  8
A-DIMS-1
 10
-372.425062
 20
-372.686554
 40
5.465479
  1
17'11
 50
90.000000
  7
STANDARD
  0
LINE
  8
A-DIMS-1
 10
-362.037000
 20
-604.999997
 11
-378.037000
 21
-604.999997
  0
LINE
  8
A-DIMS-1
 10
-376.537000
 20
-607.999997
 11
-375.037000
 21
-604.999997
  0
LINE
  8
A-DIMS-1
 10
-373.537000
 20
-601.999997
 11
-375.037000
 21
-604.999997
  0
LINE
  8
A-DIMS-1
 10
-375.037000
 20
-526.942873
 11
-375.037000
 21
-469.999997
  0
LINE
  8
A-DIMS-1
 10
-375.037000
 20
-548.057121
 11
-375.037000
 21
-604.999997
  0
TEXT
  8
A-DIMS-1
 10
-372.425062
 20
-545.335809
 40
5.465479
  1
11'3
 50
90.000000
  7
STANDARD
  0
LINE
  8
A-DIMS-1
 10
-362.037000
 20
-641.020993
 11
-378.037000
 21
-641.020993
  0
LINE
  8
A-DIMS-1
 10
-376.537000
 20
-644.020993
 11
-375.037000
 21
-641.020993
  0
LINE
  8
A-DIMS-1
 10
-373.537000
 20
-638.020993
 11
-375.037000
 21
-641.020993
  0
LINE
  8
A-DIMS-1
 10
-375.037000
 20
-617.154858
 11
-375.037000
 21
-604.999997
  0
LINE
  8
A-DIMS-1
 10
-375.037000
 20
-628.866132
 11
-375.037000
 21
-641.020993
  0
TEXT
  8
A-DIMS-1
 10
-372.425062
 20
-626.144820
 40
5.465479
  1
3'
 50
90.000000
  7
STANDARD
  0
LINE
  8
A-DIMS-1
 10
-362.037000
 20
-798.999997
 11
-378.037000
 21
-798.999997
  0
LINE
  8
A-DIMS-1
 10
-373.537000
 20
-795.999997
 11
-375.037000
 21
-798.999997
  0
LINE
  8
A-DIMS-1
 10
-375.037000
 20
-709.453371
 11
-375.037000
 21
-641.020993
  0
LINE
  8
A-DIMS-1
 10
-375.037000
 20
-730.567619
 11
-375.037000
 21
-798.999997
  0
TEXT
  8
A-DIMS-1
 10
-372.425062
 20
-727.846307
 40
5.465479
  1
13'2
 50
90.000000
  7
STANDARD
  0
LINE
  8
A-DIMS-1
 10
-327.037000
 20
-641.020993
 11
-360.037000
 21
-641.020993
  0
LINE
  8
A-DIMS-1
 10
-358.537000
 20
-644.020993
 11
-357.037000
 21
-641.020993
  0
LINE
  8
A-DIMS-1
 10
-334.037000
 20
-770.999997
 11
-360.037000
 21
-770.999997
  0
LINE
  8
A-DIMS-1
 10
-358.537000
 20
-773.999997
 11
-357.037000
 21
-770.999997
  0
LINE
  8
A-DIMS-1
 10
-355.537000
 20
-767.999997
 11
-357.037000
 21
-770.999997
  0
LINE
  8
A-DIMS-1
 10
-357.037000
 20
-693.102627
 11
-357.037000
 21
-641.020993
  0
LINE
  8
A-DIMS-1
 10
-357.037000
 20
-718.918363
 11
-357.037000
 21
-770.999997
  0
TEXT
  8
A-DIMS-1
 10
-354.425062
 20
-716.197050
 40
5.465479
  1
10'10
 50
90.000000
  7
STANDARD
  0
LINE
  8
A-DIMS-1
 10
-325.037000
 20
-798.999997
 11
-360.037000
 21
-798.999997
  0
LINE
  8
A-DIMS-1
 10
-355.537000
 20
-795.999997
 11
-357.037000
 21
-798.999997
  0
LINE
  8
A-DIMS-1
 10
-357.037000
 20
-776.793616
 11
-357.037000
 21
-770.999997
  0
LINE
  8
A-DIMS-1
 10
-357.037000
 20
-793.206377
 11
-357.037000
 21
-798.999997
  0
TEXT
  8
A-DIMS-1
 10
-354.425062
 20
-790.485065
 40
5.465479
  1
2'4
 50
90.000000
  7
STANDARD
  0
LINE
  8
A-DIMS-1
 10
-277.037000
 20
-255.000000
 11
-360.037000
 21
-255.000000
  0
LINE
  8
A-DIMS-1
 10
-358.537000
 20
-258.000000
 11
-357.037000
 21
-255.000000
  0
LINE
  8
A-DIMS-1
 10
-286.037000
 20
-296.000001
 11
-360.037000
 21
-296.000001
  0
LINE
  8
A-DIMS-1
 10
-358.537000
 20
-299.000001
 11
-357.037000
 21
-296.000001
  0
LINE
  8
A-DIMS-1
 10
-355.537000
 20
-293.000001
 11
-357.037000
 21
-296.000001
  0
LINE
  8
A-DIMS-1
 10
-357.037000
 20
-267.293620
 11
-357.037000
 21
-255.000000
  0
LINE
  8
A-DIMS-1
 10
-357.037000
 20
-283.706381
 11
-357.037000
 21
-296.000001
  0
TEXT
  8
A-DIMS-1
 10
-354.425062
 20
-280.985069
 40
5.465479
  1
3'5
 50
90.000000
  7
STANDARD
  0
LINE
  8
A-DIMS-1
 10
-286.037000
 20
-431.999997
 11
-360.037000
 21
-431.999997
  0
LINE
  8
A-DIMS-1
 10
-358.537000
 20
-434.999997
 11
-357.037000
 21
-431.999997
  0
LINE
  8
A-DIMS-1
 10
-355.537000
 20
-428.999997
 11
-357.037000
 21
-431.999997
  0
LINE
  8
A-DIMS-1
 10
-357.037000
 20
-353.442875
 11
-357.037000
 21
-296.000001
  0
LINE
  8
A-DIMS-1
 10
-357.037000
 20
-374.557123
 11
-357.037000
 21
-431.999997
  0
TEXT
  8
A-DIMS-1
 10
-354.425062
 20
-371.835811
 40
5.465479
  1
11'4
 50
90.000000
  7
STANDARD
  0
LINE
  8
A-DIMS-1
 10
-277.037000
 20
-469.999997
 11
-360.037000
 21
-469.999997
  0
LINE
  8
A-DIMS-1
 10
-358.537000
 20
-472.999997
 11
-357.037000
 21
-469.999997
  0
LINE
  8
A-DIMS-1
 10
-355.537000
 20
-466.999997
 11
-357.037000
 21
-469.999997
  0
LINE
  8
A-DIMS-1
 10
-357.037000
 20
-442.793616
 11
-357.037000
 21
-431.999997
  0
LINE
  8
A-DIMS-1
 10
-357.037000
 20
-459.206378
 11
-357.037000
 21
-469.999997
  0
TEXT
  8
A-DIMS-1
 10
-354.425062
 20
-456.485066
 40
5.465479
  1
3'2
 50
90.000000
  7
STANDARD
  0
LINE
  8
A-DIMS-1
 10
-286.037000
 20
-538.999997
 11
-360.037000
 21
-538.999997
  0
LINE
  8
A-DIMS-1
 10
-358.537000
 20
-541.999997
 11
-357.037000
 21
-538.999997
  0
LINE
  8
A-DIMS-1
 10
-355.537000
 20
-535.999997
 11
-357.037000
 21
-538.999997
  0
LINE
  8
A-DIMS-1
 10
-357.037000
 20
-496.293616
 11
-357.037000
 21
-469.999997
  0
LINE
  8
A-DIMS-1
 10
-357.037000
 20
-512.706378
 11
-357.037000
 21
-538.999997
  0
TEXT
  8
A-DIMS-1
 10
-354.425062
 20
-509.985066
 40
5.465479
  1
5'9
 50
90.000000
  7
STANDARD
  0
LINE
  8
A-DIMS-1
 10
-290.037000
 20
-604.999997
 11
-360.037000
 21
-604.999997
  0
LINE
  8
A-DIMS-1
 10
-355.537000
 20
-601.999997
 11
-357.037000
 21
-604.999997
  0
LINE
  8
A-DIMS-1
 10
-357.037000
 20
-563.793616
 11
-357.037000
 21
-538.999997
  0
LINE
  8
A-DIMS-1
 10
-357.037000
 20
-580.206378
 11
-357.037000
 21
-604.999997
  0
TEXT
  8
A-DIMS-1
 10
-354.425062
 20
-577.485066
 40
5.465479
  1
5'6
 50
90.000000
  7
STANDARD
  0
LINE
  8
A-DIMS-1
 10
-315.037314
 20
-575.924688
 11
-325.643916
 21
-565.318086
  0
LINE
  8
A-DIMS-1
 10
-326.704576
 20
-568.500067
 11
-323.522596
 21
-567.439407
  0
LINE
  8
A-DIMS-1
 10
-351.047585
 20
-611.934958
 11
-361.654186
 21
-601.328356
  0
LINE
  8
A-DIMS-1
 10
-356.350885
 20
-602.389016
 11
-359.532866
 21
-603.449677
  0
LINE
  8
A-DIMS-1
 10
-332.954565
 20
-576.871376
 11
-323.522596
 21
-567.439407
  0
LINE
  8
A-DIMS-1
 10
-350.100896
 20
-594.017707
 11
-359.532866
 21
-603.449677
  0
TEXT
  8
A-DIMS-1
 10
-346.329719
 20
-593.940367
 40
5.465479
  1
4'2"7
 50
45.000000
  7
STANDARD
  0
LINE
  8
A-DIMS-1
 10
-289.581470
 20
-601.380532
 11
-312.915994
 21
-578.046008
  0
LINE
  8
A-DIMS-1
 10
-313.976654
 20
-581.227989
 11
-310.794674
 21
-580.167329
  0
LINE
  8
A-DIMS-1
 10
-312.508228
 20
-614.407795
 11
-330.893005
 21
-596.023019
  0
LINE
  8
A-DIMS-1
 10
-331.953665
 20
-599.204999
 11
-328.771684
 21
-598.144339
  0
LINE
  8
A-DIMS-1
 10
-325.589704
 20
-597.083679
 11
-328.771684
 21
-598.144339
  0
LINE
  8
A-DIMS-1
 10
-311.210014
 20
-580.582669
 11
-310.794674
 21
-580.167329
  0
LINE
  8
A-DIMS-1
 10
-328.356344
 20
-597.728999
 11
-328.771684
 21
-598.144339
  0
TEXT
  8
A-DIMS-1
 10
-324.585167
 20
-597.651660
 40
5.465479
  1
2'1"3
 50
45.000000
  7
STANDARD
  0
LINE
  8
A-DIMS-1
 10
-325.591740
 20
-637.390802
 11
-348.926264
 21
-614.056278
  0
LINE
  8
A-DIMS-1
 10
-343.622963
 20
-615.116939
 11
-346.804944
 21
-616.177599
  0
LINE
  8
A-DIMS-1
 10
-329.215149
 20
-598.587804
 11
-328.771684
 21
-598.144339
  0
LINE
  8
A-DIMS-1
 10
-346.361479
 20
-615.734134
 11
-346.804944
 21
-616.177599
  0
TEXT
  8
A-DIMS-1
 10
-342.590302
 20
-615.656795
 40
5.465479
  1
2'1"4
 50
45.000000
  7
STANDARD
  0
LINE
  8
A-DIMS-1
 10
-13.227506
 20
-344.097546
 11
-11.727506
 21
-341.097546
  0
LINE
  8
A-DIMS-1
 10
-10.227506
 20
-384.000001
 11
-11.727506
 21
-387.000001
  0
LINE
  8
A-DIMS-1
 10
-11.727506
 20
-351.924487
 11
-11.727506
 21
-341.097546
  0
LINE
  8
A-DIMS-1
 10
-11.727506
 20
-376.173060
 11
-11.727506
 21
-387.000001
  0
TEXT
  8
A-DIMS-1
 10
-9.115568
 20
-373.451748
 40
5.465479
  1
3'9"7
 50
90.000000
  7
STANDARD
  0
ENDSEC
  0
EOF
