  0
SECTION
  2
HEADER
  9
$ACADVER
  1
AC1006
  9
$EXTMIN
 10
-713.618873
 20
-939.547054
  9
$EXTMAX
 10
622.387086
 20
-15.138890
  9
$ANGDIR
 70
   0
  9
$LUNITS
 70
   2
  0
ENDSEC
  0
SECTION
  2
TABLES
  0
TABLE
  2
LTYPE
 70
   3
  0
LTYPE
  2
CONTINUOUS
 70
64
  3
SOLID LINE
 72
65
 73
0
 40
0.
  0
LTYPE
  2
DASHED
 70
64
  3
DASHED LINE
 72
65
 73
2
 40
8.
 49
5.
 49
-3.
  0
LTYPE
  2
DOTTED
 70
64
  3
DOTTED LINE
 72
65
 73
2
 40
4.
 49
2.
 49
-2.
  0
ENDTAB
  0
TABLE
  2
LAYER
 70
   15
  0
LAYER
  2
A-WALL-0
 70
64
 62
   7
  6
CONTINUOUS
  0
LAYER
  2
A-CASE-0
 70
64
 62
   7
  6
CONTINUOUS
  0
LAYER
  2
A-DIMS-0
 70
64
 62
   7
  6
CONTINUOUS
  0
LAYER
  2
A-POWR-0
 70
64
 62
   7
  6
CONTINUOUS
  0
LAYER
  2
A-NOTE-0
 70
64
 62
   7
  6
CONTINUOUS
  0
LAYER
  2
A-TEXT-0
 70
64
 62
   7
  6
CONTINUOUS
  0
LAYER
  2
A-FURN-0
 70
64
 62
   7
  6
CONTINUOUS
  0
LAYER
  2
A-GLAZ-0
 70
64
 62
   7
  6
CONTINUOUS
  0
LAYER
  2
A-STAR-0
 70
64
 62
   7
  6
CONTINUOUS
  0
LAYER
  2
A-ROOF-0
 70
64
 62
   7
  6
CONTINUOUS
  0
LAYER
  2
A-C000-0
 70
64
 62
   7
  6
CONTINUOUS
  0
ENDTAB
  0
ENDSEC
  0
SECTION
  2
BLOCKS
  0
BLOCK
  8
A-CASE-0
  2
FIXT-Toilet
 70
64
 10
0.0
 20
0.0
  0
ARC
  8
A-CASE-0
 10
9.046126
 20
27.780609
 40
1.431891
 50
0.000000
 51
90.000000
  0
LINE
  8
A-CASE-0
 10
9.046126
 20
29.212500
 11
-9.046126
 21
29.212500
  0
ARC
  8
A-CASE-0
 10
-9.046126
 20
27.780609
 40
1.431891
 50
90.000000
 51
180.000000
  0
LINE
  8
A-CASE-0
 10
-10.478017
 20
27.780609
 11
-10.478017
 21
21.731952
  0
ARC
  8
A-CASE-0
 10
-9.046126
 20
21.731952
 40
1.431891
 50
180.000000
 51
270.000000
  0
LINE
  8
A-CASE-0
 10
-9.046126
 20
20.300061
 11
9.046126
 21
20.300061
  0
ARC
  8
A-CASE-0
 10
9.046126
 20
21.731952
 40
1.431891
 50
270.000000
 51
0.000000
  0
LINE
  8
A-CASE-0
 10
10.478017
 20
21.731952
 11
10.478017
 21
27.780609
  0
ARC
  8
A-CASE-0
 10
0.029649
 20
13.174761
 40
6.001594
 50
38.796550
 51
141.203450
  0
ARC
  8
A-CASE-0
 10
0.029649
 20
7.965448
 40
6.001594
 50
218.796550
 51
321.203450
  0
ARC
  8
A-CASE-0
 10
3.269587
 20
10.570105
 40
10.158689
 50
141.203449
 51
218.796551
  0
ARC
  8
A-CASE-0
 10
-3.210289
 20
10.570105
 40
10.158689
 50
321.203449
 51
38.796551
  0
ENDBLK
  0
BLOCK
  8
A-CASE-0
  2
FIXT-WaterHG
 70
64
 10
0.0
 20
0.0
  0
CIRCLE
  8
A-CASE-0
 10
-0.000000
 20
12.479368
 40
12.520632
  0
LINE
  8
A-CASE-0
 10
-6.458884
 20
15.850779
 11
-4.568376
 21
8.795307
  0
LINE
  8
A-CASE-0
 10
-4.568376
 20
8.795307
 11
-3.313710
 21
13.477785
  0
LINE
  8
A-CASE-0
 10
-3.313710
 20
13.477785
 11
-2.055941
 21
8.783728
  0
LINE
  8
A-CASE-0
 10
-2.055941
 20
8.783728
 11
-0.165146
 21
15.840274
  0
LINE
  8
A-CASE-0
 10
1.074278
 20
8.789207
 11
1.074278
 21
15.858361
  0
LINE
  8
A-CASE-0
 10
1.074278
 20
12.090279
 11
5.207015
 21
12.090279
  0
LINE
  8
A-CASE-0
 10
5.246801
 20
8.845993
 11
5.246801
 21
15.896207
  0
ENDBLK
  0
BLOCK
  8
A-CASE-0
  2
FIXT-FrnG2920
 70
64
 10
0.0
 20
0.0
  0
LINE
  8
A-CASE-0
 10
9.947191
 20
39.000000
 11
-9.947191
 21
39.000000
  0
LINE
  8
A-CASE-0
 10
-9.947191
 20
39.000000
 11
-9.947191
 21
11.079557
  0
LINE
  8
A-CASE-0
 10
-9.947191
 20
11.079557
 11
9.947191
 21
11.079557
  0
LINE
  8
A-CASE-0
 10
9.947191
 20
11.079557
 11
9.947191
 21
39.000000
  0
LINE
  8
A-CASE-0
 10
-7.001456
 20
11.079557
 11
-7.001456
 21
10.054955
  0
LINE
  8
A-CASE-0
 10
-7.001456
 20
10.054955
 11
-0.512302
 21
10.054955
  0
LINE
  8
A-CASE-0
 10
-0.512302
 20
10.054955
 11
-0.512302
 21
11.079557
  0
ENDBLK
  0
BLOCK
  8
A-CASE-0
  2
FIXT-OvalBath
 70
64
 10
0.0
 20
0.0
  0
ARC
  8
A-CASE-0
 10
-3.083726
 20
15.991947
 40
6.926340
 50
128.659806
 51
231.340191
  0
ARC
  8
A-CASE-0
 10
3.083726
 20
15.991947
 40
6.926340
 50
308.659809
 51
51.340194
  0
ARC
  8
A-CASE-0
 10
-0.000000
 20
19.846604
 40
11.862710
 50
231.340192
 51
308.659808
  0
ARC
  8
A-CASE-0
 10
-0.000000
 20
12.137290
 40
11.862710
 50
51.340193
 51
128.659807
  0
ARC
  8
A-CASE-0
 10
-3.083726
 20
15.991947
 40
5.029696
 50
128.659805
 51
231.340188
  0
ARC
  8
A-CASE-0
 10
3.083726
 20
15.991947
 40
5.029696
 50
308.659812
 51
51.340195
  0
ARC
  8
A-CASE-0
 10
0.000000
 20
19.846604
 40
9.966065
 50
231.340190
 51
308.659810
  0
ARC
  8
A-CASE-0
 10
0.000000
 20
12.137290
 40
9.966065
 50
51.340193
 51
128.659807
  0
CIRCLE
  8
A-CASE-0
 10
-0.052685
 20
16.966612
 40
0.605872
  0
CIRCLE
  8
A-CASE-0
 10
-0.052685
 20
16.966612
 40
1.027349
  0
ENDBLK
  0
BLOCK
  8
A-CASE-0
  2
FIXT-Shwr60
 70
64
 10
0.0
 20
0.0
  0
LINE
  8
A-CASE-0
 10
-29.963196
 20
-0.028080
 11
29.987392
 21
-0.028080
  0
LINE
  8
A-CASE-0
 10
-27.265932
 20
3.097593
 11
-5.551453
 21
15.634455
  0
LINE
  8
A-CASE-0
 10
27.385593
 20
30.365020
 11
-27.385593
 21
30.365020
  0
LINE
  8
A-CASE-0
 10
-27.385593
 20
30.365020
 11
-27.385593
 21
2.977932
  0
LINE
  8
A-CASE-0
 10
-27.385593
 20
2.977932
 11
27.385593
 21
2.977932
  0
LINE
  8
A-CASE-0
 10
27.385593
 20
2.977932
 11
27.385593
 21
30.365020
  0
CIRCLE
  8
A-CASE-0
 10
0.082513
 20
16.722193
 40
1.102624
  0
LINE
  8
A-CASE-0
 10
27.146271
 20
30.125696
 11
5.343473
 21
17.537846
  0
LINE
  8
A-CASE-0
 10
27.265932
 20
3.097593
 11
5.557290
 21
15.631084
  0
LINE
  8
A-CASE-0
 10
-27.182060
 20
30.073641
 11
-5.719962
 21
17.682493
  0
ENDBLK
  0
BLOCK
  8
A-CASE-0
  2
FIXT-Micro24
 70
64
 10
0.0
 20
0.0
  0
LINE
  8
A-CASE-0
 10
11.989248
 20
18.084289
 11
-11.964177
 21
18.084289
  0
LINE
  8
A-CASE-0
 10
-11.964177
 20
18.084289
 11
-11.964177
 21
0.102182
  0
LINE
  8
A-CASE-0
 10
-11.964177
 20
0.102182
 11
11.989248
 21
0.102182
  0
LINE
  8
A-CASE-0
 10
11.989248
 20
0.102182
 11
11.989248
 21
18.084289
  0
LINE
  8
A-CASE-0
 10
-11.989247
 20
1.498632
 11
11.959823
 21
1.498632
  0
LINE
  8
A-CASE-0
 10
7.579066
 20
1.498632
 11
7.579066
 21
0.099930
  0
LINE
  8
A-CASE-0
 10
4.791570
 20
-1.021042
 11
6.782210
 21
-1.021042
  0
LINE
  8
A-CASE-0
 10
6.782210
 20
-1.021042
 11
6.782210
 21
-0.357496
  0
LINE
  8
A-CASE-0
 10
6.782210
 20
-0.357496
 11
4.791570
 21
-0.357496
  0
LINE
  8
A-CASE-0
 10
4.791570
 20
-0.357496
 11
4.791570
 21
-1.021042
  0
ENDBLK
  0
BLOCK
  8
A-CASE-0
  2
FIXT-ref002
 70
64
 10
0.0
 20
0.0
  0
LINE
  8
A-CASE-0
 10
14.968905
 20
2.038666
 11
14.968905
 21
30.000000
  0
LINE
  8
A-CASE-0
 10
14.968905
 20
30.000000
 11
-15.027038
 21
30.000000
  0
LINE
  8
A-CASE-0
 10
-15.027038
 20
30.000000
 11
-15.027038
 21
2.038666
  0
LINE
  8
A-CASE-0
 10
-15.027038
 20
2.038666
 11
14.968905
 21
2.038666
  0
LINE
  8
A-CASE-0
 10
-11.074083
 20
2.038666
 11
-11.074083
 21
0.004057
  0
LINE
  8
A-CASE-0
 10
-11.074083
 20
0.004057
 11
-13.050561
 21
0.004057
  0
LINE
  8
A-CASE-0
 10
-13.050561
 20
0.004057
 11
-13.050561
 21
2.038666
  0
LINE
  8
A-CASE-0
 10
-15.027038
 20
3.026903
 11
14.968905
 21
3.026903
  0
LINE
  8
A-CASE-0
 10
-13.050561
 20
0.934164
 11
-11.074083
 21
0.934164
  0
ENDBLK
  0
BLOCK
  8
A-CASE-0
  2
FIXT-DishWash
 70
64
 10
0.0
 20
0.0
  0
LINE
  8
A-CASE-0
 10
12.019889
 20
0.345085
 11
-12.019889
 21
0.345085
  0
LINE
  8
A-CASE-0
 10
-12.019889
 20
0.345085
 11
-12.019889
 21
-0.770685
  0
LINE
  8
A-CASE-0
 10
-12.019889
 20
-0.770685
 11
12.019889
 21
-0.770685
  0
LINE
  8
A-CASE-0
 10
12.019889
 20
-0.770685
 11
12.019889
 21
0.345085
  0
LINE
  8
A-CASE-0
 10
4.361647
 20
-0.770685
 11
4.361647
 21
-1.480721
  0
LINE
  8
A-CASE-0
 10
4.361647
 20
-1.480721
 11
-4.260214
 21
-1.480721
  0
LINE
  8
A-CASE-0
 10
-4.260214
 20
-1.480721
 11
-4.260214
 21
-0.770685
  0
ARC
  8
A-CASE-0
 10
-7.282481
 20
11.323973
 40
5.269653
 50
270.000000
 51
0.000000
  0
ARC
  8
A-CASE-0
 10
-7.282481
 20
11.323973
 40
5.269653
 50
0.000000
 51
90.000000
  0
LINE
  8
A-CASE-0
 10
-7.282481
 20
16.593626
 11
-7.282481
 21
6.054319
  0
LINE
  8
A-CASE-0
 10
8.012980
 20
16.475399
 11
5.227346
 21
6.079269
  0
LINE
  8
A-CASE-0
 10
5.227346
 20
6.079269
 11
3.365992
 21
13.025938
  0
LINE
  8
A-CASE-0
 10
3.365992
 20
13.025938
 11
1.504146
 21
6.077431
  0
LINE
  8
A-CASE-0
 10
1.504146
 20
6.077431
 11
-1.276819
 21
16.456131
  0
ENDBLK
  0
BLOCK
  8
A-CASE-0
  2
FIXT-Rng24E
 70
64
 10
0.0
 20
0.0
  0
CIRCLE
  8
A-CASE-0
 10
5.316139
 20
8.630924
 40
4.654639
  0
LINE
  8
A-CASE-0
 10
12.055118
 20
24.195452
 11
-12.008540
 21
24.195452
  0
LINE
  8
A-CASE-0
 10
-12.008540
 20
24.195452
 11
-12.008540
 21
2.129080
  0
LINE
  8
A-CASE-0
 10
-12.008540
 20
2.129080
 11
12.055118
 21
2.129080
  0
LINE
  8
A-CASE-0
 10
12.055118
 20
2.129080
 11
12.055118
 21
24.195452
  0
CIRCLE
  8
A-CASE-0
 10
6.210068
 20
18.728617
 40
3.752458
  0
CIRCLE
  8
A-CASE-0
 10
-5.197934
 20
17.799195
 40
4.654639
  0
CIRCLE
  8
A-CASE-0
 10
-6.154480
 20
7.709869
 40
3.752458
  0
LINE
  8
A-CASE-0
 10
-11.993430
 20
24.167279
 11
-11.993430
 21
26.327099
  0
LINE
  8
A-CASE-0
 10
-11.993430
 20
26.327099
 11
12.062439
 21
26.327099
  0
LINE
  8
A-CASE-0
 10
12.062439
 20
26.327099
 11
12.062439
 21
24.188307
  0
LINE
  8
A-CASE-0
 10
8.699743
 20
1.362257
 11
-8.627448
 21
1.362257
  0
LINE
  8
A-CASE-0
 10
-8.627448
 20
1.362257
 11
-8.627448
 21
0.689356
  0
LINE
  8
A-CASE-0
 10
-8.627448
 20
0.689356
 11
8.699743
 21
0.689356
  0
LINE
  8
A-CASE-0
 10
8.699743
 20
0.689356
 11
8.699743
 21
1.362257
  0
ENDBLK
  0
BLOCK
  8
A-CASE-0
  2
FIXT-SngKit24
 70
64
 10
0.0
 20
0.0
  0
ARC
  8
A-CASE-0
 10
10.000749
 20
21.991375
 40
2.008625
 50
0.000000
 51
90.000000
  0
LINE
  8
A-CASE-0
 10
10.000749
 20
24.000000
 11
-10.000749
 21
24.000000
  0
ARC
  8
A-CASE-0
 10
-10.000749
 20
21.991375
 40
2.008625
 50
90.000000
 51
180.000000
  0
LINE
  8
A-CASE-0
 10
-12.009375
 20
21.991375
 11
-12.009375
 21
5.027375
  0
ARC
  8
A-CASE-0
 10
-10.000749
 20
5.027375
 40
2.008625
 50
180.000000
 51
270.000000
  0
LINE
  8
A-CASE-0
 10
-10.000749
 20
3.018749
 11
10.000749
 21
3.018749
  0
ARC
  8
A-CASE-0
 10
10.000749
 20
5.027375
 40
2.008625
 50
270.000000
 51
0.000000
  0
LINE
  8
A-CASE-0
 10
12.009375
 20
5.027375
 11
12.009375
 21
21.991375
  0
CIRCLE
  8
A-CASE-0
 10
-0.056250
 20
12.693750
 40
1.631250
  0
ARC
  8
A-CASE-0
 10
5.028379
 20
22.615879
 40
0.596621
 50
0.000000
 51
90.000000
  0
LINE
  8
A-CASE-0
 10
5.028379
 20
23.212500
 11
-5.028379
 21
23.212500
  0
ARC
  8
A-CASE-0
 10
-5.028379
 20
22.615879
 40
0.596621
 50
90.000000
 51
180.000000
  0
LINE
  8
A-CASE-0
 10
-5.625000
 20
22.615879
 11
-5.625000
 21
21.671621
  0
ARC
  8
A-CASE-0
 10
-5.028379
 20
21.671621
 40
0.596621
 50
180.000000
 51
270.000000
  0
LINE
  8
A-CASE-0
 10
-5.028379
 20
21.075000
 11
5.028379
 21
21.075000
  0
ARC
  8
A-CASE-0
 10
5.028379
 20
21.671621
 40
0.596621
 50
270.000000
 51
0.000000
  0
LINE
  8
A-CASE-0
 10
5.625000
 20
21.671621
 11
5.625000
 21
22.615879
  0
ARC
  8
A-CASE-0
 10
8.723233
 20
18.941983
 40
1.233017
 50
0.000000
 51
90.000000
  0
LINE
  8
A-CASE-0
 10
8.723233
 20
20.175000
 11
-8.723233
 21
20.175000
  0
ARC
  8
A-CASE-0
 10
-8.723233
 20
18.941983
 40
1.233017
 50
90.000000
 51
180.000000
  0
LINE
  8
A-CASE-0
 10
-9.956250
 20
18.941983
 11
-9.956250
 21
6.333018
  0
ARC
  8
A-CASE-0
 10
-8.723233
 20
6.333018
 40
1.233017
 50
180.000000
 51
270.000000
  0
LINE
  8
A-CASE-0
 10
-8.723233
 20
5.100000
 11
8.723233
 21
5.100000
  0
ARC
  8
A-CASE-0
 10
8.723233
 20
6.333018
 40
1.233017
 50
270.000000
 51
0.000000
  0
LINE
  8
A-CASE-0
 10
9.956250
 20
6.333018
 11
9.956250
 21
18.941983
  0
CIRCLE
  8
A-CASE-0
 10
-0.056250
 20
12.693750
 40
1.068750
  0
ENDBLK
  0
BLOCK
  8
A-FURN-0
  2
FIXT-esqr26
 70
64
 10
0.0
 20
0.0
  0
ARC
  8
A-FURN-0
 10
10.237361
 20
26.250386
 40
2.749614
 50
0.000000
 51
90.000000
  0
LINE
  8
A-FURN-0
 10
10.237361
 20
29.000000
 11
-10.237361
 21
29.000000
  0
ARC
  8
A-FURN-0
 10
-10.237361
 20
26.250386
 40
2.749614
 50
90.000000
 51
180.000000
  0
LINE
  8
A-FURN-0
 10
-12.986976
 20
26.250386
 11
-12.986976
 21
5.775663
  0
ARC
  8
A-FURN-0
 10
-10.237361
 20
5.775663
 40
2.749614
 50
180.000000
 51
270.000000
  0
LINE
  8
A-FURN-0
 10
-10.237361
 20
3.026049
 11
10.237361
 21
3.026049
  0
ARC
  8
A-FURN-0
 10
10.237361
 20
5.775663
 40
2.749614
 50
270.000000
 51
0.000000
  0
LINE
  8
A-FURN-0
 10
12.986976
 20
5.775663
 11
12.986976
 21
26.250386
  0
ENDBLK
  0
BLOCK
  8
A-FURN-0
  2
FIXT-Sidchar3
 70
64
 10
0.0
 20
0.0
  0
ARC
  8
A-FURN-0
 10
12.802023
 20
11.545657
 40
21.014664
 50
165.000000
 51
176.344092
  0
ARC
  8
A-FURN-0
 10
193.163010
 20
0.021605
 40
201.743439
 50
176.344092
 51
180.000000
  0
LINE
  8
A-FURN-0
 10
-7.496583
 20
16.984653
 11
7.496583
 21
16.984653
  0
ARC
  8
A-FURN-0
 10
-193.163010
 20
0.021605
 40
201.743439
 50
0.000000
 51
3.655908
  0
ARC
  8
A-FURN-0
 10
-12.802023
 20
11.545657
 40
21.014664
 50
3.655908
 51
15.000000
  0
LINE
  8
A-FURN-0
 10
8.580427
 20
0.021605
 11
-8.580427
 21
0.021605
  0
LINE
  8
A-FURN-0
 10
6.398632
 20
16.978707
 11
6.398632
 21
16.417537
  0
LINE
  8
A-FURN-0
 10
6.398632
 20
16.417537
 11
-6.502366
 21
16.417537
  0
LINE
  8
A-FURN-0
 10
-6.502366
 20
16.417537
 11
-6.502366
 21
18.000000
  0
LINE
  8
A-FURN-0
 10
-6.502366
 20
18.000000
 11
6.407324
 21
18.000000
  0
LINE
  8
A-FURN-0
 10
6.407324
 20
18.000000
 11
6.407324
 21
16.975421
  0
LINE
  8
A-FURN-0
 10
-4.700047
 20
16.978707
 11
-4.700047
 21
16.417537
  0
LINE
  8
A-FURN-0
 10
-3.993390
 20
16.978707
 11
-3.993390
 21
16.417537
  0
LINE
  8
A-FURN-0
 10
-0.730295
 20
16.978707
 11
-0.730295
 21
16.417537
  0
LINE
  8
A-FURN-0
 10
-0.002854
 20
16.978707
 11
-0.002854
 21
16.396753
  0
LINE
  8
A-FURN-0
 10
4.819045
 20
16.978707
 11
4.819045
 21
16.417537
  0
LINE
  8
A-FURN-0
 10
4.257875
 20
16.978707
 11
4.257875
 21
16.417537
  0
ENDBLK
  0
BLOCK
  8
A-POWR-0
  2
FIXT-GFI_Out
 70
64
 10
0.0
 20
0.0
  0
CIRCLE
  8
A-POWR-0
 10
-0.006993
 20
-5.734540
 40
3.254864
  0
LINE
  8
A-POWR-0
 10
-1.973961
 20
-8.380580
 11
-1.973961
 21
-0.000000
  0
LINE
  8
A-POWR-0
 10
2.006808
 20
-8.286915
 11
2.006808
 21
-0.000000
  0
TEXT
  8
A-POWR-0
 10
-2.379277
 20
-15.525119
 40
2.277283
  1
GFI
  7
STANDARD
  0
ENDBLK
  0
BLOCK
  8
A-POWR-0
  2
FIXT-WP_Out
 70
64
 10
0.0
 20
0.0
  0
CIRCLE
  8
A-POWR-0
 10
-0.006993
 20
-5.734540
 40
3.254864
  0
LINE
  8
A-POWR-0
 10
-1.973961
 20
-8.380580
 11
-1.973961
 21
-0.000000
  0
LINE
  8
A-POWR-0
 10
2.006808
 20
-8.286915
 11
2.006808
 21
-0.000000
  0
TEXT
  8
A-POWR-0
 10
-2.422809
 20
-15.525119
 40
2.277283
  1
WP
  7
STANDARD
  0
ENDBLK
  0
BLOCK
  8
A-POWR-0
  2
FIXT-3_Way
 70
64
 10
0.0
 20
0.0
  0
LINE
  8
A-POWR-0
 10
1.506088
 20
-2.396511
 11
-2.053707
 21
-2.396511
  0
ARC
  8
A-POWR-0
 10
-2.053707
 20
-4.016987
 40
1.620476
 50
90.000000
 51
181.041633
  0
ARC
  8
A-POWR-0
 10
-1.993710
 20
-4.015897
 40
1.680484
 50
181.041622
 51
270.000000
  0
LINE
  8
A-POWR-0
 10
-1.993710
 20
-5.696380
 11
-0.263288
 21
-5.696380
  0
ARC
  8
A-POWR-0
 10
-0.173292
 20
-7.420123
 40
1.636124
 50
270.000000
 51
1.534338
  0
ARC
  8
A-POWR-0
 10
-0.263288
 20
-7.422534
 40
1.726153
 50
1.534347
 51
90.000000
  0
LINE
  8
A-POWR-0
 10
-0.173292
 20
-9.056247
 11
-3.662938
 21
-9.056247
  0
LINE
  8
A-POWR-0
 10
-1.156680
 20
-0.026605
 11
-1.156680
 21
-11.036168
  0
TEXT
  8
A-POWR-0
 10
0.392856
 20
-14.424207
 40
2.732740
  1
3
  7
STANDARD
  0
ENDBLK
  0
BLOCK
  8
A-POWR-0
  2
FIXT-4_Way
 70
64
 10
0.0
 20
0.0
  0
LINE
  8
A-POWR-0
 10
1.506088
 20
-2.396511
 11
-2.053707
 21
-2.396511
  0
ARC
  8
A-POWR-0
 10
-2.053707
 20
-4.016987
 40
1.620476
 50
90.000000
 51
181.041633
  0
ARC
  8
A-POWR-0
 10
-1.993710
 20
-4.015897
 40
1.680484
 50
181.041622
 51
270.000000
  0
LINE
  8
A-POWR-0
 10
-1.993710
 20
-5.696380
 11
-0.263288
 21
-5.696380
  0
ARC
  8
A-POWR-0
 10
-0.173292
 20
-7.420123
 40
1.636124
 50
270.000000
 51
1.534338
  0
ARC
  8
A-POWR-0
 10
-0.263288
 20
-7.422534
 40
1.726153
 50
1.534347
 51
90.000000
  0
LINE
  8
A-POWR-0
 10
-0.173292
 20
-9.056247
 11
-3.662938
 21
-9.056247
  0
LINE
  8
A-POWR-0
 10
-1.156680
 20
-0.026605
 11
-1.156680
 21
-11.036168
  0
TEXT
  8
A-POWR-0
 10
0.392856
 20
-14.424207
 40
2.732740
  1
4
  7
STANDARD
  0
ENDBLK
  0
BLOCK
  8
A-POWR-0
  2
FIXT-5_Way
 70
64
 10
0.0
 20
0.0
  0
LINE
  8
A-POWR-0
 10
1.506088
 20
-2.396511
 11
-2.053707
 21
-2.396511
  0
ARC
  8
A-POWR-0
 10
-2.053707
 20
-4.016987
 40
1.620476
 50
90.000000
 51
181.041633
  0
ARC
  8
A-POWR-0
 10
-1.993710
 20
-4.015897
 40
1.680484
 50
181.041622
 51
270.000000
  0
LINE
  8
A-POWR-0
 10
-1.993710
 20
-5.696380
 11
-0.263288
 21
-5.696380
  0
ARC
  8
A-POWR-0
 10
-0.173292
 20
-7.420123
 40
1.636124
 50
270.000000
 51
1.534338
  0
ARC
  8
A-POWR-0
 10
-0.263288
 20
-7.422534
 40
1.726153
 50
1.534347
 51
90.000000
  0
LINE
  8
A-POWR-0
 10
-0.173292
 20
-9.056247
 11
-3.662938
 21
-9.056247
  0
LINE
  8
A-POWR-0
 10
-1.156680
 20
-0.026605
 11
-1.156680
 21
-11.036168
  0
TEXT
  8
A-POWR-0
 10
0.392856
 20
-14.424207
 40
2.732740
  1
5
  7
STANDARD
  0
ENDBLK
  0
ENDSEC
  0
SECTION
  2
ENTITIES
  0
LINE
  8
A-WALL-0
 10
-262.000000
 20
-278.000000
 11
-262.000000
 21
-267.000000
  0
LINE
  8
A-WALL-0
 10
-274.000000
 20
-255.000000
 11
-274.000000
 21
-278.000000
  0
LINE
  8
A-WALL-0
 10
-262.000000
 20
-414.000000
 11
-262.000000
 21
-314.000000
  0
LINE
  8
A-WALL-0
 10
-274.000000
 20
-314.000000
 11
-274.000000
 21
-414.000000
  0
LINE
  8
A-WALL-0
 10
-262.000000
 20
-468.000000
 11
-262.000000
 21
-450.000000
  0
LINE
  8
A-WALL-0
 10
-274.000000
 20
-450.000000
 11
-274.000000
 21
-470.000000
  0
LINE
  8
A-GLAZ-0
 10
-274.000000
 20
-278.000000
 11
-262.000000
 21
-278.000000
  0
LINE
  8
A-GLAZ-0
 10
-262.000000
 20
-314.000000
 11
-274.000000
 21
-314.000000
  0
LINE
  8
A-GLAZ-0
 10
-262.000000
 20
-314.000000
 11
-262.000000
 21
-278.000000
  0
LINE
  8
A-GLAZ-0
 10
-274.000000
 20
-278.000000
 11
-274.000000
 21
-314.000000
  0
LINE
  8
A-GLAZ-0
 10
-268.000000
 20
-278.000000
 11
-268.000000
 21
-314.000000
  0
TEXT
  8
A-DIMS-0
 10
-278.448691
 20
-305.402974
 40
5.465479
  1
3020
 50
90.000000
  7
STANDARD
  0
LINE
  8
A-GLAZ-0
 10
-274.000000
 20
-414.000000
 11
-262.000000
 21
-414.000000
  0
LINE
  8
A-GLAZ-0
 10
-262.000000
 20
-450.000000
 11
-274.000000
 21
-450.000000
  0
LINE
  8
A-GLAZ-0
 10
-262.000000
 20
-450.000000
 11
-262.000000
 21
-414.000000
  0
LINE
  8
A-GLAZ-0
 10
-274.000000
 20
-414.000000
 11
-274.000000
 21
-450.000000
  0
LINE
  8
A-GLAZ-0
 10
-268.000000
 20
-414.000000
 11
-268.000000
 21
-450.000000
  0
TEXT
  8
A-DIMS-0
 10
-278.448691
 20
-441.402974
 40
5.465479
  1
3020
 50
90.000000
  7
STANDARD
  0
LINE
  8
A-WALL-0
  6
DOTTED
 10
206.000000
 20
-171.000000
 11
74.000000
 21
-171.000000
  0
LINE
  8
A-WALL-0
  6
DOTTED
 10
74.000000
 20
-179.000000
 11
198.000000
 21
-179.000000
  0
LINE
  8
A-WALL-0
 10
38.000000
 20
-387.000000
 11
38.000000
 21
-406.000000
  0
LINE
  8
A-WALL-0
 10
42.000000
 20
-472.000000
 11
42.000000
 21
-391.000000
  0
LINE
  8
A-WALL-0
 10
38.000000
 20
-410.000000
 11
38.000000
 21
-468.000000
  0
LINE
  8
A-WALL-0
 10
-32.000000
 20
-410.000000
 11
38.000000
 21
-410.000000
  0
LINE
  8
A-WALL-0
 10
38.000000
 20
-406.000000
 11
-36.000000
 21
-406.000000
  0
LINE
  8
A-WALL-0
 10
-36.000000
 20
-406.000000
 11
-36.000000
 21
-468.000000
  0
LINE
  8
A-WALL-0
 10
-32.000000
 20
-468.000000
 11
-32.000000
 21
-410.000000
  0
LINE
  8
A-WALL-0
  6
DOTTED
 10
206.000000
 20
-255.000000
 11
206.000000
 21
-171.000000
  0
LINE
  8
A-WALL-0
  6
DOTTED
 10
198.000000
 20
-179.000000
 11
198.000000
 21
-255.000000
  0
LINE
  8
A-WALL-0
 10
230.000000
 20
-277.000000
 11
230.000000
 21
-255.000000
  0
LINE
  8
A-WALL-0
 10
218.000000
 20
-267.000000
 11
218.000000
 21
-277.000000
  0
LINE
  8
A-WALL-0
 10
218.000000
 20
-313.000000
 11
218.000000
 21
-415.000000
  0
LINE
  8
A-WALL-0
 10
230.000000
 20
-495.000000
 11
230.000000
 21
-313.000000
  0
LINE
  8
A-WALL-0
 10
218.000000
 20
-419.000000
 11
218.000000
 21
-493.000000
  0
LINE
  8
A-GLAZ-0
 10
230.000000
 20
-313.000000
 11
218.000000
 21
-313.000000
  0
LINE
  8
A-GLAZ-0
 10
218.000000
 20
-277.000000
 11
230.000000
 21
-277.000000
  0
LINE
  8
A-GLAZ-0
 10
218.000000
 20
-277.000000
 11
218.000000
 21
-313.000000
  0
LINE
  8
A-GLAZ-0
 10
230.000000
 20
-313.000000
 11
230.000000
 21
-277.000000
  0
LINE
  8
A-GLAZ-0
 10
224.000000
 20
-313.000000
 11
224.000000
 21
-277.000000
  0
TEXT
  8
A-DIMS-0
 10
239.672567
 20
-304.402974
 40
5.465479
  1
3022
 50
90.000000
  7
STANDARD
  0
LINE
  8
A-WALL-0
 10
-209.000000
 20
-255.000000
 11
-274.000000
 21
-255.000000
  0
LINE
  8
A-WALL-0
 10
-262.000000
 20
-267.000000
 11
-209.000000
 21
-267.000000
  0
LINE
  8
A-WALL-0
 10
-112.000000
 20
-255.000000
 11
-147.000000
 21
-255.000000
  0
LINE
  8
A-WALL-0
 10
-147.000000
 20
-267.000000
 11
-114.000000
 21
-267.000000
  0
LINE
  8
A-GLAZ-0
 10
-209.000000
 20
-255.000000
 11
-209.000000
 21
-267.000000
  0
LINE
  8
A-GLAZ-0
 10
-147.000000
 20
-255.000000
 11
-147.000000
 21
-267.000000
  0
LINE
  8
A-GLAZ-0
 10
-209.000000
 20
-267.000000
 11
-209.000000
 21
-298.000000
  0
LINE
  8
A-GLAZ-0
 10
-207.250000
 20
-298.000000
 11
-207.250000
 21
-267.000000
  0
LINE
  8
A-GLAZ-0
 10
-207.250000
 20
-267.000000
 11
-209.000000
 21
-267.000000
  0
ARC
  8
A-GLAZ-0
 10
-209.000000
 20
-267.000000
 40
31.000000
 50
270.000000
 51
0.000000
  0
LINE
  8
A-GLAZ-0
 10
-147.000000
 20
-267.000000
 11
-147.000000
 21
-298.000000
  0
LINE
  8
A-GLAZ-0
 10
-148.750000
 20
-298.000000
 11
-148.750000
 21
-267.000000
  0
LINE
  8
A-GLAZ-0
 10
-148.750000
 20
-267.000000
 11
-147.000000
 21
-267.000000
  0
ARC
  8
A-GLAZ-0
 10
-147.000000
 20
-267.000000
 40
31.000000
 50
180.000000
 51
270.000000
  0
LINE
  8
A-GLAZ-0
 10
-209.000000
 20
-255.000000
 11
-147.000000
 21
-255.000000
  0
TEXT
  8
A-DIMS-0
 10
-187.402974
 20
-250.551309
 40
5.465479
  1
5268
  7
STANDARD
  0
LINE
  8
A-WALL-0
 10
-106.000000
 20
-213.000000
 11
-106.000000
 21
-103.000000
  0
LINE
  8
A-WALL-0
 10
-114.000000
 20
-95.000000
 11
-114.000000
 21
-213.000000
  0
LINE
  8
A-WALL-0
 10
-106.000000
 20
-255.000000
 11
-106.000000
 21
-249.000000
  0
LINE
  8
A-WALL-0
 10
-114.000000
 20
-249.000000
 11
-114.000000
 21
-255.000000
  0
LINE
  8
A-GLAZ-0
 10
-106.000000
 20
-213.000000
 11
-114.000000
 21
-213.000000
  0
LINE
  8
A-GLAZ-0
 10
-106.000000
 20
-249.000000
 11
-114.000000
 21
-249.000000
  0
LINE
  8
A-GLAZ-0
 10
-106.000000
 20
-249.000000
 11
-70.000000
 21
-249.000000
  0
LINE
  8
A-GLAZ-0
 10
-70.000000
 20
-247.250000
 11
-106.000000
 21
-247.250000
  0
LINE
  8
A-GLAZ-0
 10
-106.000000
 20
-247.250000
 11
-106.000000
 21
-249.000000
  0
ARC
  8
A-GLAZ-0
 10
-106.000000
 20
-249.000000
 40
36.000000
 50
0.000000
 51
90.000000
  0
LINE
  8
A-GLAZ-0
 10
-114.000000
 20
-213.000000
 11
-114.000000
 21
-249.000000
  0
TEXT
  8
A-DIMS-0
 10
-118.448691
 20
-240.402974
 40
5.465479
  1
3068
 50
90.000000
  7
STANDARD
  0
LINE
  8
A-WALL-0
 10
-110.000000
 20
-270.000000
 11
-110.000000
 21
-267.000000
  0
LINE
  8
A-WALL-0
 10
-114.000000
 20
-267.000000
 11
-114.000000
 21
-270.000000
  0
LINE
  8
A-WALL-0
 10
-110.000000
 20
-337.000000
 11
-110.000000
 21
-332.000000
  0
LINE
  8
A-WALL-0
 10
-114.000000
 20
-332.000000
 11
-114.000000
 21
-341.000000
  0
LINE
  8
A-GLAZ-0
 10
-110.000000
 20
-270.000000
 11
-114.000000
 21
-270.000000
  0
LINE
  8
A-GLAZ-0
 10
-110.000000
 20
-332.000000
 11
-114.000000
 21
-332.000000
  0
LINE
  8
A-GLAZ-0
 10
-114.000000
 20
-270.000000
 11
-145.000000
 21
-270.000000
  0
LINE
  8
A-GLAZ-0
 10
-145.000000
 20
-271.375000
 11
-114.000000
 21
-271.375000
  0
LINE
  8
A-GLAZ-0
 10
-114.000000
 20
-271.375000
 11
-114.000000
 21
-270.000000
  0
ARC
  8
A-GLAZ-0
 10
-114.000000
 20
-270.000000
 40
31.000000
 50
180.000000
 51
270.000000
  0
LINE
  8
A-GLAZ-0
 10
-114.000000
 20
-332.000000
 11
-145.000000
 21
-332.000000
  0
LINE
  8
A-GLAZ-0
 10
-145.000000
 20
-330.625000
 11
-114.000000
 21
-330.625000
  0
LINE
  8
A-GLAZ-0
 10
-114.000000
 20
-330.625000
 11
-114.000000
 21
-332.000000
  0
ARC
  8
A-GLAZ-0
 10
-114.000000
 20
-332.000000
 40
31.000000
 50
90.000000
 51
180.000000
  0
TEXT
  8
A-DIMS-0
 10
-109.388062
 20
-310.402974
 40
5.465479
  1
5268
 50
90.000000
  7
STANDARD
  0
LINE
  8
A-WALL-0
 10
230.000000
 20
-571.000000
 11
230.000000
 21
-495.000000
  0
LINE
  8
A-WALL-0
 10
222.000000
 20
-497.000000
 11
222.000000
 21
-563.000000
  0
LINE
  8
A-WALL-0
  6
DOTTED
 10
102.000000
 20
-811.000000
 11
230.000000
 21
-811.000000
  0
LINE
  8
A-WALL-0
  6
DOTTED
 10
222.000000
 20
-803.000000
 11
94.000000
 21
-803.000000
  0
LINE
  8
A-WALL-0
 10
-84.000000
 20
-337.000000
 11
-110.000000
 21
-337.000000
  0
LINE
  8
A-WALL-0
 10
66.000000
 20
-337.000000
 11
-80.000000
 21
-337.000000
  0
LINE
  8
A-WALL-0
 10
-114.000000
 20
-341.000000
 11
66.000000
 21
-341.000000
  0
LINE
  8
A-WALL-0
 10
-106.000000
 20
-103.000000
 11
66.000000
 21
-103.000000
  0
LINE
  8
A-WALL-0
 10
74.000000
 20
-95.000000
 11
-114.000000
 21
-95.000000
  0
LINE
  8
A-WALL-0
 10
-266.000000
 20
-472.000000
 11
-170.000000
 21
-472.000000
  0
LINE
  8
A-WALL-0
 10
-134.990494
 20
-468.000000
 11
-262.000000
 21
-468.000000
  0
LINE
  8
A-WALL-0
 10
-166.000000
 20
-472.000000
 11
-134.990494
 21
-472.000000
  0
LINE
  8
A-WALL-0
 10
-36.000000
 20
-468.000000
 11
-98.990486
 21
-468.000000
  0
LINE
  8
A-WALL-0
 10
-15.037471
 20
-468.000000
 11
-32.000000
 21
-468.000000
  0
LINE
  8
A-WALL-0
 10
-98.990486
 20
-472.000000
 11
-15.037471
 21
-472.000000
  0
LINE
  8
A-WALL-0
 10
20.962528
 20
-472.000000
 11
26.000000
 21
-472.000000
  0
LINE
  8
A-WALL-0
 10
38.000000
 20
-468.000000
 11
20.962528
 21
-468.000000
  0
LINE
  8
A-WALL-0
 10
30.000000
 20
-472.000000
 11
42.000000
 21
-472.000000
  0
LINE
  8
A-GLAZ-0
 10
-134.990488
 20
-468.000000
 11
-134.990488
 21
-472.000000
  0
LINE
  8
A-GLAZ-0
 10
-98.990488
 20
-468.000000
 11
-98.990488
 21
-472.000000
  0
LINE
  8
A-GLAZ-0
 10
-134.990488
 20
-468.000000
 11
-134.990488
 21
-432.000000
  0
LINE
  8
A-GLAZ-0
 10
-133.615488
 20
-432.000000
 11
-133.615488
 21
-468.000000
  0
LINE
  8
A-GLAZ-0
 10
-133.615488
 20
-468.000000
 11
-134.990488
 21
-468.000000
  0
ARC
  8
A-GLAZ-0
 10
-134.990488
 20
-468.000000
 40
36.000000
 50
0.000000
 51
90.000000
  0
TEXT
  8
A-DIMS-0
 10
-126.393463
 20
-472.611938
 40
5.465479
  1
3068
  7
STANDARD
  0
LINE
  8
A-GLAZ-0
 10
-15.037471
 20
-468.000000
 11
-15.037471
 21
-472.000000
  0
LINE
  8
A-GLAZ-0
 10
20.962529
 20
-468.000000
 11
20.962529
 21
-472.000000
  0
LINE
  8
A-GLAZ-0
 10
20.962529
 20
-472.000000
 11
20.962529
 21
-508.000000
  0
LINE
  8
A-GLAZ-0
 10
19.587529
 20
-508.000000
 11
19.587529
 21
-472.000000
  0
LINE
  8
A-GLAZ-0
 10
19.587529
 20
-472.000000
 11
20.962529
 21
-472.000000
  0
ARC
  8
A-GLAZ-0
 10
20.962529
 20
-472.000000
 40
36.000000
 50
180.000000
 51
270.000000
  0
TEXT
  8
A-DIMS-0
 10
-6.440445
 20
-472.611938
 40
5.465479
  1
3068
  7
STANDARD
  0
LINE
  8
A-WALL-0
 10
134.000000
 20
-493.000000
 11
134.000000
 21
-419.000000
  0
LINE
  8
A-WALL-0
 10
130.000000
 20
-419.000000
 11
130.000000
 21
-497.000000
  0
LINE
  8
A-WALL-0
 10
191.000000
 20
-419.000000
 11
218.000000
 21
-419.000000
  0
LINE
  8
A-WALL-0
 10
218.000000
 20
-415.000000
 11
191.000000
 21
-415.000000
  0
LINE
  8
A-WALL-0
 10
134.000000
 20
-419.000000
 11
161.000000
 21
-419.000000
  0
LINE
  8
A-WALL-0
 10
66.000000
 20
-419.000000
 11
130.000000
 21
-419.000000
  0
LINE
  8
A-WALL-0
 10
161.000000
 20
-415.000000
 11
70.000000
 21
-415.000000
  0
LINE
  8
A-GLAZ-0
 10
191.000000
 20
-419.000000
 11
191.000000
 21
-415.000000
  0
LINE
  8
A-GLAZ-0
 10
161.000000
 20
-419.000000
 11
161.000000
 21
-418.000000
  0
LINE
  8
A-GLAZ-0
 10
161.000000
 20
-416.000000
 11
161.000000
 21
-415.000000
  0
LINE
  8
A-GLAZ-0
 10
176.000000
 20
-416.312500
 11
176.000000
 21
-417.687500
  0
LINE
  8
A-GLAZ-0
 10
146.000000
 20
-416.312500
 11
146.000000
 21
-417.687500
  0
LINE
  8
A-GLAZ-0
 10
176.000000
 20
-416.312500
 11
146.000000
 21
-416.312500
  0
LINE
  8
A-GLAZ-0
 10
176.000000
 20
-417.687500
 11
146.000000
 21
-417.687500
  0
TEXT
  8
A-DIMS-0
 10
166.597026
 20
-410.551309
 40
5.465479
  1
2668
  7
STANDARD
  0
LINE
  8
A-WALL-0
  6
DOTTED
 10
102.000000
 20
-839.000000
 11
102.000000
 21
-811.000000
  0
LINE
  8
A-WALL-0
  6
DOTTED
 10
94.000000
 20
-803.000000
 11
94.000000
 21
-831.000000
  0
LINE
  8
A-WALL-0
 10
218.000000
 20
-493.000000
 11
134.000000
 21
-493.000000
  0
LINE
  8
A-WALL-0
 10
130.000000
 20
-497.000000
 11
222.000000
 21
-497.000000
  0
LINE
  8
A-WALL-0
 10
66.000000
 20
-387.000000
 11
38.000000
 21
-387.000000
  0
LINE
  8
A-WALL-0
 10
42.000000
 20
-391.000000
 11
66.000000
 21
-391.000000
  0
LINE
  8
A-WALL-0
 10
70.000000
 20
-301.500000
 11
70.000000
 21
-267.000000
  0
LINE
  8
A-WALL-0
 10
66.000000
 20
-267.000000
 11
66.000000
 21
-301.500000
  0
LINE
  8
A-WALL-0
 10
66.000000
 20
-333.500000
 11
66.000000
 21
-337.000000
  0
LINE
  8
A-WALL-0
 10
70.000000
 20
-351.500000
 11
70.000000
 21
-333.500000
  0
LINE
  8
A-WALL-0
 10
66.000000
 20
-341.000000
 11
66.000000
 21
-351.500000
  0
LINE
  8
A-WALL-0
 10
66.000000
 20
-383.500000
 11
66.000000
 21
-387.000000
  0
LINE
  8
A-WALL-0
 10
70.000000
 20
-415.000000
 11
70.000000
 21
-383.500000
  0
LINE
  8
A-WALL-0
 10
66.000000
 20
-391.000000
 11
66.000000
 21
-419.000000
  0
LINE
  8
A-GLAZ-0
 10
70.000000
 20
-301.500000
 11
66.000000
 21
-301.500000
  0
LINE
  8
A-GLAZ-0
 10
70.000000
 20
-333.500000
 11
66.000000
 21
-333.500000
  0
LINE
  8
A-GLAZ-0
 10
66.000000
 20
-333.500000
 11
34.000000
 21
-333.500000
  0
LINE
  8
A-GLAZ-0
 10
34.000000
 20
-332.125000
 11
66.000000
 21
-332.125000
  0
LINE
  8
A-GLAZ-0
 10
66.000000
 20
-332.125000
 11
66.000000
 21
-333.500000
  0
ARC
  8
A-GLAZ-0
 10
66.000000
 20
-333.500000
 40
32.000000
 50
90.000000
 51
180.000000
  0
TEXT
  8
A-DIMS-0
 10
70.611938
 20
-326.902974
 40
5.465479
  1
2868
 50
90.000000
  7
STANDARD
  0
LINE
  8
A-GLAZ-0
 10
70.000000
 20
-351.500000
 11
66.000000
 21
-351.500000
  0
LINE
  8
A-GLAZ-0
 10
70.000000
 20
-383.500000
 11
66.000000
 21
-383.500000
  0
LINE
  8
A-GLAZ-0
 10
70.000000
 20
-383.500000
 11
102.000000
 21
-383.500000
  0
LINE
  8
A-GLAZ-0
 10
102.000000
 20
-382.125000
 11
70.000000
 21
-382.125000
  0
LINE
  8
A-GLAZ-0
 10
70.000000
 20
-382.125000
 11
70.000000
 21
-383.500000
  0
ARC
  8
A-GLAZ-0
 10
70.000000
 20
-383.500000
 40
32.000000
 50
0.000000
 51
90.000000
  0
TEXT
  8
A-DIMS-0
 10
70.611938
 20
-376.902974
 40
5.465479
  1
2868
 50
90.000000
  7
STANDARD
  0
LINE
  8
A-WALL-0
 10
-80.000000
 20
-337.000000
 11
-80.000000
 21
-267.000000
  0
LINE
  8
A-WALL-0
 10
-84.000000
 20
-267.000000
 11
-84.000000
 21
-337.000000
  0
LINE
  8
A-WALL-0
 10
-274.000000
 20
-605.000000
 11
-286.047302
 21
-605.000000
  0
LINE
  8
A-WALL-0
 10
-282.733582
 20
-613.000000
 11
-266.000000
 21
-613.000000
  0
LINE
  8
A-WALL-0
 10
-182.000000
 20
-719.000000
 11
-182.000000
 21
-791.000000
  0
LINE
  8
A-WALL-0
 10
-174.000000
 20
-799.000000
 11
-174.000000
 21
-727.000000
  0
LINE
  8
A-WALL-0
  6
DOTTED
 10
-228.000000
 20
-514.000000
 11
-228.000000
 21
-602.000000
  0
LINE
  8
A-WALL-0
  6
DOTTED
 10
-226.000000
 20
-602.000000
 11
-226.000000
 21
-516.000000
  0
LINE
  8
A-WALL-0
 10
30.000000
 20
-511.000000
 11
30.000000
 21
-472.000000
  0
LINE
  8
A-WALL-0
 10
26.000000
 20
-472.000000
 11
26.000000
 21
-511.000000
  0
LINE
  8
A-WALL-0
 10
30.000000
 20
-563.000000
 11
30.000000
 21
-547.000000
  0
LINE
  8
A-WALL-0
 10
26.000000
 20
-547.000000
 11
26.000000
 21
-559.000000
  0
LINE
  8
A-GLAZ-0
 10
30.000000
 20
-511.000000
 11
26.000000
 21
-511.000000
  0
LINE
  8
A-GLAZ-0
 10
30.000000
 20
-547.000000
 11
26.000000
 21
-547.000000
  0
LINE
  8
A-GLAZ-0
 10
26.000000
 20
-547.000000
 11
-10.000000
 21
-547.000000
  0
LINE
  8
A-GLAZ-0
 10
-10.000000
 20
-545.625000
 11
26.000000
 21
-545.625000
  0
LINE
  8
A-GLAZ-0
 10
26.000000
 20
-545.625000
 11
26.000000
 21
-547.000000
  0
ARC
  8
A-GLAZ-0
 10
26.000000
 20
-547.000000
 40
36.000000
 50
90.000000
 51
180.000000
  0
TEXT
  8
A-DIMS-0
 10
30.611938
 20
-538.402974
 40
5.465479
  1
3068
 50
90.000000
  7
STANDARD
  0
LINE
  8
A-WALL-0
  6
DOTTED
 10
-170.000000
 20
-514.000000
 11
-228.000000
 21
-514.000000
  0
LINE
  8
A-WALL-0
  6
DOTTED
 10
-226.000000
 20
-516.000000
 11
-166.000000
 21
-516.000000
  0
LINE
  8
A-WALL-0
  6
DOTTED
 10
230.000000
 20
-811.000000
 11
230.000000
 21
-565.000000
  0
LINE
  8
A-WALL-0
  6
DOTTED
 10
222.000000
 20
-571.000000
 11
222.000000
 21
-803.000000
  0
LINE
  8
A-WALL-0
 10
-38.000000
 20
-727.000000
 11
-38.000000
 21
-719.000000
  0
LINE
  8
A-WALL-0
 10
-174.000000
 20
-727.000000
 11
-38.000000
 21
-727.000000
  0
LINE
  8
A-WALL-0
 10
-42.000000
 20
-719.000000
 11
-182.000000
 21
-719.000000
  0
LINE
  8
A-WALL-0
  6
DOTTED
 10
-42.000000
 20
-839.000000
 11
102.000000
 21
-839.000000
  0
LINE
  8
A-WALL-0
  6
DOTTED
 10
94.000000
 20
-831.000000
 11
-34.000000
 21
-831.000000
  0
LINE
  8
A-WALL-0
 10
-266.000000
 20
-602.000000
 11
-266.000000
 21
-472.000000
  0
LINE
  8
A-WALL-0
 10
-266.000000
 20
-613.000000
 11
-266.000000
 21
-606.000000
  0
LINE
  8
A-WALL-0
 10
-274.000000
 20
-470.000000
 11
-274.000000
 21
-605.000000
  0
LINE
  8
A-WALL-0
 10
-322.000000
 20
-799.000000
 11
-174.000000
 21
-799.000000
  0
LINE
  8
A-WALL-0
 10
-182.000000
 20
-791.000000
 11
-314.000000
 21
-791.000000
  0
LINE
  8
A-WALL-0
 10
-322.000000
 20
-640.952698
 11
-322.000000
 21
-799.000000
  0
LINE
  8
A-WALL-0
 10
-314.000000
 20
-791.000000
 11
-314.000000
 21
-644.266418
  0
LINE
  8
A-WALL-0
 10
-286.047302
 20
-605.000000
 11
-322.000000
 21
-640.952698
  0
LINE
  8
A-WALL-0
 10
-314.000000
 20
-644.266418
 11
-282.733582
 21
-613.000000
  0
LINE
  8
A-WALL-0
 10
230.000000
 20
-255.000000
 11
74.000000
 21
-255.000000
  0
LINE
  8
A-WALL-0
 10
70.000000
 20
-267.000000
 11
218.000000
 21
-267.000000
  0
LINE
  8
A-WALL-0
 10
-80.000000
 20
-267.000000
 11
66.000000
 21
-267.000000
  0
LINE
  8
A-WALL-0
 10
66.000000
 20
-255.000000
 11
-106.000000
 21
-255.000000
  0
LINE
  8
A-WALL-0
 10
-110.000000
 20
-267.000000
 11
-84.000000
 21
-267.000000
  0
LINE
  8
A-WALL-0
 10
74.000000
 20
-255.000000
 11
74.000000
 21
-95.000000
  0
LINE
  8
A-WALL-0
 10
66.000000
 20
-103.000000
 11
66.000000
 21
-255.000000
  0
LINE
  8
A-WALL-0
  6
DOTTED
 10
-42.000000
 20
-775.000000
 11
-42.000000
 21
-839.000000
  0
LINE
  8
A-WALL-0
  6
DOTTED
 10
-42.000000
 20
-727.000000
 11
-42.000000
 21
-767.000000
  0
LINE
  8
A-WALL-0
  6
DOTTED
 10
-34.000000
 20
-831.000000
 11
-34.000000
 21
-719.000000
  0
LINE
  8
A-WALL-0
 10
-34.000000
 20
-719.000000
 11
-34.000000
 21
-605.000000
  0
LINE
  8
A-WALL-0
 10
-42.000000
 20
-606.000000
 11
-42.000000
 21
-719.000000
  0
LINE
  8
A-WALL-0
 10
-170.000000
 20
-515.000000
 11
-166.000000
 21
-515.000000
  0
LINE
  8
A-WALL-0
 10
-166.000000
 20
-478.000000
 11
-166.000000
 21
-472.000000
  0
LINE
  8
A-WALL-0
 10
-170.000000
 20
-472.000000
 11
-170.000000
 21
-478.000000
  0
LINE
  8
A-WALL-0
 10
-166.000000
 20
-515.000000
 11
-166.000000
 21
-508.000000
  0
LINE
  8
A-WALL-0
 10
-170.000000
 20
-508.000000
 11
-170.000000
 21
-515.000000
  0
LINE
  8
A-GLAZ-0
 10
-166.000000
 20
-478.000000
 11
-170.000000
 21
-478.000000
  0
LINE
  8
A-GLAZ-0
 10
-166.000000
 20
-508.000000
 11
-170.000000
 21
-508.000000
  0
LINE
  8
A-GLAZ-0
 10
-166.000000
 20
-478.000000
 11
-136.000000
 21
-478.000000
  0
LINE
  8
A-GLAZ-0
 10
-136.000000
 20
-479.375000
 11
-166.000000
 21
-479.375000
  0
LINE
  8
A-GLAZ-0
 10
-166.000000
 20
-479.375000
 11
-166.000000
 21
-478.000000
  0
ARC
  8
A-GLAZ-0
 10
-166.000000
 20
-478.000000
 40
30.000000
 50
270.000000
 51
0.000000
  0
TEXT
  8
A-DIMS-0
 10
-165.388062
 20
-502.402974
 40
5.465479
  1
2668
 50
90.000000
  7
STANDARD
  0
LINE
  8
A-WALL-0
 10
26.000000
 20
-559.000000
 11
-46.000000
 21
-559.000000
  0
LINE
  8
A-WALL-0
 10
-34.000000
 20
-571.000000
 11
28.000000
 21
-571.000000
  0
LINE
  8
A-WALL-0
 10
-34.000000
 20
-605.000000
 11
-34.000000
 21
-571.000000
  0
LINE
  8
A-WALL-0
 10
-46.000000
 20
-559.000000
 11
-46.000000
 21
-602.000000
  0
LINE
  8
A-WALL-0
  6
DOTTED
 10
-42.000000
 20
-767.000000
 11
-174.000000
 21
-767.000000
  0
LINE
  8
A-WALL-0
  6
DOTTED
 10
-174.000000
 20
-775.000000
 11
-42.000000
 21
-775.000000
  0
LINE
  8
A-WALL-0
 10
-196.801941
 20
-602.000000
 11
-266.000000
 21
-602.000000
  0
LINE
  8
A-WALL-0
 10
-266.000000
 20
-606.000000
 11
-196.801941
 21
-606.000000
  0
LINE
  8
A-WALL-0
 10
-46.000000
 20
-602.000000
 11
-160.801941
 21
-602.000000
  0
LINE
  8
A-WALL-0
 10
-160.801941
 20
-606.000000
 11
-42.000000
 21
-606.000000
  0
LINE
  8
A-GLAZ-0
 10
-196.801948
 20
-602.000000
 11
-196.801948
 21
-606.000000
  0
LINE
  8
A-GLAZ-0
 10
-160.801948
 20
-602.000000
 11
-160.801948
 21
-606.000000
  0
LINE
  8
A-GLAZ-0
 10
-196.801948
 20
-606.000000
 11
-196.801948
 21
-642.000000
  0
LINE
  8
A-GLAZ-0
 10
-195.426948
 20
-642.000000
 11
-195.426948
 21
-606.000000
  0
LINE
  8
A-GLAZ-0
 10
-195.426948
 20
-606.000000
 11
-196.801948
 21
-606.000000
  0
ARC
  8
A-GLAZ-0
 10
-196.801948
 20
-606.000000
 40
36.000000
 50
270.000000
 51
0.000000
  0
TEXT
  8
A-DIMS-0
 10
-188.204923
 20
-607.611938
 40
5.465479
  1
3068
  7
STANDARD
  0
LINE
  8
A-WALL-0
 10
222.000000
 20
-563.000000
 11
30.000000
 21
-563.000000
  0
LINE
  8
A-WALL-0
 10
28.000000
 20
-571.000000
 11
230.000000
 21
-571.000000
  0
LINE
  8
A-STAR-0
 10
-215.000000
 20
-602.000000
 11
-206.000000
 21
-602.000000
  0
LINE
  8
A-STAR-0
 10
-206.000000
 20
-602.000000
 11
-206.000000
 21
-560.000000
  0
LINE
  8
A-STAR-0
 10
-206.000000
 20
-560.000000
 11
-215.000000
 21
-560.000000
  0
LINE
  8
A-STAR-0
 10
-224.000000
 20
-602.000000
 11
-215.000000
 21
-602.000000
  0
LINE
  8
A-STAR-0
 10
-215.000000
 20
-602.000000
 11
-215.000000
 21
-560.000000
  0
LINE
  8
A-STAR-0
 10
-215.000000
 20
-560.000000
 11
-224.000000
 21
-560.000000
  0
LINE
  8
A-STAR-0
 10
-224.000000
 20
-602.000000
 11
-224.000000
 21
-560.000000
  0
TEXT
  8
A-POWR-0
 10
-220.004971
 20
-580.162893
 40
4.554566
  1
UP
  7
STANDARD
  0
LINE
  8
A-STAR-0
 10
-225.000000
 20
-583.000000
 11
-214.000000
 21
-583.000000
  0
LINE
  8
A-STAR-0
 10
-224.000000
 20
-559.500000
 11
-224.000000
 21
-602.500000
  0
LINE
  8
A-STAR-0
 10
-224.000000
 20
-602.500000
 11
-266.000000
 21
-602.500000
  0
LINE
  8
A-STAR-0
 10
-266.000000
 20
-602.500000
 11
-266.000000
 21
-559.500000
  0
LINE
  8
A-STAR-0
 10
-266.000000
 20
-559.500000
 11
-224.000000
 21
-559.500000
  0
LINE
  8
A-STAR-0
 10
-266.000000
 20
-550.400000
 11
-266.000000
 21
-559.500000
  0
LINE
  8
A-STAR-0
 10
-266.000000
 20
-559.500000
 11
-224.000000
 21
-559.500000
  0
LINE
  8
A-STAR-0
 10
-224.000000
 20
-559.500000
 11
-224.000000
 21
-550.400000
  0
LINE
  8
A-STAR-0
 10
-266.000000
 20
-541.300000
 11
-266.000000
 21
-550.400000
  0
LINE
  8
A-STAR-0
 10
-266.000000
 20
-550.400000
 11
-224.000000
 21
-550.400000
  0
LINE
  8
A-STAR-0
 10
-224.000000
 20
-550.400000
 11
-224.000000
 21
-541.300000
  0
LINE
  8
A-STAR-0
 10
-266.000000
 20
-532.200000
 11
-266.000000
 21
-541.300000
  0
LINE
  8
A-STAR-0
 10
-266.000000
 20
-541.300000
 11
-224.000000
 21
-541.300000
  0
LINE
  8
A-STAR-0
 10
-224.000000
 20
-541.300000
 11
-224.000000
 21
-532.200000
  0
LINE
  8
A-STAR-0
 10
-266.000000
 20
-523.100000
 11
-266.000000
 21
-532.200000
  0
LINE
  8
A-STAR-0
 10
-266.000000
 20
-532.200000
 11
-224.000000
 21
-532.200000
  0
LINE
  8
A-STAR-0
 10
-224.000000
 20
-532.200000
 11
-224.000000
 21
-523.100000
  0
LINE
  8
A-STAR-0
 10
-266.000000
 20
-514.000000
 11
-266.000000
 21
-523.100000
  0
LINE
  8
A-STAR-0
 10
-266.000000
 20
-523.100000
 11
-224.000000
 21
-523.100000
  0
LINE
  8
A-STAR-0
 10
-224.000000
 20
-523.100000
 11
-224.000000
 21
-514.000000
  0
LINE
  8
A-STAR-0
 10
-266.000000
 20
-514.000000
 11
-224.000000
 21
-514.000000
  0
LINE
  8
A-STAR-0
 10
-223.500000
 20
-514.000000
 11
-266.000000
 21
-514.000000
  0
LINE
  8
A-STAR-0
 10
-266.000000
 20
-514.000000
 11
-266.000000
 21
-472.000000
  0
LINE
  8
A-STAR-0
 10
-266.000000
 20
-472.000000
 11
-223.500000
 21
-472.000000
  0
LINE
  8
A-STAR-0
 10
-223.500000
 20
-472.000000
 11
-223.500000
 21
-514.000000
  0
LINE
  8
A-STAR-0
 10
-214.500000
 20
-472.000000
 11
-223.500000
 21
-472.000000
  0
LINE
  8
A-STAR-0
 10
-223.500000
 20
-472.000000
 11
-223.500000
 21
-514.000000
  0
LINE
  8
A-STAR-0
 10
-223.500000
 20
-514.000000
 11
-214.500000
 21
-514.000000
  0
LINE
  8
A-STAR-0
 10
-205.500000
 20
-472.000000
 11
-214.500000
 21
-472.000000
  0
LINE
  8
A-STAR-0
 10
-214.500000
 20
-472.000000
 11
-214.500000
 21
-514.000000
  0
LINE
  8
A-STAR-0
 10
-214.500000
 20
-514.000000
 11
-205.500000
 21
-514.000000
  0
LINE
  8
A-STAR-0
 10
-196.500000
 20
-472.000000
 11
-205.500000
 21
-472.000000
  0
LINE
  8
A-STAR-0
 10
-205.500000
 20
-472.000000
 11
-205.500000
 21
-514.000000
  0
LINE
  8
A-STAR-0
 10
-205.500000
 20
-514.000000
 11
-196.500000
 21
-514.000000
  0
LINE
  8
A-STAR-0
 10
-187.500000
 20
-472.000000
 11
-196.500000
 21
-472.000000
  0
LINE
  8
A-STAR-0
 10
-196.500000
 20
-472.000000
 11
-196.500000
 21
-514.000000
  0
LINE
  8
A-STAR-0
 10
-196.500000
 20
-514.000000
 11
-187.500000
 21
-514.000000
  0
LINE
  8
A-STAR-0
 10
-178.500000
 20
-472.000000
 11
-187.500000
 21
-472.000000
  0
LINE
  8
A-STAR-0
 10
-187.500000
 20
-472.000000
 11
-187.500000
 21
-514.000000
  0
LINE
  8
A-STAR-0
 10
-187.500000
 20
-514.000000
 11
-178.500000
 21
-514.000000
  0
LINE
  8
A-STAR-0
 10
-169.500000
 20
-472.000000
 11
-178.500000
 21
-472.000000
  0
LINE
  8
A-STAR-0
 10
-178.500000
 20
-472.000000
 11
-178.500000
 21
-514.000000
  0
LINE
  8
A-STAR-0
 10
-178.500000
 20
-514.000000
 11
-169.500000
 21
-514.000000
  0
LINE
  8
A-STAR-0
 10
-169.500000
 20
-472.000000
 11
-169.500000
 21
-514.000000
  0
INSERT
  8
A-CASE-0
  2
FIXT-Toilet
 10
7.913734
 20
-296.980636
 41
1.000000
 42
1.071429
 43
 1.0
 50
0.000000
  0
INSERT
  8
A-CASE-0
  2
FIXT-WaterHG
 10
108.799212
 20
-456.263781
 41
1.000000
 42
1.000000
 43
 1.0
 50
0.000000
  0
INSERT
  8
A-CASE-0
  2
FIXT-FrnG2920
 10
71.865321
 20
-470.496873
 41
1.318182
 42
1.344828
 43
 1.0
 50
0.000000
  0
LINE
  8
A-CASE-0
 10
30.000000
 20
-291.000000
 11
30.000000
 21
-267.000000
  0
LINE
  8
A-CASE-0
 10
66.000000
 20
-291.000000
 11
30.000000
 21
-291.000000
  0
INSERT
  8
A-CASE-0
  2
FIXT-OvalBath
 10
48.000000
 20
-295.983894
 41
1.000000
 42
1.000000
 43
 1.0
 50
0.000000
  0
LINE
  8
A-CASE-0
 10
-47.000000
 20
-337.000000
 11
-80.000000
 21
-337.000000
  0
INSERT
  8
A-CASE-0
  2
FIXT-Shwr60
 10
-47.014040
 20
-302.000000
 41
1.166667
 42
1.000000
 43
 1.0
 50
-270.000000
  0
LINE
  8
A-CASE-0
 10
18.000000
 20
-341.000000
 11
18.000000
 21
-344.000000
  0
LINE
  8
A-CASE-0
 10
18.000000
 20
-356.484219
 11
18.000000
 21
-359.484219
  0
LINE
  8
A-CASE-0
 10
-12.000000
 20
-359.484219
 11
-12.000000
 21
-341.000000
  0
LINE
  8
A-CASE-0
 10
18.000000
 20
-359.484219
 11
-12.000000
 21
-359.484219
  0
INSERT
  8
A-CASE-0
  2
FIXT-Micro24
 10
3.000000
 20
-358.973698
 41
1.000000
 42
1.000000
 43
 1.0
 50
0.000000
  0
LINE
  8
A-CASE-0
 10
-90.000000
 20
-365.000000
 11
-93.000000
 21
-365.000000
  0
LINE
  8
A-CASE-0
 10
-111.000000
 20
-365.000000
 11
-114.000000
 21
-365.000000
  0
LINE
  8
A-CASE-0
 10
-90.000000
 20
-341.000000
 11
-90.000000
 21
-365.000000
  0
LINE
  8
A-CASE-0
 10
-114.000000
 20
-365.000000
 11
-114.000000
 21
-341.000000
  0
LINE
  8
A-CASE-0
 10
-109.000000
 20
-358.000000
 11
-114.000000
 21
-353.000000
  0
LINE
  8
A-CASE-0
 10
-109.000000
 20
-348.000000
 11
-114.000000
 21
-353.000000
  0
LINE
  8
A-CASE-0
  6
DASHED
 10
-4.962068
 20
-341.000000
 11
-4.962068
 21
-344.000000
  0
LINE
  8
A-CASE-0
  6
DASHED
 10
-4.962068
 20
-350.000000
 11
-4.962068
 21
-353.000000
  0
LINE
  8
A-CASE-0
  6
DASHED
 10
-37.962068
 20
-353.000000
 11
-37.962068
 21
-341.000000
  0
LINE
  8
A-CASE-0
  6
DASHED
 10
-4.962068
 20
-353.000000
 11
-37.962068
 21
-353.000000
  0
INSERT
  8
A-CASE-0
  2
FIXT-ref002
 10
-27.000000
 20
-371.002028
 41
1.000000
 42
1.000000
 43
 1.0
 50
0.000000
  0
LINE
  8
A-CASE-0
 10
-42.000000
 20
-341.000000
 11
-42.000000
 21
-365.000000
  0
LINE
  8
A-CASE-0
 10
-66.000000
 20
-365.000000
 11
-66.000000
 21
-341.000000
  0
LINE
  8
A-CASE-0
 10
-42.000000
 20
-365.000000
 11
-66.000000
 21
-365.000000
  0
INSERT
  8
A-CASE-0
  2
FIXT-DishWash
 10
-54.000000
 20
-365.345085
 41
1.000000
 42
1.000000
 43
 1.0
 50
0.000000
  0
INSERT
  8
A-CASE-0
  2
FIXT-Rng24E
 10
-78.000000
 20
-368.344678
 41
0.923077
 42
1.000000
 43
 1.0
 50
0.000000
  0
LINE
  8
A-CASE-0
 10
-114.108695
 20
-377.000000
 11
-111.108695
 21
-377.000000
  0
LINE
  8
A-CASE-0
 10
-93.108695
 20
-377.000000
 11
-90.108695
 21
-377.000000
  0
LINE
  8
A-CASE-0
 10
-90.108695
 20
-401.000000
 11
-114.108695
 21
-401.000000
  0
LINE
  8
A-CASE-0
 10
-114.108695
 20
-401.000000
 11
-114.108695
 21
-377.000000
  0
LINE
  8
A-CASE-0
 10
-90.108695
 20
-377.000000
 11
-90.108695
 21
-401.000000
  0
INSERT
  8
A-CASE-0
  2
FIXT-SngKit24
 10
-88.599320
 20
-389.000000
 41
1.000000
 42
1.000000
 43
 1.0
 50
-270.000000
  0
LINE
  8
A-CASE-0
  6
DASHED
 10
-41.034758
 20
-341.000000
 11
-41.034758
 21
-354.000000
  0
LINE
  8
A-CASE-0
  6
DASHED
 10
-65.034758
 20
-354.000000
 11
-65.034758
 21
-341.000000
  0
LINE
  8
A-CASE-0
  6
DASHED
 10
-41.034758
 20
-354.000000
 11
-65.034758
 21
-354.000000
  0
LINE
  8
A-CASE-0
  6
DASHED
 10
-90.007585
 20
-341.000000
 11
-90.007585
 21
-344.000000
  0
LINE
  8
A-CASE-0
  6
DASHED
 10
-90.007585
 20
-350.000000
 11
-90.007585
 21
-353.000000
  0
LINE
  8
A-CASE-0
  6
DASHED
 10
-114.007585
 20
-353.000000
 11
-114.007585
 21
-341.000000
  0
LINE
  8
A-CASE-0
  6
DASHED
 10
-114.007585
 20
-341.000000
 11
-114.000000
 21
-341.000000
  0
LINE
  8
A-CASE-0
  6
DASHED
 10
-90.007585
 20
-353.000000
 11
-114.007585
 21
-353.000000
  0
LINE
  8
A-CASE-0
  6
DASHED
 10
19.037932
 20
-341.000000
 11
19.037932
 21
-355.000000
  0
LINE
  8
A-CASE-0
  6
DASHED
 10
-4.962068
 20
-355.000000
 11
-4.962068
 21
-352.000000
  0
LINE
  8
A-CASE-0
  6
DASHED
 10
-4.962068
 20
-344.000000
 11
-4.962068
 21
-341.000000
  0
LINE
  8
A-CASE-0
  6
DASHED
 10
19.037932
 20
-355.000000
 11
-4.962068
 21
-355.000000
  0
LINE
  8
A-CASE-0
 10
42.000000
 20
-341.000000
 11
42.000000
 21
-344.000000
  0
LINE
  8
A-CASE-0
 10
42.000000
 20
-350.000000
 11
42.000000
 21
-353.000000
  0
LINE
  8
A-CASE-0
 10
18.000000
 20
-353.000000
 11
18.000000
 21
-350.000000
  0
LINE
  8
A-CASE-0
 10
18.000000
 20
-344.000000
 11
18.000000
 21
-341.000000
  0
LINE
  8
A-CASE-0
 10
42.000000
 20
-353.000000
 11
18.000000
 21
-353.000000
  0
LINE
  8
A-CASE-0
 10
35.000000
 20
-348.000000
 11
30.000000
 21
-353.000000
  0
LINE
  8
A-CASE-0
 10
25.000000
 20
-348.000000
 11
30.000000
 21
-353.000000
  0
LINE
  8
A-CASE-0
  6
DASHED
 10
-66.007585
 20
-341.000000
 11
-66.007585
 21
-353.000000
  0
LINE
  8
A-CASE-0
  6
DASHED
 10
-90.007585
 20
-353.000000
 11
-90.007585
 21
-350.000000
  0
LINE
  8
A-CASE-0
  6
DASHED
 10
-90.007585
 20
-344.000000
 11
-90.007585
 21
-341.000000
  0
LINE
  8
A-CASE-0
  6
DASHED
 10
-66.007585
 20
-353.000000
 11
-90.007585
 21
-353.000000
  0
LINE
  8
A-CASE-0
 10
-114.108695
 20
-365.000000
 11
-111.108695
 21
-365.000000
  0
LINE
  8
A-CASE-0
 10
-93.108695
 20
-365.000000
 11
-90.108695
 21
-365.000000
  0
LINE
  8
A-CASE-0
 10
-90.108695
 20
-377.000000
 11
-93.108695
 21
-377.000000
  0
LINE
  8
A-CASE-0
 10
-111.108695
 20
-377.000000
 11
-114.108695
 21
-377.000000
  0
LINE
  8
A-CASE-0
 10
-114.108695
 20
-377.000000
 11
-114.108695
 21
-365.000000
  0
LINE
  8
A-CASE-0
 10
-90.108695
 20
-365.000000
 11
-90.108695
 21
-377.000000
  0
LINE
  8
A-CASE-0
 10
-95.108695
 20
-366.000000
 11
-90.108695
 21
-371.000000
  0
LINE
  8
A-CASE-0
 10
-95.108695
 20
-376.000000
 11
-90.108695
 21
-371.000000
  0
INSERT
  8
A-FURN-0
  2
FIXT-esqr26
 10
-66.214528
 20
-453.000000
 41
1.153846
 42
1.115385
 43
 1.0
 50
-90.000000
  0
INSERT
  8
A-FURN-0
  2
FIXT-Sidchar3
 10
-50.663723
 20
-438.010802
 41
1.000000
 42
1.000000
 43
 1.0
 50
0.000000
  0
INSERT
  8
A-FURN-0
  2
FIXT-Sidchar3
 10
-65.989198
 20
-453.750670
 41
1.000000
 42
1.000000
 43
 1.0
 50
-270.000000
  0
LINE
  8
A-CASE-0
 10
42.000000
 20
-347.000000
 11
42.000000
 21
-344.000000
  0
LINE
  8
A-CASE-0
 10
42.000000
 20
-344.000000
 11
42.000000
 21
-341.000000
  0
LINE
  8
A-CASE-0
 10
66.000000
 20
-347.000000
 11
42.000000
 21
-347.000000
  0
LINE
  8
A-CASE-0
 10
59.000000
 20
-342.000000
 11
54.000000
 21
-347.000000
  0
LINE
  8
A-CASE-0
 10
49.000000
 20
-342.000000
 11
54.000000
 21
-347.000000
  0
LINE
  8
A-CASE-0
 10
14.000000
 20
-406.000000
 11
14.000000
 21
-396.000000
  0
LINE
  8
A-CASE-0
 10
14.000000
 20
-396.000000
 11
38.000000
 21
-396.000000
  0
LINE
  8
A-CASE-0
 10
21.000000
 20
-401.000000
 11
26.000000
 21
-396.000000
  0
LINE
  8
A-CASE-0
 10
31.000000
 20
-401.000000
 11
26.000000
 21
-396.000000
  0
LINE
  8
A-CASE-0
 10
152.000000
 20
-419.000000
 11
152.000000
 21
-493.000000
  0
LINE
  8
A-CASE-0
 10
200.000000
 20
-493.000000
 11
200.000000
 21
-419.000000
  0
LINE
  8
A-CASE-0
 10
-14.590470
 20
-267.000000
 11
-14.590470
 21
-284.000000
  0
LINE
  8
A-CASE-0
 10
-44.590470
 20
-284.000000
 11
-44.590470
 21
-267.000000
  0
LINE
  8
A-CASE-0
 10
-14.590470
 20
-284.000000
 11
-44.590470
 21
-284.000000
  0
LINE
  8
A-CASE-0
 10
-24.590470
 20
-279.000000
 11
-29.590470
 21
-284.000000
  0
LINE
  8
A-CASE-0
 10
-34.590470
 20
-279.000000
 11
-29.590470
 21
-284.000000
  0
TEXT
  8
A-NOTE-0
 10
-24.436198
 20
-440.520076
 40
7.084880
  1
ELEVATOR
  7
STANDARD
  0
TEXT
  8
A-NOTE-0
 10
-14.149208
 20
-450.443435
 40
5.267407
  1
5'10 x 4'10
  7
STANDARD
  0
TEXT
  8
A-NOTE-0
 10
-89.904701
 20
-887.018993
 40
9.615194
  1
LIVING AREA
  7
STANDARD
  0
TEXT
  8
A-NOTE-0
 10
-69.507436
 20
-899.984735
 40
7.182828
  1
2278 sq ft
  7
STANDARD
  0
TEXT
  8
A-NOTE-0
 10
-138.005290
 20
-549.687174
 40
9.615194
  1
LOBBY
  7
STANDARD
  0
TEXT
  8
A-NOTE-0
 10
-139.863041
 20
-562.652916
 40
7.182828
  1
21' x 10'10
  7
STANDARD
  0
TEXT
  8
A-NOTE-0
 10
-253.735432
 20
-395.967126
 40
9.615194
  1
RECREATION ROOM
  7
STANDARD
  0
TEXT
  8
A-NOTE-0
 10
-208.719087
 20
-408.932868
 40
7.182828
  1
27'4 x 16'9
  7
STANDARD
  0
TEXT
  8
A-NOTE-0
 10
108.230900
 20
-351.018993
 40
9.615194
  1
BEDROOM
  7
STANDARD
  0
TEXT
  8
A-NOTE-0
 10
119.523349
 20
-363.984735
 40
7.182828
  1
12'4 x 12'4
  7
STANDARD
  0
TEXT
  8
A-NOTE-0
 10
-34.231415
 20
-310.724479
 40
7.084880
  1
BATH
  7
STANDARD
  0
TEXT
  8
A-NOTE-0
 10
-38.165226
 20
-320.647838
 40
5.267407
  1
12'2 x 5'10
  7
STANDARD
  0
TEXT
  8
A-NOTE-0
 10
159.790277
 20
-457.280070
 40
7.084880
  1
CLOSET
  7
STANDARD
  0
TEXT
  8
A-NOTE-0
 10
169.431411
 20
-467.203429
 40
5.267407
  1
7' x 6'2
  7
STANDARD
  0
TEXT
  8
A-NOTE-0
 10
48.717747
 20
-525.921910
 40
9.615194
  1
UTILITY
  7
STANDARD
  0
TEXT
  8
A-NOTE-0
 10
55.706256
 20
-538.887653
 40
7.182828
  1
16' x 12'
  7
STANDARD
  0
TEXT
  8
A-NOTE-0
 10
-283.617980
 20
-717.386527
 40
9.615194
  1
STORAGE
  7
STANDARD
  0
TEXT
  8
A-NOTE-0
 10
-274.022331
 20
-730.352269
 40
7.182828
  1
22'8 x 15'5
  7
STANDARD
  0
TEXT
  8
A-NOTE-0
 10
-88.644456
 20
-167.433306
 40
9.615194
  1
OUTSIDE STORAGE
  7
STANDARD
  0
TEXT
  8
A-NOTE-0
 10
-45.749105
 20
-180.399049
 40
7.182828
  1
14'4 x 12'8
  7
STANDARD
  0
TEXT
  8
A-NOTE-0
 10
-115.014503
 20
-321.506532
 40
4.554566
  1
CLOSET
  7
STANDARD
  0
TEXT
  8
A-NOTE-0
 10
-111.866007
 20
-327.625308
 40
3.351986
  1
2'2 x 5'10
  7
STANDARD
  0
TEXT
  8
A-NOTE-0
 10
36.627544
 20
-710.800913
 40
9.615194
  1
UNEXCAVATED
  7
STANDARD
  0
TEXT
  8
A-NOTE-0
 10
64.251693
 20
-723.766656
 40
7.182828
  1
21'4 x 21'8
  7
STANDARD
  0
TEXT
  8
A-NOTE-0
 10
-158.492906
 20
-743.561104
 40
9.615194
  1
UNEXCAVATED
  7
STANDARD
  0
TEXT
  8
A-NOTE-0
 10
-124.991898
 20
-756.526846
 40
7.182828
  1
11' x 3'4
  7
STANDARD
  0
TEXT
  8
A-NOTE-0
 10
85.268805
 20
-215.455134
 40
9.615194
  1
CRAWL SPACE
  7
STANDARD
  0
TEXT
  8
A-NOTE-0
 10
114.770882
 20
-228.420876
 40
7.182828
  1
10'4 x 6'4
  7
STANDARD
  0
TEXT
  8
A-TEXT-0
 10
-42.346593
 20
-278.080620
 40
4.554566
  1
Seat Here
  7
STANDARD
  0
TEXT
  8
A-TEXT-0
 10
-78.153842
 20
-277.559522
 40
4.554566
  1
Seat Here
  7
STANDARD
  0
TEXT
  8
A-TEXT-0
 10
-388.483077
 20
-56.433043
 40
7.084880
  1
Strang/Smith 12/4/2000
  7
STANDARD
  0
LINE
  8
A-DIMS-0
 10
45.000000
 20
-427.085895
 11
42.000000
 21
-425.585895
  0
LINE
  8
A-DIMS-0
 10
127.000000
 20
-424.085895
 11
130.000000
 21
-425.585895
  0
LINE
  8
A-DIMS-0
 10
77.793619
 20
-425.585895
 11
42.000000
 21
-425.585895
  0
LINE
  8
A-DIMS-0
 10
94.206381
 20
-425.585895
 11
130.000000
 21
-425.585895
  0
TEXT
  8
A-DIMS-0
 10
80.514932
 20
-428.197833
 40
5.465479
  1
7'4
  7
STANDARD
  0
LINE
  8
A-DIMS-0
 10
-172.175071
 20
-799.000000
 11
-136.175071
 21
-799.000000
  0
LINE
  8
A-DIMS-0
 10
-137.675071
 20
-796.000000
 11
-139.175071
 21
-799.000000
  0
LINE
  8
A-DIMS-0
 10
-140.675071
 20
-778.000000
 11
-139.175071
 21
-775.000000
  0
LINE
  8
A-DIMS-0
 10
-139.175071
 20
-792.855637
 11
-139.175071
 21
-799.000000
  0
LINE
  8
A-DIMS-0
 10
-139.175071
 20
-781.144363
 11
-139.175071
 21
-775.000000
  0
TEXT
  8
A-DIMS-0
 10
-136.563133
 20
-790.134325
 40
5.465479
  1
2'
 50
90.000000
  7
STANDARD
  0
LINE
  8
A-DIMS-0
 10
286.824929
 20
-839.000000
 11
302.824929
 21
-839.000000
  0
LINE
  8
A-DIMS-0
 10
301.324929
 20
-836.000000
 11
299.824929
 21
-839.000000
  0
LINE
  8
A-DIMS-0
 10
286.824929
 20
-95.000000
 11
302.824929
 21
-95.000000
  0
LINE
  8
A-DIMS-0
 10
298.324929
 20
-98.000000
 11
299.824929
 21
-95.000000
  0
LINE
  8
A-DIMS-0
 10
299.824929
 20
-475.206381
 11
299.824929
 21
-839.000000
  0
LINE
  8
A-DIMS-0
 10
299.824929
 20
-458.793619
 11
299.824929
 21
-95.000000
  0
TEXT
  8
A-DIMS-0
 10
302.436867
 20
-472.485068
 40
5.465479
  1
62'
 50
90.000000
  7
STANDARD
  0
LINE
  8
A-DIMS-0
 10
103.824929
 20
-839.000000
 11
284.824929
 21
-839.000000
  0
LINE
  8
A-DIMS-0
 10
283.324929
 20
-836.000000
 11
281.824929
 21
-839.000000
  0
LINE
  8
A-DIMS-0
 10
231.824929
 20
-811.000000
 11
284.824929
 21
-811.000000
  0
LINE
  8
A-DIMS-0
 10
283.324929
 20
-808.000000
 11
281.824929
 21
-811.000000
  0
LINE
  8
A-DIMS-0
 10
280.324929
 20
-814.000000
 11
281.824929
 21
-811.000000
  0
LINE
  8
A-DIMS-0
 10
281.824929
 20
-833.206381
 11
281.824929
 21
-839.000000
  0
LINE
  8
A-DIMS-0
 10
281.824929
 20
-816.793619
 11
281.824929
 21
-811.000000
  0
TEXT
  8
A-DIMS-0
 10
284.436867
 20
-830.485068
 40
5.465479
  1
2'4
 50
90.000000
  7
STANDARD
  0
LINE
  8
A-DIMS-0
 10
231.824929
 20
-567.000000
 11
284.824929
 21
-567.000000
  0
LINE
  8
A-DIMS-0
 10
283.324929
 20
-564.000000
 11
281.824929
 21
-567.000000
  0
LINE
  8
A-DIMS-0
 10
280.324929
 20
-570.000000
 11
281.824929
 21
-567.000000
  0
LINE
  8
A-DIMS-0
 10
281.824929
 20
-699.557124
 11
281.824929
 21
-811.000000
  0
LINE
  8
A-DIMS-0
 10
281.824929
 20
-678.442876
 11
281.824929
 21
-567.000000
  0
TEXT
  8
A-DIMS-0
 10
284.436867
 20
-696.835812
 40
5.465479
  1
20'4
 50
90.000000
  7
STANDARD
  0
LINE
  8
A-DIMS-0
 10
231.824929
 20
-495.000000
 11
284.824929
 21
-495.000000
  0
LINE
  8
A-DIMS-0
 10
283.324929
 20
-492.000000
 11
281.824929
 21
-495.000000
  0
LINE
  8
A-DIMS-0
 10
280.324929
 20
-498.000000
 11
281.824929
 21
-495.000000
  0
LINE
  8
A-DIMS-0
 10
281.824929
 20
-536.855637
 11
281.824929
 21
-567.000000
  0
LINE
  8
A-DIMS-0
 10
281.824929
 20
-525.144363
 11
281.824929
 21
-495.000000
  0
TEXT
  8
A-DIMS-0
 10
284.436867
 20
-534.134325
 40
5.465479
  1
6'
 50
90.000000
  7
STANDARD
  0
LINE
  8
A-DIMS-0
 10
268.824929
 20
-417.000000
 11
284.824929
 21
-417.000000
  0
LINE
  8
A-DIMS-0
 10
283.324929
 20
-414.000000
 11
281.824929
 21
-417.000000
  0
LINE
  8
A-DIMS-0
 10
280.324929
 20
-420.000000
 11
281.824929
 21
-417.000000
  0
LINE
  8
A-DIMS-0
 10
281.824929
 20
-464.206381
 11
281.824929
 21
-495.000000
  0
LINE
  8
A-DIMS-0
 10
281.824929
 20
-447.793619
 11
281.824929
 21
-417.000000
  0
TEXT
  8
A-DIMS-0
 10
284.436867
 20
-461.485068
 40
5.465479
  1
6'6
 50
90.000000
  7
STANDARD
  0
LINE
  8
A-DIMS-0
 10
268.824929
 20
-255.000000
 11
284.824929
 21
-255.000000
  0
LINE
  8
A-DIMS-0
 10
283.324929
 20
-252.000000
 11
281.824929
 21
-255.000000
  0
LINE
  8
A-DIMS-0
 10
280.324929
 20
-258.000000
 11
281.824929
 21
-255.000000
  0
LINE
  8
A-DIMS-0
 10
281.824929
 20
-346.557124
 11
281.824929
 21
-417.000000
  0
LINE
  8
A-DIMS-0
 10
281.824929
 20
-325.442876
 11
281.824929
 21
-255.000000
  0
TEXT
  8
A-DIMS-0
 10
284.436867
 20
-343.835812
 40
5.465479
  1
13'6
 50
90.000000
  7
STANDARD
  0
LINE
  8
A-DIMS-0
 10
207.824929
 20
-171.000000
 11
284.824929
 21
-171.000000
  0
LINE
  8
A-DIMS-0
 10
283.324929
 20
-168.000000
 11
281.824929
 21
-171.000000
  0
LINE
  8
A-DIMS-0
 10
280.324929
 20
-174.000000
 11
281.824929
 21
-171.000000
  0
LINE
  8
A-DIMS-0
 10
281.824929
 20
-218.855637
 11
281.824929
 21
-255.000000
  0
LINE
  8
A-DIMS-0
 10
281.824929
 20
-207.144363
 11
281.824929
 21
-171.000000
  0
TEXT
  8
A-DIMS-0
 10
284.436867
 20
-216.134325
 40
5.465479
  1
7'
 50
90.000000
  7
STANDARD
  0
LINE
  8
A-DIMS-0
 10
75.824929
 20
-95.000000
 11
284.824929
 21
-95.000000
  0
LINE
  8
A-DIMS-0
 10
280.324929
 20
-98.000000
 11
281.824929
 21
-95.000000
  0
LINE
  8
A-DIMS-0
 10
281.824929
 20
-141.206381
 11
281.824929
 21
-171.000000
  0
LINE
  8
A-DIMS-0
 10
281.824929
 20
-124.793619
 11
281.824929
 21
-95.000000
  0
TEXT
  8
A-DIMS-0
 10
284.436867
 20
-138.485068
 40
5.465479
  1
6'4
 50
90.000000
  7
STANDARD
  0
LINE
  8
A-DIMS-0
 10
231.824929
 20
-417.000000
 11
266.824929
 21
-417.000000
  0
LINE
  8
A-DIMS-0
 10
265.324929
 20
-414.000000
 11
263.824929
 21
-417.000000
  0
LINE
  8
A-DIMS-0
 10
240.824929
 20
-295.000000
 11
266.824929
 21
-295.000000
  0
LINE
  8
A-DIMS-0
 10
265.324929
 20
-292.000000
 11
263.824929
 21
-295.000000
  0
LINE
  8
A-DIMS-0
 10
262.324929
 20
-298.000000
 11
263.824929
 21
-295.000000
  0
LINE
  8
A-DIMS-0
 10
263.824929
 20
-366.557124
 11
263.824929
 21
-417.000000
  0
LINE
  8
A-DIMS-0
 10
263.824929
 20
-345.442876
 11
263.824929
 21
-295.000000
  0
TEXT
  8
A-DIMS-0
 10
266.436867
 20
-363.835812
 40
5.465479
  1
10'2
 50
90.000000
  7
STANDARD
  0
LINE
  8
A-DIMS-0
 10
231.824929
 20
-255.000000
 11
266.824929
 21
-255.000000
  0
LINE
  8
A-DIMS-0
 10
262.324929
 20
-258.000000
 11
263.824929
 21
-255.000000
  0
LINE
  8
A-DIMS-0
 10
263.824929
 20
-283.206381
 11
263.824929
 21
-295.000000
  0
LINE
  8
A-DIMS-0
 10
263.824929
 20
-266.793619
 11
263.824929
 21
-255.000000
  0
TEXT
  8
A-DIMS-0
 10
266.436867
 20
-280.485068
 40
5.465479
  1
3'4
 50
90.000000
  7
STANDARD
  0
LINE
  8
A-DIMS-0
 10
-322.000000
 20
-877.085064
 11
-322.000000
 21
-893.085064
  0
LINE
  8
A-DIMS-0
 10
-319.000000
 20
-891.585064
 11
-322.000000
 21
-890.085064
  0
LINE
  8
A-DIMS-0
 10
230.000000
 20
-877.085064
 11
230.000000
 21
-893.085064
  0
LINE
  8
A-DIMS-0
 10
227.000000
 20
-888.585064
 11
230.000000
 21
-890.085064
  0
LINE
  8
A-DIMS-0
 10
-54.206381
 20
-890.085064
 11
-322.000000
 21
-890.085064
  0
LINE
  8
A-DIMS-0
 10
-37.793619
 20
-890.085064
 11
230.000000
 21
-890.085064
  0
TEXT
  8
A-DIMS-0
 10
-51.485068
 20
-892.697002
 40
5.465479
  1
46'
  7
STANDARD
  0
LINE
  8
A-DIMS-0
 10
-322.000000
 20
-800.085064
 11
-322.000000
 21
-875.085064
  0
LINE
  8
A-DIMS-0
 10
-319.000000
 20
-873.585064
 11
-322.000000
 21
-872.085064
  0
LINE
  8
A-DIMS-0
 10
-174.000000
 20
-800.085064
 11
-174.000000
 21
-875.085064
  0
LINE
  8
A-DIMS-0
 10
-171.000000
 20
-873.585064
 11
-174.000000
 21
-872.085064
  0
LINE
  8
A-DIMS-0
 10
-177.000000
 20
-870.585064
 11
-174.000000
 21
-872.085064
  0
LINE
  8
A-DIMS-0
 10
-258.557124
 20
-872.085064
 11
-322.000000
 21
-872.085064
  0
LINE
  8
A-DIMS-0
 10
-237.442876
 20
-872.085064
 11
-174.000000
 21
-872.085064
  0
TEXT
  8
A-DIMS-0
 10
-255.835812
 20
-874.697002
 40
5.465479
  1
12'4
  7
STANDARD
  0
LINE
  8
A-DIMS-0
 10
-42.000000
 20
-840.085064
 11
-42.000000
 21
-875.085064
  0
LINE
  8
A-DIMS-0
 10
-39.000000
 20
-873.585064
 11
-42.000000
 21
-872.085064
  0
LINE
  8
A-DIMS-0
 10
-45.000000
 20
-870.585064
 11
-42.000000
 21
-872.085064
  0
LINE
  8
A-DIMS-0
 10
-116.206381
 20
-872.085064
 11
-174.000000
 21
-872.085064
  0
LINE
  8
A-DIMS-0
 10
-99.793619
 20
-872.085064
 11
-42.000000
 21
-872.085064
  0
TEXT
  8
A-DIMS-0
 10
-113.485068
 20
-874.697002
 40
5.465479
  1
11'
  7
STANDARD
  0
LINE
  8
A-DIMS-0
 10
102.000000
 20
-840.085064
 11
102.000000
 21
-875.085064
  0
LINE
  8
A-DIMS-0
 10
105.000000
 20
-873.585064
 11
102.000000
 21
-872.085064
  0
LINE
  8
A-DIMS-0
 10
99.000000
 20
-870.585064
 11
102.000000
 21
-872.085064
  0
LINE
  8
A-DIMS-0
 10
21.793619
 20
-872.085064
 11
-42.000000
 21
-872.085064
  0
LINE
  8
A-DIMS-0
 10
38.206381
 20
-872.085064
 11
102.000000
 21
-872.085064
  0
TEXT
  8
A-DIMS-0
 10
24.514932
 20
-874.697002
 40
5.465479
  1
12'
  7
STANDARD
  0
LINE
  8
A-DIMS-0
 10
230.000000
 20
-812.085064
 11
230.000000
 21
-875.085064
  0
LINE
  8
A-DIMS-0
 10
227.000000
 20
-870.585064
 11
230.000000
 21
-872.085064
  0
LINE
  8
A-DIMS-0
 10
155.442876
 20
-872.085064
 11
102.000000
 21
-872.085064
  0
LINE
  8
A-DIMS-0
 10
176.557124
 20
-872.085064
 11
230.000000
 21
-872.085064
  0
TEXT
  8
A-DIMS-0
 10
158.164188
 20
-874.697002
 40
5.465479
  1
10'8
  7
STANDARD
  0
LINE
  8
A-DIMS-0
 10
-277.000000
 20
-568.585064
 11
-274.000000
 21
-570.085064
  0
LINE
  8
A-DIMS-0
 10
-286.046687
 20
-599.085064
 11
-286.046687
 21
-567.085064
  0
LINE
  8
A-DIMS-0
 10
-283.046687
 20
-571.585064
 11
-286.046687
 21
-570.085064
  0
LINE
  8
A-DIMS-0
 10
-274.167706
 20
-570.085064
 11
-274.000000
 21
-570.085064
  0
LINE
  8
A-DIMS-0
 10
-285.878981
 20
-570.085064
 11
-286.046687
 21
-570.085064
  0
TEXT
  8
A-DIMS-0
 10
-283.157668
 20
-572.697002
 40
5.465479
  1
1'
  7
STANDARD
  0
LINE
  8
A-DIMS-0
 10
230.000000
 20
-38.085064
 11
230.000000
 21
-22.085064
  0
LINE
  8
A-DIMS-0
 10
227.000000
 20
-23.585064
 11
230.000000
 21
-25.085064
  0
LINE
  8
A-DIMS-0
 10
-274.000000
 20
-38.085064
 11
-274.000000
 21
-22.085064
  0
LINE
  8
A-DIMS-0
 10
-271.000000
 20
-26.585064
 11
-274.000000
 21
-25.085064
  0
LINE
  8
A-DIMS-0
 10
-13.793619
 20
-25.085064
 11
230.000000
 21
-25.085064
  0
LINE
  8
A-DIMS-0
 10
-30.206381
 20
-25.085064
 11
-274.000000
 21
-25.085064
  0
TEXT
  8
A-DIMS-0
 10
-27.485068
 20
-27.697002
 40
5.465479
  1
42'
  7
STANDARD
  0
LINE
  8
A-DIMS-0
 10
230.000000
 20
-255.085064
 11
230.000000
 21
-40.085064
  0
LINE
  8
A-DIMS-0
 10
227.000000
 20
-41.585064
 11
230.000000
 21
-43.085064
  0
LINE
  8
A-DIMS-0
 10
206.000000
 20
-169.085064
 11
206.000000
 21
-40.085064
  0
LINE
  8
A-DIMS-0
 10
203.000000
 20
-41.585064
 11
206.000000
 21
-43.085064
  0
LINE
  8
A-DIMS-0
 10
209.000000
 20
-44.585064
 11
206.000000
 21
-43.085064
  0
LINE
  8
A-DIMS-0
 10
223.855637
 20
-43.085064
 11
230.000000
 21
-43.085064
  0
LINE
  8
A-DIMS-0
 10
212.144363
 20
-43.085064
 11
206.000000
 21
-43.085064
  0
TEXT
  8
A-DIMS-0
 10
214.865675
 20
-45.697002
 40
5.465479
  1
2'
  7
STANDARD
  0
LINE
  8
A-DIMS-0
 10
74.000000
 20
-93.085064
 11
74.000000
 21
-40.085064
  0
LINE
  8
A-DIMS-0
 10
71.000000
 20
-41.585064
 11
74.000000
 21
-43.085064
  0
LINE
  8
A-DIMS-0
 10
77.000000
 20
-44.585064
 11
74.000000
 21
-43.085064
  0
LINE
  8
A-DIMS-0
 10
148.206381
 20
-43.085064
 11
206.000000
 21
-43.085064
  0
LINE
  8
A-DIMS-0
 10
131.793619
 20
-43.085064
 11
74.000000
 21
-43.085064
  0
TEXT
  8
A-DIMS-0
 10
134.514932
 20
-45.697002
 40
5.465479
  1
11'
  7
STANDARD
  0
LINE
  8
A-DIMS-0
 10
-114.000000
 20
-56.085064
 11
-114.000000
 21
-40.085064
  0
LINE
  8
A-DIMS-0
 10
-117.000000
 20
-41.585064
 11
-114.000000
 21
-43.085064
  0
LINE
  8
A-DIMS-0
 10
-111.000000
 20
-44.585064
 11
-114.000000
 21
-43.085064
  0
LINE
  8
A-DIMS-0
 10
-9.442876
 20
-43.085064
 11
74.000000
 21
-43.085064
  0
LINE
  8
A-DIMS-0
 10
-30.557124
 20
-43.085064
 11
-114.000000
 21
-43.085064
  0
TEXT
  8
A-DIMS-0
 10
-27.835812
 20
-45.697002
 40
5.465479
  1
15'8
  7
STANDARD
  0
LINE
  8
A-DIMS-0
 10
-274.000000
 20
-56.085064
 11
-274.000000
 21
-40.085064
  0
LINE
  8
A-DIMS-0
 10
-271.000000
 20
-44.585064
 11
-274.000000
 21
-43.085064
  0
LINE
  8
A-DIMS-0
 10
-183.442876
 20
-43.085064
 11
-114.000000
 21
-43.085064
  0
LINE
  8
A-DIMS-0
 10
-204.557124
 20
-43.085064
 11
-274.000000
 21
-43.085064
  0
TEXT
  8
A-DIMS-0
 10
-201.835812
 20
-45.697002
 40
5.465479
  1
13'4
  7
STANDARD
  0
LINE
  8
A-DIMS-0
 10
-114.000000
 20
-93.085064
 11
-114.000000
 21
-58.085064
  0
LINE
  8
A-DIMS-0
 10
-117.000000
 20
-59.585064
 11
-114.000000
 21
-61.085064
  0
LINE
  8
A-DIMS-0
 10
-178.000000
 20
-246.085064
 11
-178.000000
 21
-58.085064
  0
LINE
  8
A-DIMS-0
 10
-181.000000
 20
-59.585064
 11
-178.000000
 21
-61.085064
  0
LINE
  8
A-DIMS-0
 10
-175.000000
 20
-62.585064
 11
-178.000000
 21
-61.085064
  0
LINE
  8
A-DIMS-0
 10
-137.793619
 20
-61.085064
 11
-114.000000
 21
-61.085064
  0
LINE
  8
A-DIMS-0
 10
-154.206381
 20
-61.085064
 11
-178.000000
 21
-61.085064
  0
TEXT
  8
A-DIMS-0
 10
-151.485068
 20
-63.697002
 40
5.465479
  1
5'4
  7
STANDARD
  0
LINE
  8
A-DIMS-0
 10
-274.000000
 20
-255.085064
 11
-274.000000
 21
-58.085064
  0
LINE
  8
A-DIMS-0
 10
-271.000000
 20
-62.585064
 11
-274.000000
 21
-61.085064
  0
LINE
  8
A-DIMS-0
 10
-220.144363
 20
-61.085064
 11
-178.000000
 21
-61.085064
  0
LINE
  8
A-DIMS-0
 10
-231.855637
 20
-61.085064
 11
-274.000000
 21
-61.085064
  0
TEXT
  8
A-DIMS-0
 10
-229.134325
 20
-63.697002
 40
5.465479
  1
8'
  7
STANDARD
  0
LINE
  8
A-DIMS-0
 10
-76.675071
 20
-778.000000
 11
-75.175071
 21
-775.000000
  0
LINE
  8
A-DIMS-0
 10
-43.175071
 20
-839.000000
 11
-78.175071
 21
-839.000000
  0
LINE
  8
A-DIMS-0
 10
-73.675071
 20
-836.000000
 11
-75.175071
 21
-839.000000
  0
LINE
  8
A-DIMS-0
 10
-75.175071
 20
-798.793619
 11
-75.175071
 21
-775.000000
  0
LINE
  8
A-DIMS-0
 10
-75.175071
 20
-815.206381
 11
-75.175071
 21
-839.000000
  0
TEXT
  8
A-DIMS-0
 10
-72.563133
 20
-812.485068
 40
5.465479
  1
5'4
 50
90.000000
  7
STANDARD
  0
LINE
  8
A-DIMS-0
 10
-152.175071
 20
-95.000000
 11
-168.175071
 21
-95.000000
  0
LINE
  8
A-DIMS-0
 10
-166.675071
 20
-98.000000
 11
-165.175071
 21
-95.000000
  0
LINE
  8
A-DIMS-0
 10
-152.175071
 20
-261.000000
 11
-168.175071
 21
-261.000000
  0
LINE
  8
A-DIMS-0
 10
-163.675071
 20
-258.000000
 11
-165.175071
 21
-261.000000
  0
LINE
  8
A-DIMS-0
 10
-165.175071
 20
-165.092132
 11
-165.175071
 21
-95.000000
  0
LINE
  8
A-DIMS-0
 10
-165.175071
 20
-190.907868
 11
-165.175071
 21
-261.000000
  0
TEXT
  8
A-DIMS-0
 10
-162.563133
 20
-188.186556
 40
5.465479
  1
13'10
 50
90.000000
  7
STANDARD
  0
LINE
  8
A-DIMS-0
 10
-115.175071
 20
-95.000000
 11
-150.175071
 21
-95.000000
  0
LINE
  8
A-DIMS-0
 10
-148.675071
 20
-98.000000
 11
-147.175071
 21
-95.000000
  0
LINE
  8
A-DIMS-0
 10
-124.175071
 20
-231.000000
 11
-150.175071
 21
-231.000000
  0
LINE
  8
A-DIMS-0
 10
-148.675071
 20
-234.000000
 11
-147.175071
 21
-231.000000
  0
LINE
  8
A-DIMS-0
 10
-145.675071
 20
-228.000000
 11
-147.175071
 21
-231.000000
  0
LINE
  8
A-DIMS-0
 10
-147.175071
 20
-152.442876
 11
-147.175071
 21
-95.000000
  0
LINE
  8
A-DIMS-0
 10
-147.175071
 20
-173.557124
 11
-147.175071
 21
-231.000000
  0
TEXT
  8
A-DIMS-0
 10
-144.563133
 20
-170.835812
 40
5.465479
  1
11'4
 50
90.000000
  7
STANDARD
  0
LINE
  8
A-DIMS-0
 10
-117.175071
 20
-261.000000
 11
-150.175071
 21
-261.000000
  0
LINE
  8
A-DIMS-0
 10
-145.675071
 20
-258.000000
 11
-147.175071
 21
-261.000000
  0
LINE
  8
A-DIMS-0
 10
-147.175071
 20
-237.793619
 11
-147.175071
 21
-231.000000
  0
LINE
  8
A-DIMS-0
 10
-147.175071
 20
-254.206381
 11
-147.175071
 21
-261.000000
  0
TEXT
  8
A-DIMS-0
 10
-144.563133
 20
-251.485068
 40
5.465479
  1
2'6
 50
90.000000
  7
STANDARD
  0
LINE
  8
A-DIMS-0
 10
-170.175071
 20
-95.000000
 11
-394.175071
 21
-95.000000
  0
LINE
  8
A-DIMS-0
 10
-392.675071
 20
-98.000000
 11
-391.175071
 21
-95.000000
  0
LINE
  8
A-DIMS-0
 10
-80.175071
 20
-839.000000
 11
-394.175071
 21
-839.000000
  0
LINE
  8
A-DIMS-0
 10
-389.675071
 20
-836.000000
 11
-391.175071
 21
-839.000000
  0
LINE
  8
A-DIMS-0
 10
-391.175071
 20
-458.793619
 11
-391.175071
 21
-95.000000
  0
LINE
  8
A-DIMS-0
 10
-391.175071
 20
-475.206381
 11
-391.175071
 21
-839.000000
  0
TEXT
  8
A-DIMS-0
 10
-388.563133
 20
-472.485068
 40
5.465479
  1
62'
 50
90.000000
  7
STANDARD
  0
LINE
  8
A-DIMS-0
 10
-360.175071
 20
-254.999997
 11
-376.175071
 21
-254.999997
  0
LINE
  8
A-DIMS-0
 10
-374.675071
 20
-257.999997
 11
-373.175071
 21
-254.999997
  0
LINE
  8
A-DIMS-0
 10
-360.175071
 20
-470.000012
 11
-376.175071
 21
-470.000012
  0
LINE
  8
A-DIMS-0
 10
-374.675071
 20
-473.000012
 11
-373.175071
 21
-470.000012
  0
LINE
  8
A-DIMS-0
 10
-371.675071
 20
-467.000012
 11
-373.175071
 21
-470.000012
  0
LINE
  8
A-DIMS-0
 10
-373.175071
 20
-349.592136
 11
-373.175071
 21
-254.999997
  0
LINE
  8
A-DIMS-0
 10
-373.175071
 20
-375.407872
 11
-373.175071
 21
-470.000012
  0
TEXT
  8
A-DIMS-0
 10
-370.563133
 20
-372.686560
 40
5.465479
  1
17'11
 50
90.000000
  7
STANDARD
  0
LINE
  8
A-DIMS-0
 10
-290.175071
 20
-604.999997
 11
-376.175071
 21
-604.999997
  0
LINE
  8
A-DIMS-0
 10
-374.675071
 20
-607.999997
 11
-373.175071
 21
-604.999997
  0
LINE
  8
A-DIMS-0
 10
-371.675071
 20
-601.999997
 11
-373.175071
 21
-604.999997
  0
LINE
  8
A-DIMS-0
 10
-373.175071
 20
-526.942880
 11
-373.175071
 21
-470.000012
  0
LINE
  8
A-DIMS-0
 10
-373.175071
 20
-548.057129
 11
-373.175071
 21
-604.999997
  0
TEXT
  8
A-DIMS-0
 10
-370.563133
 20
-545.335816
 40
5.465479
  1
11'3
 50
90.000000
  7
STANDARD
  0
LINE
  8
A-DIMS-0
 10
-327.175071
 20
-640.953305
 11
-376.175071
 21
-640.953305
  0
LINE
  8
A-DIMS-0
 10
-374.675071
 20
-643.953305
 11
-373.175071
 21
-640.953305
  0
LINE
  8
A-DIMS-0
 10
-371.675071
 20
-637.953305
 11
-373.175071
 21
-640.953305
  0
LINE
  8
A-DIMS-0
 10
-373.175071
 20
-617.121014
 11
-373.175071
 21
-604.999997
  0
LINE
  8
A-DIMS-0
 10
-373.175071
 20
-628.832288
 11
-373.175071
 21
-640.953305
  0
TEXT
  8
A-DIMS-0
 10
-370.563133
 20
-626.110976
 40
5.465479
  1
3'
 50
90.000000
  7
STANDARD
  0
LINE
  8
A-DIMS-0
 10
-323.175071
 20
-798.999997
 11
-376.175071
 21
-798.999997
  0
LINE
  8
A-DIMS-0
 10
-371.675071
 20
-795.999997
 11
-373.175071
 21
-798.999997
  0
LINE
  8
A-DIMS-0
 10
-373.175071
 20
-709.419526
 11
-373.175071
 21
-640.953305
  0
LINE
  8
A-DIMS-0
 10
-373.175071
 20
-730.533775
 11
-373.175071
 21
-798.999997
  0
TEXT
  8
A-DIMS-0
 10
-370.563133
 20
-727.812463
 40
5.465479
  1
13'2
 50
90.000000
  7
STANDARD
  0
LINE
  8
A-DIMS-0
 10
-277.175071
 20
-254.999997
 11
-358.175071
 21
-254.999997
  0
LINE
  8
A-DIMS-0
 10
-356.675071
 20
-257.999997
 11
-355.175071
 21
-254.999997
  0
LINE
  8
A-DIMS-0
 10
-286.175071
 20
-295.999997
 11
-358.175071
 21
-295.999997
  0
LINE
  8
A-DIMS-0
 10
-356.675071
 20
-298.999997
 11
-355.175071
 21
-295.999997
  0
LINE
  8
A-DIMS-0
 10
-353.675071
 20
-292.999997
 11
-355.175071
 21
-295.999997
  0
LINE
  8
A-DIMS-0
 10
-355.175071
 20
-267.293616
 11
-355.175071
 21
-254.999997
  0
LINE
  8
A-DIMS-0
 10
-355.175071
 20
-283.706377
 11
-355.175071
 21
-295.999997
  0
TEXT
  8
A-DIMS-0
 10
-352.563133
 20
-280.985065
 40
5.465479
  1
3'5
 50
90.000000
  7
STANDARD
  0
LINE
  8
A-DIMS-0
 10
-286.175071
 20
-432.000012
 11
-358.175071
 21
-432.000012
  0
LINE
  8
A-DIMS-0
 10
-356.675071
 20
-435.000012
 11
-355.175071
 21
-432.000012
  0
LINE
  8
A-DIMS-0
 10
-353.675071
 20
-429.000012
 11
-355.175071
 21
-432.000012
  0
LINE
  8
A-DIMS-0
 10
-355.175071
 20
-353.442880
 11
-355.175071
 21
-295.999997
  0
LINE
  8
A-DIMS-0
 10
-355.175071
 20
-374.557129
 11
-355.175071
 21
-432.000012
  0
TEXT
  8
A-DIMS-0
 10
-352.563133
 20
-371.835816
 40
5.465479
  1
11'4
 50
90.000000
  7
STANDARD
  0
LINE
  8
A-DIMS-0
 10
-277.175071
 20
-470.000012
 11
-358.175071
 21
-470.000012
  0
LINE
  8
A-DIMS-0
 10
-353.675071
 20
-467.000012
 11
-355.175071
 21
-470.000012
  0
LINE
  8
A-DIMS-0
 10
-355.175071
 20
-442.793631
 11
-355.175071
 21
-432.000012
  0
LINE
  8
A-DIMS-0
 10
-355.175071
 20
-459.206393
 11
-355.175071
 21
-470.000012
  0
TEXT
  8
A-DIMS-0
 10
-352.563133
 20
-456.485080
 40
5.465479
  1
3'2
 50
90.000000
  7
STANDARD
  0
LINE
  8
A-DIMS-0
 10
-290.179250
 20
-600.868897
 11
-312.099560
 21
-578.948587
  0
LINE
  8
A-DIMS-0
 10
-313.160220
 20
-582.130567
 11
-309.978239
 21
-581.069907
  0
LINE
  8
A-DIMS-0
 10
-326.131105
 20
-636.820752
 11
-348.051415
 21
-614.900442
  0
LINE
  8
A-DIMS-0
 10
-342.748114
 20
-615.961102
 11
-345.930095
 21
-617.021762
  0
LINE
  8
A-DIMS-0
 10
-319.381002
 20
-590.472669
 11
-309.978239
 21
-581.069907
  0
LINE
  8
A-DIMS-0
 10
-336.527332
 20
-607.619000
 11
-345.930095
 21
-617.021762
  0
TEXT
  8
A-DIMS-0
 10
-332.756155
 20
-607.541660
 40
5.465479
  1
4'2"7
 50
45.000000
  7
STANDARD
  0
LINE
  8
A-DIMS-0
 10
-263.000000
 20
-510.476846
 11
-266.000000
 21
-508.976846
  0
LINE
  8
A-DIMS-0
 10
-173.000000
 20
-507.476846
 11
-170.000000
 21
-508.976846
  0
LINE
  8
A-DIMS-0
 10
-223.855637
 20
-508.976846
 11
-266.000000
 21
-508.976846
  0
LINE
  8
A-DIMS-0
 10
-212.144363
 20
-508.976846
 11
-170.000000
 21
-508.976846
  0
TEXT
  8
A-DIMS-0
 10
-221.134325
 20
-511.588783
 40
5.465479
  1
8'
  7
STANDARD
  0
LINE
  8
A-DIMS-0
 10
-163.000000
 20
-510.476846
 11
-166.000000
 21
-508.976846
  0
LINE
  8
A-DIMS-0
 10
23.000000
 20
-507.476846
 11
26.000000
 21
-508.976846
  0
LINE
  8
A-DIMS-0
 10
-78.206381
 20
-508.976846
 11
-166.000000
 21
-508.976846
  0
LINE
  8
A-DIMS-0
 10
-61.793619
 20
-508.976846
 11
26.000000
 21
-508.976846
  0
TEXT
  8
A-DIMS-0
 10
-75.485068
 20
-511.588783
 40
5.465479
  1
16'
  7
STANDARD
  0
LINE
  8
A-DIMS-0
 10
33.000000
 20
-480.779756
 11
30.000000
 21
-479.279756
  0
LINE
  8
A-DIMS-0
 10
127.000000
 20
-477.779756
 11
130.000000
 21
-479.279756
  0
LINE
  8
A-DIMS-0
 10
71.793619
 20
-479.279756
 11
30.000000
 21
-479.279756
  0
LINE
  8
A-DIMS-0
 10
88.206381
 20
-479.279756
 11
130.000000
 21
-479.279756
  0
TEXT
  8
A-DIMS-0
 10
74.514932
 20
-481.891694
 40
5.465479
  1
8'4
  7
STANDARD
  0
LINE
  8
A-DIMS-0
 10
33.000000
 20
-555.688442
 11
30.000000
 21
-554.188442
  0
LINE
  8
A-DIMS-0
 10
219.000000
 20
-552.688442
 11
222.000000
 21
-554.188442
  0
LINE
  8
A-DIMS-0
 10
117.793619
 20
-554.188442
 11
30.000000
 21
-554.188442
  0
LINE
  8
A-DIMS-0
 10
134.206381
 20
-554.188442
 11
222.000000
 21
-554.188442
  0
TEXT
  8
A-DIMS-0
 10
120.514932
 20
-556.800379
 40
5.465479
  1
16'
  7
STANDARD
  0
LINE
  8
A-DIMS-0
 10
121.727095
 20
-422.000000
 11
123.227095
 21
-419.000000
  0
LINE
  8
A-DIMS-0
 10
124.727095
 20
-560.000000
 11
123.227095
 21
-563.000000
  0
LINE
  8
A-DIMS-0
 10
123.227095
 20
-482.793619
 11
123.227095
 21
-419.000000
  0
LINE
  8
A-DIMS-0
 10
123.227095
 20
-499.206381
 11
123.227095
 21
-563.000000
  0
TEXT
  8
A-DIMS-0
 10
125.839032
 20
-496.485069
 40
5.465479
  1
12'
 50
90.000000
  7
STANDARD
  0
LINE
  8
A-DIMS-0
 10
-26.406834
 20
-475.000000
 11
-24.906834
 21
-472.000000
  0
LINE
  8
A-DIMS-0
 10
-23.406834
 20
-556.000000
 11
-24.906834
 21
-559.000000
  0
LINE
  8
A-DIMS-0
 10
-24.906834
 20
-507.293619
 11
-24.906834
 21
-472.000000
  0
LINE
  8
A-DIMS-0
 10
-24.906834
 20
-523.706381
 11
-24.906834
 21
-559.000000
  0
TEXT
  8
A-DIMS-0
 10
-22.294897
 20
-520.985068
 40
5.465479
  1
7'3
 50
90.000000
  7
STANDARD
  0
LINE
  8
A-DIMS-0
 10
141.222729
 20
-500.000000
 11
142.722729
 21
-497.000000
  0
LINE
  8
A-DIMS-0
 10
144.222729
 20
-560.000000
 11
142.722729
 21
-563.000000
  0
LINE
  8
A-DIMS-0
 10
142.722729
 20
-521.793619
 11
142.722729
 21
-497.000000
  0
LINE
  8
A-DIMS-0
 10
142.722729
 20
-538.206381
 11
142.722729
 21
-563.000000
  0
TEXT
  8
A-DIMS-0
 10
145.334666
 20
-535.485068
 40
5.465479
  1
5'6
 50
90.000000
  7
STANDARD
  0
LINE
  8
A-DIMS-0
 10
-1.434973
 20
-344.000000
 11
0.065027
 21
-341.000000
  0
LINE
  8
A-DIMS-0
 10
1.565027
 20
-403.000000
 11
0.065027
 21
-406.000000
  0
LINE
  8
A-DIMS-0
 10
0.065027
 20
-365.293619
 11
0.065027
 21
-341.000000
  0
LINE
  8
A-DIMS-0
 10
0.065027
 20
-381.706381
 11
0.065027
 21
-406.000000
  0
TEXT
  8
A-DIMS-0
 10
2.676965
 20
-378.985068
 40
5.465479
  1
5'5
 50
90.000000
  7
STANDARD
  0
LINE
  8
A-DIMS-0
 10
50.727238
 20
-344.000000
 11
52.227238
 21
-341.000000
  0
LINE
  8
A-DIMS-0
 10
53.727238
 20
-384.000000
 11
52.227238
 21
-387.000000
  0
LINE
  8
A-DIMS-0
 10
52.227238
 20
-353.442876
 11
52.227238
 21
-341.000000
  0
LINE
  8
A-DIMS-0
 10
52.227238
 20
-374.557124
 11
52.227238
 21
-387.000000
  0
TEXT
  8
A-DIMS-0
 10
54.839176
 20
-371.835812
 40
5.465479
  1
3'10
 50
90.000000
  7
STANDARD
  0
LINE
  8
A-DIMS-0
 10
-117.000000
 20
-335.832331
 11
-114.000000
 21
-337.332331
  0
LINE
  8
A-DIMS-0
 10
-259.000000
 20
-338.832331
 11
-262.000000
 21
-337.332331
  0
LINE
  8
A-DIMS-0
 10
-177.442876
 20
-337.332331
 11
-114.000000
 21
-337.332331
  0
LINE
  8
A-DIMS-0
 10
-198.557124
 20
-337.332331
 11
-262.000000
 21
-337.332331
  0
TEXT
  8
A-DIMS-0
 10
-195.835812
 20
-339.944269
 40
5.465479
  1
12'4
  7
STANDARD
  0
LINE
  8
A-DIMS-0
 10
-79.341109
 20
-344.000000
 11
-77.841109
 21
-341.000000
  0
LINE
  8
A-DIMS-0
 10
-76.341109
 20
-465.000000
 11
-77.841109
 21
-468.000000
  0
LINE
  8
A-DIMS-0
 10
-77.841109
 20
-393.942876
 11
-77.841109
 21
-341.000000
  0
LINE
  8
A-DIMS-0
 10
-77.841109
 20
-415.057124
 11
-77.841109
 21
-468.000000
  0
TEXT
  8
A-DIMS-0
 10
-75.229171
 20
-412.335812
 40
5.465479
  1
10'7
 50
90.000000
  7
STANDARD
  0
ENDSEC
  0
EOF
